  0
SECTION
  2
HEADER
  9
$ACADVER
  1
AC1009
  9
$INSBASE
 10
608.4891966673731076
 20
79.2999343284895133
 30
0.0
  9
$EXTMIN
 10
607.2886854211527634
 20
78.4723195884090217
 30
-0.0000000000000058
  9
$EXTMAX
 10
617.2841535365647587
 20
80.1466665454490084
 30
0.0000000000000104
  9
$LIMMIN
 10
0.0
 20
0.0
  9
$LIMMAX
 10
11.6929133858000007
 20
8.2677165353999982
  9
$ORTHOMODE
 70
     0
  9
$REGENMODE
 70
     1
  9
$FILLMODE
 70
     1
  9
$QTEXTMODE
 70
     0
  9
$MIRRTEXT
 70
     0
  9
$DRAGMODE
 70
     2
  9
$LTSCALE
 40
0.6431102362
  9
$OSMODE
 70
  4095
  9
$ATTMODE
 70
     1
  9
$TEXTSIZE
 40
0.2
  9
$TRACEWID
 40
0.05
  9
$TEXTSTYLE
  7
STANDARD
  9
$CLAYER
  8
0
  9
$CELTYPE
  6
BYLAYER
  9
$CECOLOR
 62
   256
  9
$DIMSCALE
 40
1.0
  9
$DIMASZ
 40
0.1875
  9
$DIMEXO
 40
0.0625
  9
$DIMDLI
 40
0.4443307087
  9
$DIMRND
 40
0.0
  9
$DIMDLE
 40
0.0
  9
$DIMEXE
 40
0.125
  9
$DIMTP
 40
0.01
  9
$DIMTM
 40
0.01
  9
$DIMTXT
 40
1.0
  9
$DIMCEN
 40
0.1052362205
  9
$DIMTSZ
 40
0.0
  9
$DIMTOL
 70
     1
  9
$DIMLIM
 70
     0
  9
$DIMTIH
 70
     0
  9
$DIMTOH
 70
     1
  9
$DIMSE1
 70
     0
  9
$DIMSE2
 70
     0
  9
$DIMTAD
 70
     0
  9
$DIMZIN
 70
     0
  9
$DIMBLK
  1

  9
$DIMASO
 70
     1
  9
$DIMSHO
 70
     1
  9
$DIMPOST
  1
\X
  9
$DIMAPOST
  1

  9
$DIMALT
 70
     1
  9
$DIMALTD
 70
     2
  9
$DIMALTF
 40
25.3999999999999986
  9
$DIMLFAC
 40
1.0
  9
$DIMTOFL
 70
     0
  9
$DIMTVP
 40
0.0
  9
$DIMTIX
 70
     0
  9
$DIMSOXD
 70
     0
  9
$DIMSAH
 70
     0
  9
$DIMBLK1
  1

  9
$DIMBLK2
  1

  9
$DIMSTYLE
  2
STANDARD
  9
$DIMCLRD
 70
     0
  9
$DIMCLRE
 70
     0
  9
$DIMCLRT
 70
     0
  9
$DIMTFAC
 40
1.0
  9
$DIMGAP
 40
0.09
  9
$LUNITS
 70
     2
  9
$LUPREC
 70
     4
  9
$SKETCHINC
 40
0.1
  9
$FILLETRAD
 40
0.0
  9
$AUNITS
 70
     0
  9
$AUPREC
 70
     0
  9
$MENU
  1
.
  9
$ELEVATION
 40
0.0
  9
$PELEVATION
 40
0.0
  9
$THICKNESS
 40
0.0
  9
$LIMCHECK
 70
     0
  9
$BLIPMODE
 70
     0
  9
$CHAMFERA
 40
0.0
  9
$CHAMFERB
 40
0.0
  9
$SKPOLY
 70
     0
  9
$TDCREATE
 40
2458171.8957638889551163
  9
$TDUPDATE
 40
2459087.9370254632085562
  9
$TDINDWG
 40
0.3602900694
  9
$TDUSRTIMER
 40
0.3602900694
  9
$USRTIMER
 70
     1
  9
$ANGBASE
 50
0.0
  9
$ANGDIR
 70
     0
  9
$PDMODE
 70
     0
  9
$PDSIZE
 40
0.3125
  9
$PLINEWID
 40
0.0
  9
$COORDS
 70
     1
  9
$SPLFRAME
 70
     0
  9
$SPLINETYPE
 70
     6
  9
$SPLINESEGS
 70
     8
  9
$ATTDIA
 70
     1
  9
$ATTREQ
 70
     1
  9
$HANDLING
 70
     1
  9
$HANDSEED
  5
9018
  9
$SURFTAB1
 70
     6
  9
$SURFTAB2
 70
     6
  9
$SURFTYPE
 70
     6
  9
$SURFU
 70
     6
  9
$SURFV
 70
     6
  9
$UCSNAME
  2

  9
$UCSORG
 10
0.0
 20
0.0
 30
0.0
  9
$UCSXDIR
 10
1.0
 20
0.0
 30
0.0
  9
$UCSYDIR
 10
0.0
 20
1.0
 30
0.0
  9
$PUCSNAME
  2

  9
$PUCSORG
 10
0.0
 20
0.0
 30
0.0
  9
$PUCSXDIR
 10
1.0
 20
0.0
 30
0.0
  9
$PUCSYDIR
 10
0.0
 20
1.0
 30
0.0
  9
$USERI1
 70
     0
  9
$USERI2
 70
     0
  9
$USERI3
 70
     0
  9
$USERI4
 70
     0
  9
$USERI5
 70
     0
  9
$USERR1
 40
0.0
  9
$USERR2
 40
0.0
  9
$USERR3
 40
0.0
  9
$USERR4
 40
0.0
  9
$USERR5
 40
0.0
  9
$WORLDVIEW
 70
     1
  9
$SHADEDGE
 70
     3
  9
$SHADEDIF
 70
    70
  9
$TILEMODE
 70
     1
  9
$MAXACTVP
 70
    64
  9
$PLIMCHECK
 70
     0
  9
$PEXTMIN
 10
1.0000000000000000E+20
 20
1.0000000000000000E+20
 30
1.0000000000000000E+20
  9
$PEXTMAX
 10
-1.0000000000000000E+20
 20
-1.0000000000000000E+20
 30
-1.0000000000000000E+20
  9
$PLIMMIN
 10
0.0
 20
0.0
  9
$PLIMMAX
 10
12.0
 20
9.0
  9
$UNITMODE
 70
     0
  9
$VISRETAIN
 70
     1
  9
$PLINEGEN
 70
     0
  9
$PSLTSCALE
 70
     1
  0
ENDSEC
  0
SECTION
  2
TABLES
  0
TABLE
  2
VPORT
 70
     1
  0
VPORT
  2
*ACTIVE
 70
     0
 10
0.0
 20
0.0
 11
1.0
 21
1.0
 12
145.5442177710287979
 22
-9.8236540530007659
 13
0.0
 23
0.0
 14
1.0
 24
1.0
 15
0.0
 25
0.0
 16
0.0
 26
0.0
 36
24.1179433675886514
 17
466.74220170783002
 27
89.133147119929788
 37
0.0
 40
3.6638991369682938
 41
2.740286298568507
 42
50.0
 43
0.0
 44
0.0
 50
0.0
 51
0.0
 71
     0
 72
   100
 73
     1
 74
     1
 75
     0
 76
     0
 77
     0
 78
     0
  0
ENDTAB
  0
TABLE
  2
LTYPE
 70
     2
  0
LTYPE
  2
CONTINUOUS
 70
     0
  3
Solid line
 72
    65
 73
     0
 40
0.0
  0
LTYPE
  2
PHANTOM2
 70
     0
  3
___ _ _ ___ _ _ ___ _ _ ___ _ _
 72
    65
 73
     6
 40
1.25
 49
0.625
 49
-0.125
 49
0.125
 49
-0.125
 49
0.125
 49
-0.125
  0
ENDTAB
  0
TABLE
  2
LAYER
 70
     2
  0
LAYER
  2
0
 70
     0
 62
   255
  6
CONTINUOUS
  0
LAYER
  2
DEFPOINTS
 70
     0
 62
     7
  6
CONTINUOUS
  0
ENDTAB
  0
TABLE
  2
STYLE
 70
     1
  0
STYLE
  2
STANDARD
 70
     0
 40
0.0
 41
0.8
 50
0.0
 71
     0
 42
0.2
  3
txt
  4

  0
ENDTAB
  0
TABLE
  2
VIEW
 70
     0
  0
ENDTAB
  0
TABLE
  2
UCS
 70
     0
  0
ENDTAB
  0
TABLE
  2
APPID
 70
    10
  0
APPID
  2
ACAD
 70
     0
  0
APPID
  2
ACAD_MLEADERVER
 70
     0
  0
APPID
  2
ACAD_EXEMPT_FROM_CAD_STANDARDS
 70
     0
  0
APPID
  2
ACAD_DSTYLE_DIMJAG
 70
     0
  0
APPID
  2
ACAD_DSTYLE_DIMTALN
 70
     0
  0
APPID
  2
ACAD_NAV_VCDISPLAY
 70
     0
  0
APPID
  2
ACAECLAYERSTANDARD
 70
     0
  0
APPID
  2
ACCMTRANSPARENCY
 70
     0
  0
APPID
  2
DCO15
 70
     0
  0
APPID
  2
ACDBATTR
 70
     0
  0
ENDTAB
  0
TABLE
  2
DIMSTYLE
 70
     1
  0
DIMSTYLE
  2
STANDARD
 70
     0
  3

  4

  5

  6

  7

 40
1.0
 41
0.1875
 42
0.0625
 43
0.38
 44
0.125
 45
0.0
 46
0.0
 47
0.01
 48
0.01
140
0.15625
141
0.09
142
0.0
143
25.3999999999999986
144
1.0
145
0.0
146
1.0
147
0.09
 71
     1
 72
     0
 73
     1
 74
     1
 75
     0
 76
     0
 77
     0
 78
     4
170
     0
171
     2
172
     0
173
     0
174
     0
175
     0
176
     0
177
     0
178
     0
  0
ENDTAB
  0
ENDSEC
  0
SECTION
  2
BLOCKS
  0
BLOCK
  8
0
  2
$MODEL_SPACE
 70
     0
 10
0.0
 20
0.0
 30
0.0
  3
$MODEL_SPACE
  1

  0
ENDBLK
  5
21
  8
0
  0
BLOCK
 67
     1
  8
0
  2
$PAPER_SPACE
 70
     0
 10
0.0
 20
0.0
 30
0.0
  3
$PAPER_SPACE
  1

  0
ENDBLK
  5
1D
 67
     1
  8
0
  0
ENDSEC
  0
SECTION
  2
ENTITIES
  0
ATTDEF
  5
829
  8
DEFPOINTS
 10
608.4846444246434203
 20
79.3047329455663288
 30
0.0
 40
0.001
  1
K-25067IN
  3

  2
MODELNUMBER
 70
     0
1001
ACDBATTR
1070
     0
1070
     1
  0
ATTDEF
  5
82A
  8
DEFPOINTS
 10
608.4846444246434203
 20
79.3030662788996636
 30
0.0
 40
0.001
  1
COMPLEMENTARY
  3

  2
TRADENAME
 70
     0
1001
ACDBATTR
1070
     0
1070
     1
  0
ATTDEF
  5
82B
  8
DEFPOINTS
 10
608.4846444246434203
 20
79.3013996122329985
 30
0.0
 40
0.001
  1
TOWEL RING
  3

  2
PRODUCT
 70
     0
1001
ACDBATTR
1070
     0
1070
     1
  0
LINE
  5
8EAF
  8
0
 10
607.3080943051729719
 20
78.5519028324395236
 30
0.0
 11
607.3080943051729719
 21
80.0479658245395171
 31
0.0
  0
LINE
  5
8EB0
  8
0
 10
607.9970706830731615
 20
79.2408792103395143
 30
0.0
 11
607.9970706830731615
 21
79.4180445646395157
 31
0.0
  0
LINE
  5
8EB1
  8
0
 10
608.9813226515730094
 20
79.4180445663395176
 30
0.0
 11
608.9813226515730094
 21
79.1818240922395233
 31
0.0
  0
LINE
  5
8EB2
  8
0
 10
608.9813226515730094
 20
79.1818240922395233
 30
0.0
 11
608.9813226515730094
 21
79.4180445646395157
 31
0.0
  0
LINE
  5
8EB3
  8
0
 10
609.6702990295731297
 20
80.0479658245395171
 30
0.0
 11
609.6702990295731297
 21
79.4377296040395038
 31
0.0
  0
LINE
  5
8EB4
  8
0
 10
609.6702990295731297
 20
79.162139052839521
 30
0.0
 11
609.6702990295731297
 21
78.5519028324395236
 31
0.0
  0
LINE
  5
8EB5
  8
0
 10
609.5915588720730511
 20
78.4731626749395161
 30
0.0
 11
607.3868344625731197
 21
78.4731626749395161
 31
0.0
  0
LINE
  5
8EB6
  8
0
 10
617.2053967366731513
 20
79.162139052839521
 30
0.0
 11
617.028231382372951
 21
79.162139052839521
 31
0.0
  0
LINE
  5
8EB7
  8
0
 10
616.9888613035730032
 20
79.162139052839521
 30
0.0
 11
609.0010076909730969
 21
79.162139052839521
 31
0.0
  0
LINE
  5
8EB8
  8
0
 10
608.9616376121731491
 20
79.162139052839521
 30
0.0
 11
608.0758108405731264
 21
79.162139052839521
 31
0.0
  0
LINE
  5
8EB9
  8
0
 10
608.0167557224731354
 20
79.4377296040395038
 30
0.0
 11
608.9616376121731491
 21
79.4377296040395038
 31
0.0
  0
LINE
  5
8EBA
  8
0
 10
609.0010076909730969
 20
79.4377296040395038
 30
0.0
 11
616.9888613035730032
 21
79.4377296040395038
 31
0.0
  0
LINE
  5
8EBB
  8
0
 10
607.3868344625731197
 20
80.1267059820395247
 30
0.0
 11
609.5915588720730511
 21
80.1267059820395247
 31
0.0
  0
LINE
  5
8EBC
  8
0
 10
617.028231382372951
 20
80.1463910213395252
 30
0.0
 11
617.2644518547731423
 21
80.1463910213395252
 31
0.0
  0
LINE
  5
8EBD
  8
0
 10
617.0085463429730908
 20
79.4180445646395157
 30
0.0
 11
617.0085463429730908
 21
79.1818240922395233
 31
0.0
  0
LINE
  5
8EBE
  8
0
 10
617.0085463429730908
 20
79.1818240922395233
 30
0.0
 11
617.0085463429730908
 21
80.1267059820395247
 31
0.0
  0
LINE
  5
8EBF
  8
0
 10
617.2841368941731162
 20
80.1267059820395247
 30
0.0
 11
617.2841368941731162
 21
79.2408792103395285
 31
0.0
  0
ARC
  5
8EC0
  8
0
 10
608.0758108405731264
 20
79.2408792103395143
 30
0.0
 40
0.0787401575
 50
180.0
 51
270.0
  0
ARC
  5
8EC1
  8
0
 10
617.2053967366731513
 20
79.2408792103395143
 30
0.0
 40
0.0787401575
 50
270.0
 51
0.0
  0
ARC
  5
8EC2
  8
0
 10
607.3868344625731197
 20
80.0479658245395171
 30
0.0
 40
0.0787401575
 50
90.0
 51
180.0
  0
ARC
  5
8EC3
  8
0
 10
607.3868344625731197
 20
78.5519028324395236
 30
0.0
 40
0.0787401575
 50
180.0
 51
270.0
  0
ARC
  5
8EC4
  8
0
 10
609.5915588720730511
 20
78.5519028324395236
 30
0.0
 40
0.0787401575
 50
270.0
 51
0.0
  0
ARC
  5
8EC5
  8
0
 10
609.5915588720730511
 20
80.0479658245395171
 30
0.0
 40
0.0787401575
 50
0.0
 51
90.0
  0
ARC
  5
8EC6
  8
0
 10
608.0167557224731354
 20
79.4180445646395157
 30
0.0
 40
0.0196850394
 50
90.0
 51
180.0
  0
ARC
  5
8EC7
  8
0
 10
608.9616376121731491
 20
79.4180445646395157
 30
0.0
 40
0.0196850394
 50
0.0
 51
90.0
  0
ARC
  5
8EC8
  8
0
 10
608.9616376121731491
 20
79.1818240922395233
 30
0.0
 40
0.0196850394
 50
270.0
 51
0.0
  0
ARC
  5
8EC9
  8
0
 10
617.2644518547731423
 20
80.1267059820395247
 30
0.0
 40
0.0196850394
 50
0.0
 51
90.0
  0
ARC
  5
8ECA
  8
0
 10
617.028231382372951
 20
79.1818240922395233
 30
0.0
 40
0.0196850394
 50
180.0
 51
270.0
  0
ARC
  5
8ECB
  8
0
 10
617.028231382372951
 20
80.1267059820395247
 30
0.0
 40
0.0196850394
 50
90.0
 51
180.0
  0
ARC
  5
8ECC
  8
0
 10
609.0010076909730969
 20
79.1818240922395233
 30
0.0
 40
0.0196850394
 50
180.0
 51
270.0
  0
ARC
  5
8ECD
  8
0
 10
616.9888613035730032
 20
79.4180445646395157
 30
0.0
 40
0.0196850394
 50
0.0
 51
90.0
  0
ARC
  5
8ECE
  8
0
 10
609.0010076909730969
 20
79.4180445646395157
 30
0.0
 40
0.0196850394
 50
90.0
 51
180.0
  0
ARC
  5
8ECF
  8
0
 10
616.9888613035730032
 20
79.1818240922395233
 30
0.0
 40
0.0196850394
 50
270.0
 51
0.0
  0
ENDSEC
  0
EOF
