  0
SECTION
  2
HEADER
  9
$ACADVER
  1
AC1009
  9
$INSBASE
 10
3990.1228189798548556
 20
141.0500177010470111
 30
0.0
  9
$EXTMIN
 10
3986.6191467063049458
 20
141.0452584368140094
 30
0.0
  9
$EXTMAX
 10
3990.7921103184048661
 20
143.1366318743469037
 30
0.0
  9
$LIMMIN
 10
0.0
 20
0.0
  9
$LIMMAX
 10
11.6929133858000007
 20
8.2677165353999982
  9
$ORTHOMODE
 70
     0
  9
$REGENMODE
 70
     1
  9
$FILLMODE
 70
     1
  9
$QTEXTMODE
 70
     0
  9
$MIRRTEXT
 70
     0
  9
$DRAGMODE
 70
     2
  9
$LTSCALE
 40
0.6431102362
  9
$OSMODE
 70
  4095
  9
$ATTMODE
 70
     1
  9
$TEXTSIZE
 40
0.2
  9
$TRACEWID
 40
0.05
  9
$TEXTSTYLE
  7
STANDARD
  9
$CLAYER
  8
0
  9
$CELTYPE
  6
BYLAYER
  9
$CECOLOR
 62
   256
  9
$DIMSCALE
 40
1.0
  9
$DIMASZ
 40
0.1875
  9
$DIMEXO
 40
0.0625
  9
$DIMDLI
 40
0.4443307087
  9
$DIMRND
 40
0.0
  9
$DIMDLE
 40
0.0
  9
$DIMEXE
 40
0.125
  9
$DIMTP
 40
0.01
  9
$DIMTM
 40
0.01
  9
$DIMTXT
 40
2.0
  9
$DIMCEN
 40
0.1052362205
  9
$DIMTSZ
 40
0.0
  9
$DIMTOL
 70
     1
  9
$DIMLIM
 70
     0
  9
$DIMTIH
 70
     1
  9
$DIMTOH
 70
     1
  9
$DIMSE1
 70
     0
  9
$DIMSE2
 70
     0
  9
$DIMTAD
 70
     0
  9
$DIMZIN
 70
     0
  9
$DIMBLK
  1

  9
$DIMASO
 70
     1
  9
$DIMSHO
 70
     1
  9
$DIMPOST
  1
\X
  9
$DIMAPOST
  1

  9
$DIMALT
 70
     1
  9
$DIMALTD
 70
     2
  9
$DIMALTF
 40
25.3999999999999986
  9
$DIMLFAC
 40
1.0
  9
$DIMTOFL
 70
     0
  9
$DIMTVP
 40
0.0
  9
$DIMTIX
 70
     0
  9
$DIMSOXD
 70
     0
  9
$DIMSAH
 70
     0
  9
$DIMBLK1
  1

  9
$DIMBLK2
  1

  9
$DIMSTYLE
  2
STANDARD
  9
$DIMCLRD
 70
     0
  9
$DIMCLRE
 70
     0
  9
$DIMCLRT
 70
     0
  9
$DIMTFAC
 40
1.0
  9
$DIMGAP
 40
0.09
  9
$LUNITS
 70
     2
  9
$LUPREC
 70
     4
  9
$SKETCHINC
 40
0.1
  9
$FILLETRAD
 40
0.0
  9
$AUNITS
 70
     0
  9
$AUPREC
 70
     0
  9
$MENU
  1
.
  9
$ELEVATION
 40
0.0
  9
$PELEVATION
 40
0.0
  9
$THICKNESS
 40
0.0
  9
$LIMCHECK
 70
     0
  9
$BLIPMODE
 70
     0
  9
$CHAMFERA
 40
0.0
  9
$CHAMFERB
 40
0.0
  9
$SKPOLY
 70
     0
  9
$TDCREATE
 40
2458060.468368056230247
  9
$TDUPDATE
 40
2459091.5676388889551163
  9
$TDINDWG
 40
0.4060024306
  9
$TDUSRTIMER
 40
0.4060024306
  9
$USRTIMER
 70
     1
  9
$ANGBASE
 50
0.0
  9
$ANGDIR
 70
     0
  9
$PDMODE
 70
     0
  9
$PDSIZE
 40
0.3125
  9
$PLINEWID
 40
0.0
  9
$COORDS
 70
     1
  9
$SPLFRAME
 70
     0
  9
$SPLINETYPE
 70
     6
  9
$SPLINESEGS
 70
     8
  9
$ATTDIA
 70
     1
  9
$ATTREQ
 70
     1
  9
$HANDLING
 70
     1
  9
$HANDSEED
  5
11AC8
  9
$SURFTAB1
 70
     6
  9
$SURFTAB2
 70
     6
  9
$SURFTYPE
 70
     6
  9
$SURFU
 70
     6
  9
$SURFV
 70
     6
  9
$UCSNAME
  2

  9
$UCSORG
 10
0.0
 20
0.0
 30
0.0
  9
$UCSXDIR
 10
1.0
 20
0.0
 30
0.0
  9
$UCSYDIR
 10
0.0
 20
1.0
 30
0.0
  9
$PUCSNAME
  2

  9
$PUCSORG
 10
0.0
 20
0.0
 30
0.0
  9
$PUCSXDIR
 10
1.0
 20
0.0
 30
0.0
  9
$PUCSYDIR
 10
0.0
 20
1.0
 30
0.0
  9
$USERI1
 70
     0
  9
$USERI2
 70
     0
  9
$USERI3
 70
     0
  9
$USERI4
 70
     0
  9
$USERI5
 70
     0
  9
$USERR1
 40
0.0
  9
$USERR2
 40
0.0
  9
$USERR3
 40
0.0
  9
$USERR4
 40
0.0
  9
$USERR5
 40
0.0
  9
$WORLDVIEW
 70
     1
  9
$SHADEDGE
 70
     3
  9
$SHADEDIF
 70
    70
  9
$TILEMODE
 70
     1
  9
$MAXACTVP
 70
    64
  9
$PLIMCHECK
 70
     0
  9
$PEXTMIN
 10
1.0000000000000000E+20
 20
1.0000000000000000E+20
 30
1.0000000000000000E+20
  9
$PEXTMAX
 10
-1.0000000000000000E+20
 20
-1.0000000000000000E+20
 30
-1.0000000000000000E+20
  9
$PLIMMIN
 10
0.0
 20
0.0
  9
$PLIMMAX
 10
12.0
 20
9.0
  9
$UNITMODE
 70
     0
  9
$VISRETAIN
 70
     1
  9
$PLINEGEN
 70
     0
  9
$PSLTSCALE
 70
     1
  0
ENDSEC
  0
SECTION
  2
TABLES
  0
TABLE
  2
VPORT
 70
     1
  0
VPORT
  2
*ACTIVE
 70
     0
 10
0.0
 20
0.0
 11
1.0
 21
1.0
 12
77.3402720670428607
 22
9.5113400530414367
 13
0.0
 23
0.0
 14
1.0
 24
1.0
 15
0.0
 25
0.0
 16
0.0
 26
0.0
 36
60.4960186965801583
 17
3911.3653564453120453
 27
132.5796051025390057
 37
0.0
 40
2.1110107468055328
 41
2.5642633228840119
 42
50.0
 43
0.0
 44
0.0
 50
0.0
 51
0.0
 71
     0
 72
   100
 73
     1
 74
     1
 75
     0
 76
     0
 77
     0
 78
     0
  0
ENDTAB
  0
TABLE
  2
LTYPE
 70
     2
  0
LTYPE
  2
CONTINUOUS
 70
     0
  3
Solid line
 72
    65
 73
     0
 40
0.0
  0
LTYPE
  2
PHANTOM2
 70
     0
  3
___ _ _ ___ _ _ ___ _ _ ___ _ _
 72
    65
 73
     6
 40
1.25
 49
0.625
 49
-0.125
 49
0.125
 49
-0.125
 49
0.125
 49
-0.125
  0
ENDTAB
  0
TABLE
  2
LAYER
 70
     2
  0
LAYER
  2
0
 70
     0
 62
   255
  6
CONTINUOUS
  0
LAYER
  2
DEFPOINTS
 70
     0
 62
     7
  6
CONTINUOUS
  0
ENDTAB
  0
TABLE
  2
STYLE
 70
     1
  0
STYLE
  2
STANDARD
 70
     0
 40
0.0
 41
0.8
 50
0.0
 71
     0
 42
0.2
  3
txt
  4

  0
ENDTAB
  0
TABLE
  2
VIEW
 70
     0
  0
ENDTAB
  0
TABLE
  2
UCS
 70
     0
  0
ENDTAB
  0
TABLE
  2
APPID
 70
    10
  0
APPID
  2
ACAD
 70
     0
  0
APPID
  2
ACAD_MLEADERVER
 70
     0
  0
APPID
  2
ACAD_EXEMPT_FROM_CAD_STANDARDS
 70
     0
  0
APPID
  2
ACAD_NAV_VCDISPLAY
 70
     0
  0
APPID
  2
ACAECLAYERSTANDARD
 70
     0
  0
APPID
  2
ACCMTRANSPARENCY
 70
     0
  0
APPID
  2
ACAD_DSTYLE_DIMJAG
 70
     0
  0
APPID
  2
ACAD_DSTYLE_DIMTALN
 70
     0
  0
APPID
  2
ACDBATTR
 70
     0
  0
APPID
  2
ACADANNOTATIVE
 70
     0
  0
ENDTAB
  0
TABLE
  2
DIMSTYLE
 70
     1
  0
DIMSTYLE
  2
STANDARD
 70
     0
  3

  4

  5

  6

  7

 40
1.0
 41
0.1875
 42
0.0625
 43
0.38
 44
0.125
 45
0.0
 46
0.0
 47
0.01
 48
0.01
140
0.15625
141
0.09
142
0.0
143
25.3999999999999986
144
1.0
145
0.0
146
1.0
147
0.09
 71
     1
 72
     0
 73
     1
 74
     1
 75
     0
 76
     0
 77
     0
 78
     4
170
     0
171
     2
172
     0
173
     0
174
     0
175
     0
176
     0
177
     0
178
     0
  0
ENDTAB
  0
ENDSEC
  0
SECTION
  2
BLOCKS
  0
BLOCK
  8
0
  2
$MODEL_SPACE
 70
     0
 10
0.0
 20
0.0
 30
0.0
  3
$MODEL_SPACE
  1

  0
ENDBLK
  5
21
  8
0
  0
BLOCK
 67
     1
  8
0
  2
$PAPER_SPACE
 70
     0
 10
0.0
 20
0.0
 30
0.0
  3
$PAPER_SPACE
  1

  0
ENDBLK
  5
1D
 67
     1
  8
0
  0
ENDSEC
  0
SECTION
  2
ENTITIES
  0
LINE
  5
1186E
  8
0
 10
3990.7921103184048661
 20
141.6779570350946926
 30
0.0
 11
3990.7921103184048661
 21
143.0578917168469104
 31
0.0
  0
LINE
  5
1186F
  8
0
 10
3990.5972599622059533
 20
141.0500177010470111
 30
0.0
 11
3990.6365772945050594
 21
141.0873377449468933
 31
0.0
  0
LINE
  5
11870
  8
0
 10
3990.6365772945050594
 20
141.0873377449468933
 30
0.0
 11
3990.6596055536051608
 21
141.526579587346987
 31
0.0
  0
LINE
  5
11871
  8
0
 10
3990.5558898460049022
 20
143.0578917168469104
 30
0.0
 11
3990.5558898460049022
 21
142.7823011656469134
 31
0.0
  0
LINE
  5
11872
  8
0
 10
3989.6503756912052268
 20
142.7035633518468956
 30
0.0
 11
3989.4928977200052032
 21
142.861041323146992
 31
0.0
  0
LINE
  5
11873
  8
0
 10
3990.6365772945050594
 20
141.0873377449468933
 30
0.0
 11
3989.6090606652051065
 21
141.0873377449468933
 31
0.0
  0
LINE
  5
11874
  8
0
 10
3989.5849985201898562
 20
141.5358192887318012
 30
0.0
 11
3989.4928977200052032
 21
141.44371848844699
 31
0.0
  0
LINE
  5
11875
  8
0
 10
3989.4928977200052032
 20
142.861041323146992
 30
0.0
 11
3989.4928977200052032
 21
142.7035610319468901
 31
0.0
  0
LINE
  5
11876
  8
0
 10
3989.4928977200052032
 20
141.6011988367469883
 30
0.0
 11
3989.4928977200052032
 21
141.44371848844699
 31
0.0
  0
LINE
  5
11877
  8
0
 10
3989.6090606652051065
 20
141.0873377449468933
 30
0.0
 11
3989.5860324060049606
 21
141.526579587346987
 31
0.0
  0
LINE
  5
11878
  8
0
 10
3989.4535276412048006
 20
142.6248208506470121
 30
0.0
 11
3989.4535276412048006
 21
141.685178077167194
 31
0.0
  0
LINE
  5
11879
  8
0
 10
3989.335417405005046
 20
142.6838759687470031
 30
0.0
 11
3989.335417405005046
 21
141.6208838425469878
 31
0.0
  0
LINE
  5
1187A
  8
0
 10
3988.7960473263051426
 20
141.4634035278469923
 30
0.0
 11
3988.8511654365061077
 21
141.4634035278469923
 31
0.0
  0
LINE
  5
1187B
  8
0
 10
3986.8036262092050492
 20
141.4688799057468884
 30
0.0
 11
3988.7842363027061765
 21
141.4688799057468884
 31
0.0
  0
LINE
  5
1187C
  8
0
 10
3989.5862484557919743
 20
141.5224586459470117
 30
0.0
 11
3989.5716378774200166
 21
141.5224586459470117
 31
0.0
  0
LINE
  5
1187D
  8
0
 10
3989.4206025236048845
 20
141.6011988034468914
 30
0.0
 11
3989.5150263650461966
 21
141.6011988034468914
 31
0.0
  0
LINE
  5
1187E
  8
0
 10
3989.532267798706016
 20
141.6011988034468914
 30
0.0
 11
3989.7284335359049692
 21
141.6011988034468914
 31
0.0
  0
LINE
  5
1187F
  8
0
 10
3990.7133701609050149
 20
141.6011988034468914
 30
0.0
 11
3990.5172044541059222
 21
141.6011988034468914
 31
0.0
  0
LINE
  5
11880
  8
0
 10
3988.8629764601050738
 20
141.44371848844699
 30
0.0
 11
3988.8629764601050738
 21
142.861041323146992
 31
0.0
  0
LINE
  5
11881
  8
0
 10
3988.7842363027061765
 20
142.8413562837469897
 30
0.0
 11
3988.7842363027061765
 21
141.4688799057468884
 31
0.0
  0
LINE
  5
11882
  8
0
 10
3989.648377997505122
 20
141.0500177010470111
 30
0.0
 11
3989.6090606652051065
 21
141.0873377449468933
 31
0.0
  0
LINE
  5
11883
  8
0
 10
3988.1149449641047795
 20
142.8413562837469897
 30
0.0
 11
3988.1149449641047795
 21
142.861041323146992
 31
0.0
  0
LINE
  5
11884
  8
0
 10
3988.0913229168049838
 20
142.8413562837469897
 30
0.0
 11
3988.0913229168049838
 21
142.861041323146992
 31
0.0
  0
LINE
  5
11885
  8
0
 10
3990.7133701609050149
 20
142.7035610081470054
 30
0.0
 11
3989.4206030843051849
 21
142.7035610081470054
 31
0.0
  0
LINE
  5
11886
  8
0
 10
3990.7133695858051396
 20
142.7823012258469078
 30
0.0
 11
3990.5558898460049022
 21
142.7823011656469134
 31
0.0
  0
LINE
  5
11887
  8
0
 10
3990.2802992948059
 20
142.7823011656469134
 30
0.0
 11
3989.5716378775050543
 21
142.7823011656469134
 31
0.0
  0
LINE
  5
11888
  8
0
 10
3988.7842363027061765
 20
142.8216712443469874
 30
0.0
 11
3987.4062835468048434
 21
142.8216712443469874
 31
0.0
  0
LINE
  5
11889
  8
0
 10
3986.8036262092050492
 20
142.8358799057469923
 30
0.0
 11
3987.4062835468048434
 21
142.8358799057469923
 31
0.0
  0
LINE
  5
1188A
  8
0
 10
3988.7960473263051426
 20
142.8413562837469897
 30
0.0
 11
3988.8511654365061077
 21
142.8413562837469897
 31
0.0
  0
LINE
  5
1188B
  8
0
 10
3988.7842363027061765
 20
142.8413562837469897
 30
0.0
 11
3988.1149449641047795
 21
142.8413562837469897
 31
0.0
  0
LINE
  5
1188C
  8
0
 10
3988.0913229168049838
 20
142.8413562837469897
 30
0.0
 11
3987.7448662239057739
 21
142.8413562837469897
 31
0.0
  0
LINE
  5
1188D
  8
0
 10
3987.7212441767051132
 20
142.8413562837469897
 30
0.0
 11
3987.4062835468048434
 21
142.8413562837469897
 31
0.0
  0
LINE
  5
1188E
  8
0
 10
3988.1149449641047795
 20
142.861041323146992
 30
0.0
 11
3988.0913229168049838
 21
142.861041323146992
 31
0.0
  0
LINE
  5
1188F
  8
0
 10
3987.7448662239057739
 20
142.861041323146992
 30
0.0
 11
3987.7212441767051132
 21
142.861041323146992
 31
0.0
  0
LINE
  5
11890
  8
0
 10
3987.7448662239057739
 20
142.8413562837469897
 30
0.0
 11
3987.7448662239057739
 21
142.861041323146992
 31
0.0
  0
LINE
  5
11891
  8
0
 10
3987.7212441767051132
 20
142.8413562837469897
 30
0.0
 11
3987.7212441767051132
 21
142.861041323146992
 31
0.0
  0
LINE
  5
11892
  8
0
 10
3990.7133701609050149
 20
143.1366318742468877
 30
0.0
 11
3990.6346300034051637
 21
143.1366318742468877
 31
0.0
  0
LINE
  5
11893
  8
0
 10
3987.4062835468048434
 20
142.8216712443469874
 30
0.0
 11
3987.4062835468048434
 21
142.8413562837469897
 31
0.0
  0
LINE
  5
11894
  8
0
 10
3986.7129194177050522
 20
141.535643794647001
 30
0.0
 11
3986.7129194177050522
 21
142.7691160169468958
 31
0.0
  0
ARC
  5
11895
  8
0
 10
3989.50740015920519
 20
141.5224586459470117
 30
0.0
 40
0.0787401575
 50
3.0000000001004259
 51
80.9144510929908733
  0
ARC
  5
11896
  8
0
 10
3990.7382378004049315
 20
141.5224586459470117
 30
0.0
 40
0.0787401575
 50
99.0854989207668808
 51
176.9999999998995861
  0
ARC
  5
11897
  8
0
 10
3988.8511654365061077
 20
141.4752145514468964
 30
0.0
 40
0.0118110236
 50
270.0
 51
0.0
  0
ARC
  5
11898
  8
0
 10
3988.7960473263051426
 20
141.4752145514468964
 30
0.0
 40
0.0118110236
 50
180.0
 51
270.0
  0
ARC
  5
11899
  8
0
 10
3990.2802992948059
 20
142.7035610081470054
 30
0.0
 40
0.0787401575
 50
0.0
 51
90.0
  0
ARC
  5
1189A
  8
0
 10
3989.532267798706016
 20
142.6248208506470121
 30
0.0
 40
0.0787401575000004
 50
90.0
 51
179.9999999999984084
  0
ARC
  5
1189B
  8
0
 10
3990.7133701609050149
 20
142.6248208506470121
 30
0.0
 40
0.0787401575
 50
359.9999862182992842
 51
90.0
  0
ARC
  5
1189C
  8
0
 10
3990.477149688505051
 20
142.7823011656469134
 30
0.0
 40
0.0787401575
 50
270.000508889687012
 51
0.0
  0
ARC
  5
1189D
  8
0
 10
3990.7133701609050149
 20
143.0578917168469104
 30
0.0
 40
0.0787401575
 50
0.0
 51
90.0
  0
ARC
  5
1189E
  8
0
 10
3990.6346300034051637
 20
143.0578917168469104
 30
0.0
 40
0.0787401575
 50
90.0
 51
180.0
  0
ARC
  5
1189F
  8
0
 10
3988.7960473263051426
 20
142.8295452601468867
 30
0.0
 40
0.0118110236
 50
90.0
 51
180.0
  0
ARC
  5
118A0
  8
0
 10
3988.8511654365061077
 20
142.8295452601468867
 30
0.0
 40
0.0118110236
 50
0.0
 51
90.0
  0
ARC
  5
118A1
  8
0
 10
3988.6941467063061282
 20
142.1523799057470114
 30
0.0
 40
2.0750000000000002
 50
162.709160503203691
 51
197.2908394967961954
  0
ARC
  5
118A2
  8
0
 10
3986.8036262092050492
 20
141.5638799057468873
 30
0.0
 40
0.095
 50
197.2908394969034873
 51
270.0
  0
ARC
  5
118A3
  8
0
 10
3986.8036262092050492
 20
142.7408799057469082
 30
0.0
 40
0.095
 50
90.0
 51
162.709160503203691
  0
ARC
  5
118A4
  8
0
 10
3990.7115698702541522
 20
142.733379082645996
 30
0.0
 40
0.0489552353833531
 50
44.5375046258077205
 51
87.8931906809715286
  0
ARC
  5
118A5
  8
0
 10
3990.6612532453950735
 20
142.6823471625752973
 30
0.0
 40
0.1206179345858185
 50
21.4186055074750286
 51
45.0525486880240109
  0
ARC
  5
118A6
  8
0
 10
3990.5079062059339776
 20
142.6253476729388012
 30
0.0
 40
0.2842046007849373
 50
0.1062114973197195
 51
20.8266587950627908
  0
ARC
  5
118A7
  8
0
 10
3989.4157919763028985
 20
142.530220594935912
 30
0.0
 40
0.1734071671309405
 50
88.4101489862547965
 51
117.6133180096010022
  0
ARC
  5
118A8
  8
0
 10
3989.4158140741301395
 20
141.7746349822540139
 30
0.0
 40
0.1735022690560115
 50
242.3948739886218959
 51
271.5814939375908921
  0
ARC
  5
118A9
  8
0
 10
3989.5324683662779535
 20
141.5199332954059059
 30
0.0
 40
0.0812657555463906
 50
90.1414087276267679
 51
98.9440836593554565
  0
ARC
  5
118AA
  8
0
 10
3989.5335790410749723
 20
141.679292734644406
 30
0.0
 40
0.0802674521692306
 50
175.7952052628814954
 51
260.1400026785391901
  0
ARC
  5
118AB
  8
0
 10
3990.1335658987441093
 20
142.3764622413488041
 30
0.0
 40
0.8210588334582313
 50
260.6115591903927111
 51
269.2500279665874245
  0
ARC
  5
118AC
  8
0
 10
3991.1093649851859482
 20
148.6209863610312993
 30
0.0
 40
7.1413361839090621
 50
260.3058247479360716
 51
261.0602297595478944
  0
ARC
  5
118AD
  8
0
 10
3989.69912630257204
 20
140.5112705753394948
 30
0.0
 40
1.090322180069323
 50
79.0175731411791844
 51
88.4597368759585834
  0
ARC
  5
118AE
  8
0
 10
3990.7121815194332157
 20
141.6789768878948053
 30
0.0
 40
0.0799353051215381
 50
279.8122346828960758
 51
359.2689732467932231
  0
ARC
  5
118AF
  8
0
 10
3990.7131713158519233
 20
141.5199532266215954
 30
0.0
 40
0.0812458201573579
 50
81.054884989929036
 51
89.8597713252481185
  0
ARC
  5
118B0
  8
0
 10
3990.5374664181899789
 20
140.6500833227096052
 30
0.0
 40
0.9513312803050743
 50
91.2204085368731228
 51
99.7098251981395123
  0
ARC
  5
118B1
  8
0
 10
3990.0242633930188276
 20
143.3468107584683082
 30
0.0
 40
1.7940461250367381
 50
273.1491178888376226
 51
281.3396244602561751
  0
LINE
  5
118B3
  8
0
 10
3990.5972599622059533
 20
141.0500177010470111
 30
0.0
 11
3989.648377997505122
 21
141.0500177010470111
 31
0.0
  0
LINE
  5
118B4
  8
0
 10
3988.8629764601050738
 20
141.44371848844699
 30
0.0
 11
3989.4928977200052032
 21
141.44371848844699
 31
0.0
  0
LINE
  5
118B5
  8
0
 10
3988.8629764601050738
 20
142.8610413230470044
 30
0.0
 11
3989.4928977201061571
 21
142.8610413230470044
 31
0.0
  0
CIRCLE
  5
118B6
  8
0
 10
3990.7258040873248319
 20
141.6002109139664071
 30
0.0
 40
0.0000000000022476
  0
ATTDEF
  5
118B7
  8
DEFPOINTS
 10
3990.1231995756038486
 20
141.0485917701473113
 30
0.0
 40
0.001
  1
K-24896T
  3

  2
MODELNUMBER
 70
     0
1001
ACDBATTR
1070
     0
1070
     1
  0
ATTDEF
  5
118B8
  8
DEFPOINTS
 10
3990.1231995756038486
 20
141.046925103480703
 30
0.0
 40
0.001
  1
COMPONENTS
  3

  2
TRADENAME
 70
     0
1001
ACDBATTR
1070
     0
1070
     1
  0
ATTDEF
  5
118B9
  8
DEFPOINTS
 10
3990.1231995756038486
 20
141.0452584368140094
 30
0.0
 40
0.001
  1
BATHROOM  FAUCET VALVE
  3

  2
PRODUCT
 70
     0
1001
ACDBATTR
1070
     0
1070
     1
  0
ENDSEC
  0
EOF
