  0
SECTION
  2
HEADER
  9
$ACADVER
  1
AC1009
  9
$INSBASE
 10
4466.8256873423697471
 20
267.239509915902886
 30
0.0
  9
$EXTMIN
 10
4462.0391940078197877
 20
267.2342080118975218
 30
0.0
  9
$EXTMAX
 10
4467.7311991533697437
 20
273.8385872960450911
 30
0.0
  9
$LIMMIN
 10
0.0
 20
0.0
  9
$LIMMAX
 10
11.6929133858000007
 20
8.2677165353999982
  9
$ORTHOMODE
 70
     0
  9
$REGENMODE
 70
     1
  9
$FILLMODE
 70
     1
  9
$QTEXTMODE
 70
     0
  9
$MIRRTEXT
 70
     0
  9
$DRAGMODE
 70
     2
  9
$LTSCALE
 40
0.6431102362
  9
$OSMODE
 70
  4095
  9
$ATTMODE
 70
     1
  9
$TEXTSIZE
 40
0.2
  9
$TRACEWID
 40
0.05
  9
$TEXTSTYLE
  7
STANDARD
  9
$CLAYER
  8
0
  9
$CELTYPE
  6
BYLAYER
  9
$CECOLOR
 62
   256
  9
$DIMSCALE
 40
1.0
  9
$DIMASZ
 40
0.1875
  9
$DIMEXO
 40
0.0625
  9
$DIMDLI
 40
0.4443307087
  9
$DIMRND
 40
0.0
  9
$DIMDLE
 40
0.0
  9
$DIMEXE
 40
0.125
  9
$DIMTP
 40
0.01
  9
$DIMTM
 40
0.01
  9
$DIMTXT
 40
2.0
  9
$DIMCEN
 40
0.1052362205
  9
$DIMTSZ
 40
0.0
  9
$DIMTOL
 70
     1
  9
$DIMLIM
 70
     0
  9
$DIMTIH
 70
     1
  9
$DIMTOH
 70
     1
  9
$DIMSE1
 70
     0
  9
$DIMSE2
 70
     0
  9
$DIMTAD
 70
     0
  9
$DIMZIN
 70
     0
  9
$DIMBLK
  1

  9
$DIMASO
 70
     1
  9
$DIMSHO
 70
     1
  9
$DIMPOST
  1
\X
  9
$DIMAPOST
  1

  9
$DIMALT
 70
     1
  9
$DIMALTD
 70
     2
  9
$DIMALTF
 40
25.3999999999999986
  9
$DIMLFAC
 40
1.0
  9
$DIMTOFL
 70
     0
  9
$DIMTVP
 40
0.0
  9
$DIMTIX
 70
     0
  9
$DIMSOXD
 70
     0
  9
$DIMSAH
 70
     0
  9
$DIMBLK1
  1

  9
$DIMBLK2
  1

  9
$DIMSTYLE
  2
STANDARD
  9
$DIMCLRD
 70
     0
  9
$DIMCLRE
 70
     0
  9
$DIMCLRT
 70
     0
  9
$DIMTFAC
 40
1.0
  9
$DIMGAP
 40
0.09
  9
$LUNITS
 70
     2
  9
$LUPREC
 70
     4
  9
$SKETCHINC
 40
0.1
  9
$FILLETRAD
 40
0.0
  9
$AUNITS
 70
     0
  9
$AUPREC
 70
     0
  9
$MENU
  1
.
  9
$ELEVATION
 40
0.0
  9
$PELEVATION
 40
0.0
  9
$THICKNESS
 40
0.0
  9
$LIMCHECK
 70
     0
  9
$BLIPMODE
 70
     0
  9
$CHAMFERA
 40
0.0
  9
$CHAMFERB
 40
0.0
  9
$SKPOLY
 70
     0
  9
$TDCREATE
 40
2458060.468368056230247
  9
$TDUPDATE
 40
2459979.4749884260818362
  9
$TDINDWG
 40
0.6275186343
  9
$TDUSRTIMER
 40
0.6275186343
  9
$USRTIMER
 70
     1
  9
$ANGBASE
 50
0.0
  9
$ANGDIR
 70
     0
  9
$PDMODE
 70
     0
  9
$PDSIZE
 40
0.3125
  9
$PLINEWID
 40
0.0
  9
$COORDS
 70
     1
  9
$SPLFRAME
 70
     0
  9
$SPLINETYPE
 70
     6
  9
$SPLINESEGS
 70
     8
  9
$ATTDIA
 70
     1
  9
$ATTREQ
 70
     1
  9
$HANDLING
 70
     1
  9
$HANDSEED
  5
BF16
  9
$SURFTAB1
 70
     6
  9
$SURFTAB2
 70
     6
  9
$SURFTYPE
 70
     6
  9
$SURFU
 70
     6
  9
$SURFV
 70
     6
  9
$UCSNAME
  2

  9
$UCSORG
 10
0.0
 20
0.0
 30
0.0
  9
$UCSXDIR
 10
1.0
 20
0.0
 30
0.0
  9
$UCSYDIR
 10
0.0
 20
1.0
 30
0.0
  9
$PUCSNAME
  2

  9
$PUCSORG
 10
0.0
 20
0.0
 30
0.0
  9
$PUCSXDIR
 10
1.0
 20
0.0
 30
0.0
  9
$PUCSYDIR
 10
0.0
 20
1.0
 30
0.0
  9
$USERI1
 70
     0
  9
$USERI2
 70
     0
  9
$USERI3
 70
     0
  9
$USERI4
 70
     0
  9
$USERI5
 70
     0
  9
$USERR1
 40
0.0
  9
$USERR2
 40
0.0
  9
$USERR3
 40
0.0
  9
$USERR4
 40
0.0
  9
$USERR5
 40
0.0
  9
$WORLDVIEW
 70
     1
  9
$SHADEDGE
 70
     3
  9
$SHADEDIF
 70
    70
  9
$TILEMODE
 70
     1
  9
$MAXACTVP
 70
    64
  9
$PLIMCHECK
 70
     0
  9
$PEXTMIN
 10
1.0000000000000000E+20
 20
1.0000000000000000E+20
 30
1.0000000000000000E+20
  9
$PEXTMAX
 10
-1.0000000000000000E+20
 20
-1.0000000000000000E+20
 30
-1.0000000000000000E+20
  9
$PLIMMIN
 10
0.0
 20
0.0
  9
$PLIMMAX
 10
12.0
 20
9.0
  9
$UNITMODE
 70
     0
  9
$VISRETAIN
 70
     1
  9
$PLINEGEN
 70
     0
  9
$PSLTSCALE
 70
     1
  0
ENDSEC
  0
SECTION
  2
TABLES
  0
TABLE
  2
VPORT
 70
     1
  0
VPORT
  2
*ACTIVE
 70
     0
 10
0.0
 20
0.0
 11
1.0
 21
1.0
 12
181.1437468729656928
 22
45.2880379737954897
 13
0.0
 23
0.0
 14
1.0
 24
1.0
 15
0.0
 25
0.0
 16
0.0
 26
0.0
 36
27.5337298366232197
 17
4284.0688476562490905
 27
225.2483596801758097
 37
0.0
 40
6.3243325409036446
 41
1.811304347826086
 42
50.0
 43
0.0
 44
0.0
 50
0.0
 51
0.0
 71
     0
 72
   100
 73
     1
 74
     1
 75
     0
 76
     0
 77
     0
 78
     0
  0
ENDTAB
  0
TABLE
  2
LTYPE
 70
     2
  0
LTYPE
  2
CONTINUOUS
 70
     0
  3
Solid line
 72
    65
 73
     0
 40
0.0
  0
LTYPE
  2
PHANTOM2
 70
     0
  3
___ _ _ ___ _ _ ___ _ _ ___ _ _
 72
    65
 73
     6
 40
1.25
 49
0.625
 49
-0.125
 49
0.125
 49
-0.125
 49
0.125
 49
-0.125
  0
ENDTAB
  0
TABLE
  2
LAYER
 70
     2
  0
LAYER
  2
0
 70
     0
 62
   255
  6
CONTINUOUS
  0
LAYER
  2
DEFPOINTS
 70
     0
 62
     7
  6
CONTINUOUS
  0
ENDTAB
  0
TABLE
  2
STYLE
 70
     1
  0
STYLE
  2
STANDARD
 70
     0
 40
0.0
 41
0.8
 50
0.0
 71
     0
 42
0.2
  3
txt
  4

  0
ENDTAB
  0
TABLE
  2
VIEW
 70
     0
  0
ENDTAB
  0
TABLE
  2
UCS
 70
     0
  0
ENDTAB
  0
TABLE
  2
APPID
 70
     9
  0
APPID
  2
ACAD
 70
     0
  0
APPID
  2
ACAD_MLEADERVER
 70
     0
  0
APPID
  2
ACAD_EXEMPT_FROM_CAD_STANDARDS
 70
     0
  0
APPID
  2
ACAD_NAV_VCDISPLAY
 70
     0
  0
APPID
  2
ACAECLAYERSTANDARD
 70
     0
  0
APPID
  2
ACCMTRANSPARENCY
 70
     0
  0
APPID
  2
ACAD_DSTYLE_DIMJAG
 70
     0
  0
APPID
  2
ACAD_DSTYLE_DIMTALN
 70
     0
  0
APPID
  2
ACDBATTR
 70
     0
  0
ENDTAB
  0
TABLE
  2
DIMSTYLE
 70
     1
  0
DIMSTYLE
  2
STANDARD
 70
     0
  3

  4

  5

  6

  7

 40
1.0
 41
0.1875
 42
0.0625
 43
0.38
 44
0.125
 45
0.0
 46
0.0
 47
0.01
 48
0.01
140
0.15625
141
0.09
142
0.0
143
25.3999999999999986
144
1.0
145
0.0
146
1.0
147
0.09
 71
     1
 72
     0
 73
     1
 74
     1
 75
     0
 76
     0
 77
     0
 78
     4
170
     0
171
     2
172
     0
173
     0
174
     0
175
     0
176
     0
177
     0
178
     0
  0
ENDTAB
  0
ENDSEC
  0
SECTION
  2
BLOCKS
  0
BLOCK
  8
0
  2
$MODEL_SPACE
 70
     0
 10
0.0
 20
0.0
 30
0.0
  3
$MODEL_SPACE
  1

  0
ENDBLK
  5
21
  8
0
  0
BLOCK
 67
     1
  8
0
  2
$PAPER_SPACE
 70
     0
 10
0.0
 20
0.0
 30
0.0
  3
$PAPER_SPACE
  1

  0
ENDBLK
  5
1D
 67
     1
  8
0
  0
ENDSEC
  0
SECTION
  2
ENTITIES
  0
ATTDEF
  5
3930
  8
DEFPOINTS
 10
4466.8226599776180592
 20
267.2375413452307953
 30
0.0
 40
0.001
  1
K-24844ME-4ND
  3

  2
MODELNUMBER
 70
     0
1001
ACDBATTR
1070
     0
1070
     1
  0
ATTDEF
  5
3931
  8
DEFPOINTS
 10
4466.8226599776180592
 20
267.2358746785640733
 30
0.0
 40
0.001
  1
ELATE
  3

  2
TRADENAME
 70
     0
1001
ACDBATTR
1070
     0
1070
     1
  0
ATTDEF
  5
3932
  8
DEFPOINTS
 10
4466.8226599776180592
 20
267.2342080118975218
 30
0.0
 40
0.001
  1
BATHROOM SINK FAUCET
  3

  2
PRODUCT
 70
     0
1001
ACDBATTR
1070
     0
1070
     1
  0
LINE
  5
BD99
  8
0
 10
4462.2103020288213884
 20
272.1411720596029227
 30
0.0
 11
4462.0394978528202046
 21
271.1724934415029225
 31
0.0
  0
LINE
  5
BD9A
  8
0
 10
4467.5496773294999002
 20
273.0636208211079179
 30
0.0
 11
4467.5444293714199375
 21
273.0554462864029119
 31
0.0
  0
LINE
  5
BD9B
  8
0
 10
4462.5851808236448051
 20
271.1543051790056893
 30
0.0
 11
4462.5746979449741048
 21
271.0948538079954915
 31
0.0
  0
LINE
  5
BD9C
  8
0
 10
4462.6731789382201896
 20
271.0774902262028832
 30
0.0
 11
4462.6836616447199049
 21
271.1369406091029077
 31
0.0
  0
LINE
  5
BD9D
  8
0
 10
4463.5658923173086805
 20
273.82265827667851
 30
0.0
 11
4463.535135172020091
 21
273.6644264750029265
 31
0.0
  0
LINE
  5
BD9E
  8
0
 10
4462.0557210443203076
 20
271.1493243229028849
 30
0.0
 11
4462.2085601058197426
 21
271.1223746726029162
 31
0.0
  0
LINE
  5
BD9F
  8
0
 10
4463.0266484360190589
 20
270.9781236274029084
 30
0.0
 11
4465.724974313419807
 21
270.5023359725029195
 31
0.0
  0
LINE
  5
BDA0
  8
0
 10
4462.3682518567202351
 20
271.1941202951028913
 30
0.0
 11
4462.9011257242200372
 21
271.100160254902903
 31
0.0
  0
LINE
  5
BDA1
  8
0
 10
4462.2334711474195501
 20
272.1573952512028995
 30
0.0
 11
4465.6429358043205866
 21
271.5562146424028924
 31
0.0
  0
LINE
  5
BDA2
  8
0
 10
4466.8256873424197693
 20
273.4245492860029003
 30
0.0
 11
4466.0973408839190597
 21
273.4245492860029003
 31
0.0
  0
LINE
  5
BDA3
  8
0
 10
4463.9158065997198719
 20
273.5594871557029251
 30
0.0
 11
4465.325931923220196
 21
273.285386559402923
 31
0.0
  0
LINE
  5
BDA4
  8
0
 10
4465.3182097734197669
 20
273.5127382901029023
 30
0.0
 11
4463.958109174420315
 21
273.777115036202872
 31
0.0
  0
ARC
  5
BDA5
  8
0
 10
4462.7750594781673499
 20
271.942962247388607
 30
0.0
 40
0.8111928716118046
 50
256.4629921998716213
 51
259.9958704108680081
  0
ARC
  5
BDA6
  8
0
 10
4462.77479370104993
 20
271.9417829560757127
 30
0.0
 40
0.8099853425658775
 50
259.9998932519361006
 51
263.539930503607593
  0
ARC
  5
BDA7
  8
0
 10
4462.6939487037616345
 20
271.4823041069788019
 30
0.0
 40
0.4053463472507543
 50
267.0629037055593926
 51
292.8933710780125921
  0
ARC
  5
BDA8
  8
0
 10
4462.6938819826928011
 20
271.4829118509402974
 30
0.0
 40
0.4059481241996456
 50
227.1278481045416981
 51
252.9267380273091987
  0
ARC
  5
BDA9
  8
0
 10
4462.9063359465008034
 20
271.1297043514799157
 30
0.0
 40
0.0300000009794811
 50
259.9984935685009759
 51
282.6012960794013225
  0
ARC
  5
BDAA
  8
0
 10
4462.3734605248182561
 20
271.2236646645023939
 30
0.0
 40
0.0299999997762327
 50
237.398732344254114
 51
260.0015072241384928
  0
ARC
  5
BDAB
  8
0
 10
4462.0591940078202242
 20
271.1690204779029045
 30
0.0
 40
0.02
 50
170.0000000000025011
 51
259.9999999999949978
  0
ARC
  5
BDAC
  8
0
 10
4462.2309416195957965
 20
272.1363517301800243
 30
0.0
 40
0.0211950061605075
 50
83.1456712189973359
 51
166.8543287810090874
  0
ARC
  5
BDAD
  8
0
 10
4463.5852159588393988
 20
273.8189019417392842
 30
0.0
 40
0.0196853543057851
 50
82.2992694073786737
 51
168.999429936607811
  0
ARC
  5
BDAE
  8
0
 10
4463.5544588932216357
 20
273.6606704879462768
 30
0.0
 40
0.0196853661341561
 50
169.0004681194097031
 51
255.621454201307813
  0
ARC
  5
BDAF
  8
0
 10
4467.5587896391161848
 20
273.0560440504229973
 30
0.0
 40
0.0118508075894044
 50
75.2515900410843699
 51
140.2569036035600902
  0
LINE
  5
BDB0
  8
0
 10
4465.9201755313706599
 20
273.0072264514029143
 30
0.0
 11
4465.9201755313706599
 21
271.7888572941466236
 31
0.0
  0
LINE
  5
BDB1
  8
0
 10
4465.9201755313706599
 20
270.2696966596271864
 30
0.0
 11
4465.9201755313706599
 21
267.239509915902886
 31
0.0
  0
LINE
  5
BDB2
  8
0
 10
4465.9209304069499922
 20
273.1842778073864793
 30
0.0
 11
4465.9201755313706599
 21
273.0977776325029254
 31
0.0
  0
LINE
  5
BDB3
  8
0
 10
4465.9201755313706599
 20
267.239509915902886
 30
0.0
 11
4467.7311991533697437
 21
267.239509915902886
 31
0.0
  0
LINE
  5
BDB4
  8
0
 10
4465.9201755313706599
 20
273.0977776325029254
 30
0.0
 11
4467.7311991533697437
 21
273.0977776325029254
 31
0.0
  0
ARC
  5
BDB5
  8
0
 10
4466.8210715318091388
 20
271.2539461450318186
 30
0.0
 40
1.9555282695112219
 50
109.4587568923633967
 51
114.9545619331362047
  0
ARC
  5
BDB6
  8
0
 10
4465.9410637923119793
 20
273.006023229861114
 30
0.0
 40
0.0209228866854187
 50
93.2967521275629394
 51
176.7032478724464113
  0
LINE
  5
BDB7
  8
0
 10
4467.7311991533697437
 20
273.0072264514029143
 30
0.0
 11
4467.7311991533697437
 21
267.239509915902886
 31
0.0
  0
LINE
  5
BDB8
  8
0
 10
4467.7286007904704093
 20
273.3955205337028929
 30
0.0
 11
4467.7311991533697437
 21
273.0977776325029254
 31
0.0
  0
ARC
  5
BDB9
  8
0
 10
4466.8303031529312648
 20
271.2539461450318186
 30
0.0
 40
1.9555282695112219
 50
65.0454380668637953
 51
68.0331884438312642
  0
ARC
  5
BDBA
  8
0
 10
4467.7103108924284243
 20
273.006023229861114
 30
0.0
 40
0.0209228866854187
 50
3.2967521275535581
 51
86.7032478724370748
  0
ARC
  5
BDBB
  8
0
 10
4467.7074535273977745
 20
273.3939537567242724
 30
0.0
 40
0.0212052240160867
 50
4.2372383308838213
 51
83.7682969729631566
  0
ARC
  5
BDBC
  8
0
 10
4466.8144660865409605
 20
231.3091286580369967
 30
0.0
 40
42.1154221228647216
 50
88.7819150923508289
 51
89.984734081273686
  0
LINE
  5
BDBD
  8
0
 10
4465.9398605707692695
 20
273.0269114908028882
 30
0.0
 11
4467.7115141139702246
 21
273.0269114908028882
 31
0.0
  0
ARC
  5
BDBE
  8
0
 10
4465.1883658849938001
 20
280.09295516189718
 30
0.0
 40
6.656246038308808
 50
255.7469935388922124
 51
258.9781850212788186
  0
ARC
  5
BDBF
  8
0
 10
4462.6610326669788265
 20
267.090952164801422
 30
0.0
 40
6.8108135644034737
 50
79.0213210889913427
 51
82.1788767957085327
  0
ARC
  5
BDC0
  8
0
 10
4466.136942297060159
 20
277.2602427530713953
 30
0.0
 40
3.835897892962608
 50
257.6760016661763757
 51
269.4084737897445052
  0
ARC
  5
BDC1
  8
0
 10
4466.2820455889059303
 20
278.1794864413627124
 30
0.0
 40
4.9866187939634887
 50
258.9458953710538935
 51
265.5893532171049856
  0
ARC
  5
BDC2
  8
0
 10
4465.8964568798919572
 20
273.183229516862184
 30
0.0
 40
0.0244959678246646
 50
2.4526881743706039
 51
85.0908248747193738
  0
ARC
  5
BDC3
  8
0
 10
4468.7658226997182283
 20
277.0024023128037811
 30
0.0
 40
4.1316175448308599
 50
250.9193847846431993
 51
252.8052149534757973
  0
ARC
  5
BDC4
  8
0
 10
4464.6700699235088905
 20
271.0292769768868766
 30
0.0
 40
1.462780328407409
 50
328.7165938251096122
 51
31.2834061748904091
  0
ARC
  5
BDC5
  8
0
 10
4465.6838524655377114
 20
270.2696181364080985
 30
0.0
 40
0.2363230788768726
 50
0.0190377053137174
 51
79.9791286100818866
  0
ARC
  5
BDC6
  8
0
 10
4465.6839548294037741
 20
271.7888466688556832
 30
0.0
 40
0.2362207022052901
 50
260.0000663469566007
 51
0.0025771844496173
  0
ARC
  5
BDC7
  8
0
 10
4463.2256040741203833
 20
269.3159153489636992
 30
0.0
 40
2.0730831438754498
 50
114.7618935765407002
 51
119.3796885613589041
  0
ARC
  5
BDC8
  8
0
 10
4462.6068185098183676
 20
270.7406694016308961
 30
0.0
 40
0.5213161579339282
 50
84.7718365739940651
 51
118.5964784145421049
  0
ARC
  5
BDC9
  8
0
 10
4462.5172743551556778
 20
270.7480912380594873
 30
0.0
 40
0.5297594070689455
 50
41.6889513167068486
 51
75.0071940343618309
  0
ARC
  5
BDCA
  8
0
 10
4461.4192724685517533
 20
269.5969955912573823
 30
0.0
 40
2.1192385785982371
 50
40.6706195256737075
 51
45.1877894697653488
  0
ENDSEC
  0
EOF
