  0
SECTION
  2
HEADER
  9
$ACADVER
  1
AC1009
  9
$INSBASE
 10
4471.8627755554716714
 20
271.5520601195485142
 30
0.0
  9
$EXTMIN
 10
4470.9572637444707652
 20
266.765566784998498
 30
0.0
  9
$EXTMAX
 10
4472.7682873664716681
 20
272.4575719305485109
 30
0.0
  9
$LIMMIN
 10
0.0
 20
0.0
  9
$LIMMAX
 10
11.6929133858000007
 20
8.2677165353999982
  9
$ORTHOMODE
 70
     0
  9
$REGENMODE
 70
     1
  9
$FILLMODE
 70
     1
  9
$QTEXTMODE
 70
     0
  9
$MIRRTEXT
 70
     0
  9
$DRAGMODE
 70
     2
  9
$LTSCALE
 40
0.6431102362
  9
$OSMODE
 70
  4095
  9
$ATTMODE
 70
     1
  9
$TEXTSIZE
 40
0.2
  9
$TRACEWID
 40
0.05
  9
$TEXTSTYLE
  7
STANDARD
  9
$CLAYER
  8
0
  9
$CELTYPE
  6
BYLAYER
  9
$CECOLOR
 62
   256
  9
$DIMSCALE
 40
1.0
  9
$DIMASZ
 40
0.1875
  9
$DIMEXO
 40
0.0625
  9
$DIMDLI
 40
0.4443307087
  9
$DIMRND
 40
0.0
  9
$DIMDLE
 40
0.0
  9
$DIMEXE
 40
0.125
  9
$DIMTP
 40
0.01
  9
$DIMTM
 40
0.01
  9
$DIMTXT
 40
2.0
  9
$DIMCEN
 40
0.1052362205
  9
$DIMTSZ
 40
0.0
  9
$DIMTOL
 70
     1
  9
$DIMLIM
 70
     0
  9
$DIMTIH
 70
     1
  9
$DIMTOH
 70
     1
  9
$DIMSE1
 70
     0
  9
$DIMSE2
 70
     0
  9
$DIMTAD
 70
     0
  9
$DIMZIN
 70
     0
  9
$DIMBLK
  1

  9
$DIMASO
 70
     1
  9
$DIMSHO
 70
     1
  9
$DIMPOST
  1
\X
  9
$DIMAPOST
  1

  9
$DIMALT
 70
     1
  9
$DIMALTD
 70
     2
  9
$DIMALTF
 40
25.3999999999999986
  9
$DIMLFAC
 40
1.0
  9
$DIMTOFL
 70
     0
  9
$DIMTVP
 40
0.0
  9
$DIMTIX
 70
     0
  9
$DIMSOXD
 70
     0
  9
$DIMSAH
 70
     0
  9
$DIMBLK1
  1

  9
$DIMBLK2
  1

  9
$DIMSTYLE
  2
STANDARD
  9
$DIMCLRD
 70
     0
  9
$DIMCLRE
 70
     0
  9
$DIMCLRT
 70
     0
  9
$DIMTFAC
 40
1.0
  9
$DIMGAP
 40
0.09
  9
$LUNITS
 70
     2
  9
$LUPREC
 70
     4
  9
$SKETCHINC
 40
0.1
  9
$FILLETRAD
 40
0.0
  9
$AUNITS
 70
     0
  9
$AUPREC
 70
     0
  9
$MENU
  1
.
  9
$ELEVATION
 40
0.0
  9
$PELEVATION
 40
0.0
  9
$THICKNESS
 40
0.0
  9
$LIMCHECK
 70
     0
  9
$BLIPMODE
 70
     0
  9
$CHAMFERA
 40
0.0
  9
$CHAMFERB
 40
0.0
  9
$SKPOLY
 70
     0
  9
$TDCREATE
 40
2458060.468368056230247
  9
$TDUPDATE
 40
2459979.4747222228907049
  9
$TDINDWG
 40
0.6270209490999999
  9
$TDUSRTIMER
 40
0.6270209490999999
  9
$USRTIMER
 70
     1
  9
$ANGBASE
 50
0.0
  9
$ANGDIR
 70
     0
  9
$PDMODE
 70
     0
  9
$PDSIZE
 40
0.3125
  9
$PLINEWID
 40
0.0
  9
$COORDS
 70
     1
  9
$SPLFRAME
 70
     0
  9
$SPLINETYPE
 70
     6
  9
$SPLINESEGS
 70
     8
  9
$ATTDIA
 70
     1
  9
$ATTREQ
 70
     1
  9
$HANDLING
 70
     1
  9
$HANDSEED
  5
BFEF
  9
$SURFTAB1
 70
     6
  9
$SURFTAB2
 70
     6
  9
$SURFTYPE
 70
     6
  9
$SURFU
 70
     6
  9
$SURFV
 70
     6
  9
$UCSNAME
  2

  9
$UCSORG
 10
0.0
 20
0.0
 30
0.0
  9
$UCSXDIR
 10
1.0
 20
0.0
 30
0.0
  9
$UCSYDIR
 10
0.0
 20
1.0
 30
0.0
  9
$PUCSNAME
  2

  9
$PUCSORG
 10
0.0
 20
0.0
 30
0.0
  9
$PUCSXDIR
 10
1.0
 20
0.0
 30
0.0
  9
$PUCSYDIR
 10
0.0
 20
1.0
 30
0.0
  9
$USERI1
 70
     0
  9
$USERI2
 70
     0
  9
$USERI3
 70
     0
  9
$USERI4
 70
     0
  9
$USERI5
 70
     0
  9
$USERR1
 40
0.0
  9
$USERR2
 40
0.0
  9
$USERR3
 40
0.0
  9
$USERR4
 40
0.0
  9
$USERR5
 40
0.0
  9
$WORLDVIEW
 70
     1
  9
$SHADEDGE
 70
     3
  9
$SHADEDIF
 70
    70
  9
$TILEMODE
 70
     1
  9
$MAXACTVP
 70
    64
  9
$PLIMCHECK
 70
     0
  9
$PEXTMIN
 10
1.0000000000000000E+20
 20
1.0000000000000000E+20
 30
1.0000000000000000E+20
  9
$PEXTMAX
 10
-1.0000000000000000E+20
 20
-1.0000000000000000E+20
 30
-1.0000000000000000E+20
  9
$PLIMMIN
 10
0.0
 20
0.0
  9
$PLIMMAX
 10
12.0
 20
9.0
  9
$UNITMODE
 70
     0
  9
$VISRETAIN
 70
     1
  9
$PLINEGEN
 70
     0
  9
$PSLTSCALE
 70
     1
  0
ENDSEC
  0
SECTION
  2
TABLES
  0
TABLE
  2
VPORT
 70
     1
  0
VPORT
  2
*ACTIVE
 70
     0
 10
0.0
 20
0.0
 11
1.0
 21
1.0
 12
187.7939278992215861
 22
44.4812161648798892
 13
0.0
 23
0.0
 14
1.0
 24
1.0
 15
0.0
 25
0.0
 16
0.0
 26
0.0
 36
27.5337298366232197
 17
4284.0688476562490905
 27
225.2483596801758097
 37
0.0
 40
5.9681497662639478
 41
1.811304347826086
 42
50.0
 43
0.0
 44
0.0
 50
0.0
 51
0.0
 71
     0
 72
   100
 73
     1
 74
     1
 75
     0
 76
     0
 77
     0
 78
     0
  0
ENDTAB
  0
TABLE
  2
LTYPE
 70
     2
  0
LTYPE
  2
CONTINUOUS
 70
     0
  3
Solid line
 72
    65
 73
     0
 40
0.0
  0
LTYPE
  2
PHANTOM2
 70
     0
  3
___ _ _ ___ _ _ ___ _ _ ___ _ _
 72
    65
 73
     6
 40
1.25
 49
0.625
 49
-0.125
 49
0.125
 49
-0.125
 49
0.125
 49
-0.125
  0
ENDTAB
  0
TABLE
  2
LAYER
 70
     2
  0
LAYER
  2
0
 70
     0
 62
   255
  6
CONTINUOUS
  0
LAYER
  2
DEFPOINTS
 70
     0
 62
     7
  6
CONTINUOUS
  0
ENDTAB
  0
TABLE
  2
STYLE
 70
     1
  0
STYLE
  2
STANDARD
 70
     0
 40
0.0
 41
0.8
 50
0.0
 71
     0
 42
0.2
  3
txt
  4

  0
ENDTAB
  0
TABLE
  2
VIEW
 70
     0
  0
ENDTAB
  0
TABLE
  2
UCS
 70
     0
  0
ENDTAB
  0
TABLE
  2
APPID
 70
     9
  0
APPID
  2
ACAD
 70
     0
  0
APPID
  2
ACAD_MLEADERVER
 70
     0
  0
APPID
  2
ACAD_EXEMPT_FROM_CAD_STANDARDS
 70
     0
  0
APPID
  2
ACAD_NAV_VCDISPLAY
 70
     0
  0
APPID
  2
ACAECLAYERSTANDARD
 70
     0
  0
APPID
  2
ACCMTRANSPARENCY
 70
     0
  0
APPID
  2
ACAD_DSTYLE_DIMJAG
 70
     0
  0
APPID
  2
ACAD_DSTYLE_DIMTALN
 70
     0
  0
APPID
  2
ACDBATTR
 70
     0
  0
ENDTAB
  0
TABLE
  2
DIMSTYLE
 70
     1
  0
DIMSTYLE
  2
STANDARD
 70
     0
  3

  4

  5

  6

  7

 40
1.0
 41
0.1875
 42
0.0625
 43
0.38
 44
0.125
 45
0.0
 46
0.0
 47
0.01
 48
0.01
140
0.15625
141
0.09
142
0.0
143
25.3999999999999986
144
1.0
145
0.0
146
1.0
147
0.09
 71
     1
 72
     0
 73
     1
 74
     1
 75
     0
 76
     0
 77
     0
 78
     4
170
     0
171
     2
172
     0
173
     0
174
     0
175
     0
176
     0
177
     0
178
     0
  0
ENDTAB
  0
ENDSEC
  0
SECTION
  2
BLOCKS
  0
BLOCK
  8
0
  2
$MODEL_SPACE
 70
     0
 10
0.0
 20
0.0
 30
0.0
  3
$MODEL_SPACE
  1

  0
ENDBLK
  5
21
  8
0
  0
BLOCK
 67
     1
  8
0
  2
$PAPER_SPACE
 70
     0
 10
0.0
 20
0.0
 30
0.0
  3
$PAPER_SPACE
  1

  0
ENDBLK
  5
1D
 67
     1
  8
0
  0
ENDSEC
  0
SECTION
  2
ENTITIES
  0
ATTDEF
  5
3930
  8
DEFPOINTS
 10
4471.856834578010421
 20
271.5467253373225844
 30
0.0
 40
0.001
  1
K-24844ME-4ND
  3

  2
MODELNUMBER
 70
     0
1001
ACDBATTR
1070
     0
1070
     1
  0
ATTDEF
  5
3931
  8
DEFPOINTS
 10
4471.856834578010421
 20
271.5450586706559193
 30
0.0
 40
0.001
  1
ELATE
  3

  2
TRADENAME
 70
     0
1001
ACDBATTR
1070
     0
1070
     1
  0
ATTDEF
  5
3932
  8
DEFPOINTS
 10
4471.856834578010421
 20
271.543392003989311
 30
0.0
 40
0.001
  1
BATHROOM SINK FAUCET
  3

  2
PRODUCT
 70
     0
1001
ACDBATTR
1070
     0
1070
     1
  0
LINE
  5
BE80
  8
0
 10
4471.3509645318708863
 20
270.6895046071485922
 30
0.0
 11
4471.3509645318708863
 21
266.8709688730485254
 31
0.0
  0
ARC
  5
BE81
  8
0
 10
4471.8627755554716714
 20
271.5520601195485142
 30
0.0
 40
0.9055118109999998
 50
90.0
 51
212.8073992188965065
  0
ARC
  5
BE82
  8
0
 10
4471.8781377022360175
 20
271.5637793574763919
 30
0.0
 40
0.9247745831243332
 50
212.901976547166214
 51
229.3737248585312045
  0
ARC
  5
BE83
  8
0
 10
4471.1159387187872198
 20
270.6897995159270067
 30
0.0
 40
0.2350259981090636
 50
359.9281056865376058
 51
47.076536976692303
  0
ARC
  5
BE84
  8
0
 10
4471.3895324534114479
 20
266.8715497700179071
 30
0.0
 40
0.0385722959287278
 50
180.8629043749747893
 51
220.2303614763009989
  0
ARC
  5
BE85
  8
0
 10
4471.4324295510468801
 20
266.9124792173391825
 30
0.0
 40
0.0978211920769856
 50
222.3055073384172999
 51
250.0122147765702891
  0
ARC
  5
BE86
  8
0
 10
4471.6630369963568228
 20
267.5805816900693799
 30
0.0
 40
0.8045914485920646
 50
250.8421179705671022
 51
265.9461159859515078
  0
ARC
  5
BE87
  8
0
 10
4471.8939052805653773
 20
270.0616944346007244
 30
0.0
 40
3.2962746460597558
 50
264.9919860158640859
 51
269.4588957018768838
  0
ARC
  5
BE88
  8
0
 10
4471.3803008051818324
 20
266.8659944442841265
 30
0.0
 40
0.0297550310584713
 50
123.7283206237926976
 51
170.3761352582644975
  0
ARC
  5
BE89
  8
0
 10
4471.5520624836753996
 20
266.5305042447866981
 30
0.0
 40
0.4064741119997012
 50
97.4559445202465469
 51
117.5945096357971948
  0
ARC
  5
BE8A
  8
0
 10
4471.8008429471246927
 20
265.0898595663118726
 30
0.0
 40
1.868175953337827
 50
92.6250223055916564
 51
99.2882441824775839
  0
ARC
  5
BE8B
  8
0
 10
4472.4369349080270695
 20
241.6015244541355003
 30
0.0
 40
25.3648186535140994
 50
91.2970610242767719
 51
91.6303389998445255
  0
ARC
  5
BE8C
  8
0
 10
4470.533073576993047
 20
269.9521008273907796
 30
0.0
 40
1.1745934765962189
 50
46.3874271068126305
 51
50.7656713788218994
  0
ARC
  5
BE8D
  8
0
 10
4470.5635955924717564
 20
269.9910245780451987
 30
0.0
 40
1.125368479811087
 50
1.3036093102421329
 51
46.1455799721344775
  0
LINE
  5
BE8E
  8
0
 10
4471.6886728023491742
 20
270.0166270616945212
 30
0.0
 11
4471.6886728023491742
 21
268.3004647418484865
 31
0.0
  0
LINE
  5
BE8F
  8
0
 10
4471.730927671941572
 20
268.2615983783470028
 30
0.0
 11
4471.9946234389999518
 21
268.2615983783470028
 31
0.0
  0
ARC
  5
BE90
  8
0
 10
4471.7333455851367034
 20
268.3066296742329087
 30
0.0
 40
0.0450961629562544
 50
187.8573021354577861
 51
266.9265082724472791
  0
LINE
  5
BE91
  8
0
 10
4472.3745865790706375
 20
270.6895046071485922
 30
0.0
 11
4472.3745865790706375
 21
266.8709688730485254
 31
0.0
  0
ARC
  5
BE92
  8
0
 10
4471.8627755554716714
 20
271.5520601195485142
 30
0.0
 40
0.9055118109999998
 50
327.192600781103522
 51
90.0
  0
ARC
  5
BE93
  8
0
 10
4471.8474134087045968
 20
271.5637793574763919
 30
0.0
 40
0.9247745831243332
 50
310.6262751414686818
 51
327.098023452833786
  0
ARC
  5
BE94
  8
0
 10
4472.609612392156123
 20
270.6897995159270067
 30
0.0
 40
0.2350259981090636
 50
132.9234630233077041
 51
180.0718943134623942
  0
ARC
  5
BE95
  8
0
 10
4472.3360186575309854
 20
266.8715497700179071
 30
0.0
 40
0.0385722959287278
 50
319.7696385236989727
 51
359.1370956250252107
  0
ARC
  5
BE96
  8
0
 10
4472.2931215598955532
 20
266.9124792173391825
 30
0.0
 40
0.0978211920769856
 50
289.9877852234296824
 51
317.6944926615826148
  0
ARC
  5
BE97
  8
0
 10
4472.0625141145837915
 20
267.5805816900693799
 30
0.0
 40
0.8045914485920646
 50
274.0538840140484922
 51
289.1578820294329262
  0
ARC
  5
BE98
  8
0
 10
4471.8316458303761465
 20
270.0616944346230071
 30
0.0
 40
3.296274646082098
 50
270.5411042981752985
 51
275.0080139840840161
  0
ARC
  5
BE99
  8
0
 10
4472.3452503057596914
 20
266.8659944442841265
 30
0.0
 40
0.0297550310584713
 50
9.6238647417354581
 51
56.2716793762072029
  0
ARC
  5
BE9A
  8
0
 10
4472.1734886272688527
 20
266.5305042447866981
 30
0.0
 40
0.4064741119997012
 50
62.4054903642028123
 51
82.5440554797534816
  0
ARC
  5
BE9B
  8
0
 10
4471.9247081638159216
 20
265.0898595663118726
 30
0.0
 40
1.868175953337827
 50
80.7117558175224445
 51
87.3749776944083436
  0
ARC
  5
BE9C
  8
0
 10
4471.2886162029153638
 20
241.6015244541355003
 30
0.0
 40
25.3648186535140994
 50
88.3696610001554461
 51
88.7029389757232138
  0
ARC
  5
BE9D
  8
0
 10
4473.1924775339493863
 20
269.9521008273907796
 30
0.0
 40
1.1745934765962189
 50
129.2343286211780935
 51
133.6125728931872914
  0
ARC
  5
BE9E
  8
0
 10
4473.1619555184697674
 20
269.9910245780451987
 30
0.0
 40
1.125368479811087
 50
133.8544200278655012
 51
178.6963906897578056
  0
LINE
  5
BE9F
  8
0
 10
4472.0368783085941686
 20
270.0166270616945212
 30
0.0
 11
4472.0368783085941686
 21
268.3004647418484865
 31
0.0
  0
ARC
  5
BEA0
  8
0
 10
4471.9922055258057298
 20
268.3066296742329087
 30
0.0
 40
0.0450961629562542
 50
273.0734917275527209
 51
352.1426978645454255
  0
LINE
  5
BEA2
  8
0
 10
4471.9917783085938936
 20
268.2936997462131785
 30
0.0
 11
4471.7337728023476302
 21
268.2936997462131785
 31
0.0
  0
ARC
  5
BEA3
  8
0
 10
4471.9917783085938936
 20
268.3387997462132262
 30
0.0
 40
0.0451
 50
270.0
 51
0.0
  0
ARC
  5
BEA4
  8
0
 10
4471.7337728023476302
 20
268.3387997462132262
 30
0.0
 40
0.0451
 50
180.0000000000032117
 51
270.0
  0
ENDSEC
  0
EOF
