  0
SECTION
  2
HEADER
  9
$ACADVER
  1
AC1009
  9
$INSBASE
 10
4458.8457264954986385
 20
266.5077462049670771
 30
0.0
  9
$EXTMIN
 10
4457.9402146844977324
 20
266.5077462049670771
 30
0.0
  9
$EXTMAX
 10
4459.7512383064986352
 20
273.1068235851092822
 30
0.0
  9
$LIMMIN
 10
0.0
 20
0.0
  9
$LIMMAX
 10
11.6929133858000007
 20
8.2677165353999982
  9
$ORTHOMODE
 70
     0
  9
$REGENMODE
 70
     1
  9
$FILLMODE
 70
     1
  9
$QTEXTMODE
 70
     0
  9
$MIRRTEXT
 70
     0
  9
$DRAGMODE
 70
     2
  9
$LTSCALE
 40
0.6431102362
  9
$OSMODE
 70
  4095
  9
$ATTMODE
 70
     1
  9
$TEXTSIZE
 40
0.2
  9
$TRACEWID
 40
0.05
  9
$TEXTSTYLE
  7
STANDARD
  9
$CLAYER
  8
0
  9
$CELTYPE
  6
BYLAYER
  9
$CECOLOR
 62
   256
  9
$DIMSCALE
 40
1.0
  9
$DIMASZ
 40
0.1875
  9
$DIMEXO
 40
0.0625
  9
$DIMDLI
 40
0.4443307087
  9
$DIMRND
 40
0.0
  9
$DIMDLE
 40
0.0
  9
$DIMEXE
 40
0.125
  9
$DIMTP
 40
0.01
  9
$DIMTM
 40
0.01
  9
$DIMTXT
 40
2.0
  9
$DIMCEN
 40
0.1052362205
  9
$DIMTSZ
 40
0.0
  9
$DIMTOL
 70
     1
  9
$DIMLIM
 70
     0
  9
$DIMTIH
 70
     1
  9
$DIMTOH
 70
     1
  9
$DIMSE1
 70
     0
  9
$DIMSE2
 70
     0
  9
$DIMTAD
 70
     0
  9
$DIMZIN
 70
     0
  9
$DIMBLK
  1

  9
$DIMASO
 70
     1
  9
$DIMSHO
 70
     1
  9
$DIMPOST
  1
\X
  9
$DIMAPOST
  1

  9
$DIMALT
 70
     1
  9
$DIMALTD
 70
     2
  9
$DIMALTF
 40
25.3999999999999986
  9
$DIMLFAC
 40
1.0
  9
$DIMTOFL
 70
     0
  9
$DIMTVP
 40
0.0
  9
$DIMTIX
 70
     0
  9
$DIMSOXD
 70
     0
  9
$DIMSAH
 70
     0
  9
$DIMBLK1
  1

  9
$DIMBLK2
  1

  9
$DIMSTYLE
  2
STANDARD
  9
$DIMCLRD
 70
     0
  9
$DIMCLRE
 70
     0
  9
$DIMCLRT
 70
     0
  9
$DIMTFAC
 40
1.0
  9
$DIMGAP
 40
0.09
  9
$LUNITS
 70
     2
  9
$LUPREC
 70
     4
  9
$SKETCHINC
 40
0.1
  9
$FILLETRAD
 40
0.0
  9
$AUNITS
 70
     0
  9
$AUPREC
 70
     0
  9
$MENU
  1
.
  9
$ELEVATION
 40
0.0
  9
$PELEVATION
 40
0.0
  9
$THICKNESS
 40
0.0
  9
$LIMCHECK
 70
     0
  9
$BLIPMODE
 70
     0
  9
$CHAMFERA
 40
0.0
  9
$CHAMFERB
 40
0.0
  9
$SKPOLY
 70
     0
  9
$TDCREATE
 40
2458060.468368056230247
  9
$TDUPDATE
 40
2459979.4748611110262573
  9
$TDINDWG
 40
0.6276112269
  9
$TDUSRTIMER
 40
0.6276112269
  9
$USRTIMER
 70
     1
  9
$ANGBASE
 50
0.0
  9
$ANGDIR
 70
     0
  9
$PDMODE
 70
     0
  9
$PDSIZE
 40
0.3125
  9
$PLINEWID
 40
0.0
  9
$COORDS
 70
     1
  9
$SPLFRAME
 70
     0
  9
$SPLINETYPE
 70
     6
  9
$SPLINESEGS
 70
     8
  9
$ATTDIA
 70
     1
  9
$ATTREQ
 70
     1
  9
$HANDLING
 70
     1
  9
$HANDSEED
  5
BE62
  9
$SURFTAB1
 70
     6
  9
$SURFTAB2
 70
     6
  9
$SURFTYPE
 70
     6
  9
$SURFU
 70
     6
  9
$SURFV
 70
     6
  9
$UCSNAME
  2

  9
$UCSORG
 10
0.0
 20
0.0
 30
0.0
  9
$UCSXDIR
 10
1.0
 20
0.0
 30
0.0
  9
$UCSYDIR
 10
0.0
 20
1.0
 30
0.0
  9
$PUCSNAME
  2

  9
$PUCSORG
 10
0.0
 20
0.0
 30
0.0
  9
$PUCSXDIR
 10
1.0
 20
0.0
 30
0.0
  9
$PUCSYDIR
 10
0.0
 20
1.0
 30
0.0
  9
$USERI1
 70
     0
  9
$USERI2
 70
     0
  9
$USERI3
 70
     0
  9
$USERI4
 70
     0
  9
$USERI5
 70
     0
  9
$USERR1
 40
0.0
  9
$USERR2
 40
0.0
  9
$USERR3
 40
0.0
  9
$USERR4
 40
0.0
  9
$USERR5
 40
0.0
  9
$WORLDVIEW
 70
     1
  9
$SHADEDGE
 70
     3
  9
$SHADEDIF
 70
    70
  9
$TILEMODE
 70
     1
  9
$MAXACTVP
 70
    64
  9
$PLIMCHECK
 70
     0
  9
$PEXTMIN
 10
1.0000000000000000E+20
 20
1.0000000000000000E+20
 30
1.0000000000000000E+20
  9
$PEXTMAX
 10
-1.0000000000000000E+20
 20
-1.0000000000000000E+20
 30
-1.0000000000000000E+20
  9
$PLIMMIN
 10
0.0
 20
0.0
  9
$PLIMMAX
 10
12.0
 20
9.0
  9
$UNITMODE
 70
     0
  9
$VISRETAIN
 70
     1
  9
$PLINEGEN
 70
     0
  9
$PSLTSCALE
 70
     1
  0
ENDSEC
  0
SECTION
  2
TABLES
  0
TABLE
  2
VPORT
 70
     1
  0
VPORT
  2
*ACTIVE
 70
     0
 10
0.0
 20
0.0
 11
1.0
 21
1.0
 12
174.7768788392490933
 22
44.7680013323306127
 13
0.0
 23
0.0
 14
1.0
 24
1.0
 15
0.0
 25
0.0
 16
0.0
 26
0.0
 36
27.5337298366232197
 17
4284.0688476562490905
 27
225.2483596801758097
 37
0.0
 40
6.9221250499675904
 41
1.811304347826086
 42
50.0
 43
0.0
 44
0.0
 50
0.0
 51
0.0
 71
     0
 72
   100
 73
     1
 74
     1
 75
     0
 76
     0
 77
     0
 78
     0
  0
ENDTAB
  0
TABLE
  2
LTYPE
 70
     2
  0
LTYPE
  2
CONTINUOUS
 70
     0
  3
Solid line
 72
    65
 73
     0
 40
0.0
  0
LTYPE
  2
PHANTOM2
 70
     0
  3
___ _ _ ___ _ _ ___ _ _ ___ _ _
 72
    65
 73
     6
 40
1.25
 49
0.625
 49
-0.125
 49
0.125
 49
-0.125
 49
0.125
 49
-0.125
  0
ENDTAB
  0
TABLE
  2
LAYER
 70
     2
  0
LAYER
  2
0
 70
     0
 62
   255
  6
CONTINUOUS
  0
LAYER
  2
DEFPOINTS
 70
     0
 62
     7
  6
CONTINUOUS
  0
ENDTAB
  0
TABLE
  2
STYLE
 70
     1
  0
STYLE
  2
STANDARD
 70
     0
 40
0.0
 41
0.8
 50
0.0
 71
     0
 42
0.2
  3
txt
  4

  0
ENDTAB
  0
TABLE
  2
VIEW
 70
     0
  0
ENDTAB
  0
TABLE
  2
UCS
 70
     0
  0
ENDTAB
  0
TABLE
  2
APPID
 70
     9
  0
APPID
  2
ACAD
 70
     0
  0
APPID
  2
ACAD_MLEADERVER
 70
     0
  0
APPID
  2
ACAD_EXEMPT_FROM_CAD_STANDARDS
 70
     0
  0
APPID
  2
ACAD_NAV_VCDISPLAY
 70
     0
  0
APPID
  2
ACAECLAYERSTANDARD
 70
     0
  0
APPID
  2
ACCMTRANSPARENCY
 70
     0
  0
APPID
  2
ACAD_DSTYLE_DIMJAG
 70
     0
  0
APPID
  2
ACAD_DSTYLE_DIMTALN
 70
     0
  0
APPID
  2
ACDBATTR
 70
     0
  0
ENDTAB
  0
TABLE
  2
DIMSTYLE
 70
     1
  0
DIMSTYLE
  2
STANDARD
 70
     0
  3

  4

  5

  6

  7

 40
1.0
 41
0.1875
 42
0.0625
 43
0.38
 44
0.125
 45
0.0
 46
0.0
 47
0.01
 48
0.01
140
0.15625
141
0.09
142
0.0
143
25.3999999999999986
144
1.0
145
0.0
146
1.0
147
0.09
 71
     1
 72
     0
 73
     1
 74
     1
 75
     0
 76
     0
 77
     0
 78
     4
170
     0
171
     2
172
     0
173
     0
174
     0
175
     0
176
     0
177
     0
178
     0
  0
ENDTAB
  0
ENDSEC
  0
SECTION
  2
BLOCKS
  0
BLOCK
  8
0
  2
$MODEL_SPACE
 70
     0
 10
0.0
 20
0.0
 30
0.0
  3
$MODEL_SPACE
  1

  0
ENDBLK
  5
21
  8
0
  0
BLOCK
 67
     1
  8
0
  2
$PAPER_SPACE
 70
     0
 10
0.0
 20
0.0
 30
0.0
  3
$PAPER_SPACE
  1

  0
ENDBLK
  5
1D
 67
     1
  8
0
  0
ENDSEC
  0
SECTION
  2
ENTITIES
  0
ATTDEF
  5
3930
  8
DEFPOINTS
 10
4458.8426615858397781
 20
266.5134170539147931
 30
0.0
 40
0.001
  1
K-24844ME-4ND
  3

  2
MODELNUMBER
 70
     0
1001
ACDBATTR
1070
     0
1070
     1
  0
ATTDEF
  5
3931
  8
DEFPOINTS
 10
4458.8426615858397781
 20
266.5117503872481279
 30
0.0
 40
0.001
  1
ELATE
  3

  2
TRADENAME
 70
     0
1001
ACDBATTR
1070
     0
1070
     1
  0
ATTDEF
  5
3932
  8
DEFPOINTS
 10
4458.8426615858397781
 20
266.5100837205815196
 30
0.0
 40
0.001
  1
BATHROOM SINK FAUCET
  3

  2
PRODUCT
 70
     0
1001
ACDBATTR
1070
     0
1070
     1
  0
LINE
  5
BC34
  8
0
 10
4457.9402146844995514
 20
272.2754627404672192
 30
0.0
 11
4457.9402146844995514
 21
266.5077462049670771
 31
0.0
  0
LINE
  5
BC35
  8
0
 10
4457.9428130473988858
 20
272.663756822767084
 30
0.0
 11
4457.9402146844995514
 21
272.3660139215671734
 31
0.0
  0
LINE
  5
BC36
  8
0
 10
4458.3339154718987629
 20
270.2482851993671034
 30
0.0
 11
4458.3339154718987629
 21
270.9215960760670896
 31
0.0
  0
LINE
  5
BC37
  8
0
 10
4458.6759870664991467
 20
273.0815997531664721
 30
0.0
 11
4458.6688867220964312
 21
272.5667700928055979
 31
0.0
  0
LINE
  5
BC38
  8
0
 10
4458.5455403419491631
 20
270.439999632067213
 30
0.0
 11
4458.5416091993993177
 21
270.4662725459671719
 31
0.0
  0
LINE
  5
BC39
  8
0
 10
4457.9402146844995514
 20
266.5077462049670771
 30
0.0
 11
4459.7512383064986352
 21
266.5077462049670771
 31
0.0
  0
LINE
  5
BC3A
  8
0
 10
4457.9402146844995514
 20
272.3660139215671734
 30
0.0
 11
4459.7512383064986352
 21
272.3660139215671734
 31
0.0
  0
ARC
  5
BC3B
  8
0
 10
4458.8457955793592191
 20
269.3491134474780893
 30
0.0
 40
3.7577101382661762
 50
90.0010533578791012
 51
91.9997883265037615
  0
ARC
  5
BC3C
  8
0
 10
4458.8411106849380303
 20
270.5221824340961234
 30
0.0
 40
1.9555282695112219
 50
109.4587568923633967
 51
114.9545619331362047
  0
ARC
  5
BC3D
  8
0
 10
4458.8433683475641374
 20
270.7467893379458133
 30
0.0
 40
0.4010697552753792
 50
232.3467278175859008
 51
270.33688080636
  0
ARC
  5
BC3E
  8
0
 10
4457.9611029454408708
 20
272.2742595189254189
 30
0.0
 40
0.0209228866854187
 50
93.2967521275629394
 51
176.7032478724464113
  0
ARC
  5
BC3F
  8
0
 10
4457.9639603104724301
 20
272.6621900457885204
 30
0.0
 40
0.0212052240160867
 50
96.2317030270368576
 51
175.7627616691160881
  0
ARC
  5
BC40
  8
0
 10
4458.6967861608000021
 20
273.0811258399311896
 30
0.0
 40
0.0208044927238452
 50
116.0996940717630963
 51
178.6947253420387938
  0
ARC
  5
BC41
  8
0
 10
4458.7213593777123606
 20
272.9865742743556893
 30
0.0
 40
0.118150375623887
 50
93.247009305598084
 51
106.5856497890954984
  0
ARC
  5
BC42
  8
0
 10
4458.8930132705327196
 20
228.6423825787472026
 30
0.0
 40
44.0507342034301388
 50
90.636730296952166
 51
91.2114820620071356
  0
ARC
  5
BC43
  8
0
 10
4458.4081746486554039
 20
273.4837102288814776
 30
0.0
 40
0.7933274007637882
 50
269.6613573023578283
 51
285.6551333353297082
  0
ARC
  5
BC44
  8
0
 10
4458.6092391106376454
 20
272.7835045506519123
 30
0.0
 40
0.0650075298346441
 50
281.5465484585574245
 51
343.6688164945408062
  0
ARC
  5
BC45
  8
0
 10
4458.8497022168330659
 20
270.2686897733656224
 30
0.0
 40
0.5161901906173415
 50
182.2654453172181945
 51
228.5429418991427042
  0
ARC
  5
BC46
  8
0
 10
4458.8651611128689183
 20
270.3979339080282784
 30
0.0
 40
0.6276624601950701
 50
235.3120314443345933
 51
268.2256393710214866
  0
ARC
  5
BC47
  8
0
 10
4458.887224888721903
 20
270.8909900303208929
 30
0.0
 40
0.5541552497142783
 50
122.8478128706280046
 51
176.8339377858484056
  0
ARC
  5
BC48
  8
0
 10
4458.8782859594521142
 20
270.7846156445312999
 30
0.0
 40
0.641993558370496
 50
92.9070704800160883
 51
117.0181459844475995
  0
ARC
  5
BC49
  8
0
 10
4458.8798812404738783
 20
270.9467639023040988
 30
0.0
 40
0.5465455515633164
 50
182.6393414722938076
 51
234.588322275666286
  0
ARC
  5
BC4A
  8
0
 10
4458.889774887034946
 20
271.0845333718938264
 30
0.0
 40
0.6684257036492233
 50
240.7518674988191094
 51
266.2215439291148869
  0
ARC
  5
BC4B
  8
0
 10
4458.8548375507125456
 20
271.0762539140222884
 30
0.0
 40
0.6857034850730181
 50
242.819284661111908
 51
269.2386791321125088
  0
ARC
  5
BC4C
  8
0
 10
4454.6415978096501931
 20
264.0019142226087183
 30
0.0
 40
7.5497031314447671
 50
58.8970033595095117
 51
59.8698250265442624
  0
ARC
  5
BC4D
  8
0
 10
4458.7843633470019995
 20
270.6495119251820256
 30
0.0
 40
0.3722517718609895
 50
198.4738777016729045
 51
231.5827283870015947
  0
ARC
  5
BC4E
  8
0
 10
4458.8499900892147707
 20
270.6974485160702102
 30
0.0
 40
0.4511087484445602
 50
228.8341812588311939
 51
269.4584685767114252
  0
ARC
  5
BC4F
  8
0
 10
4458.5682877997178366
 20
270.4349711006394159
 30
0.0
 40
0.0232966298700561
 50
109.5025254333732931
 51
167.5347164867467882
  0
ARC
  5
BC50
  8
0
 10
4458.5926030763748713
 20
270.4480911772016043
 30
0.0
 40
0.0477532624469506
 50
189.755543944297898
 51
246.8858857064628864
  0
ARC
  5
BC51
  8
0
 10
4458.6670825235369193
 20
270.5926917522479016
 30
0.0
 40
0.2103116151398882
 50
243.687045525341091
 51
261.0568802374493202
  0
ARC
  5
BC52
  8
0
 10
4458.7662344115633459
 20
271.0509058681770966
 30
0.0
 40
0.6788946816868568
 50
258.8016369662987017
 51
263.5234417080644107
  0
ARC
  5
BC53
  8
0
 10
4458.7288387687867726
 20
270.766346488902002
 30
0.0
 40
0.3888138118507644
 50
252.9358575816789028
 51
262.7319738826769253
  0
ARC
  5
BC54
  8
0
 10
4458.6277739808801925
 20
270.4495046264519829
 30
0.0
 40
0.056381341176052
 50
224.6327782985559907
 51
256.6383397563224094
  0
ARC
  5
BC55
  8
0
 10
4458.5947701155291725
 20
270.4153939497401211
 30
0.0
 40
0.0089960701423326
 50
139.7759438489773913
 51
217.6941563713760956
  0
ARC
  5
BC56
  8
0
 10
4458.6122131231632011
 20
270.4004331813541171
 30
0.0
 40
0.031975975033821
 50
115.6686203293331943
 51
139.4917500085051074
  0
ARC
  5
BC57
  8
0
 10
4458.6527264341593764
 20
270.3248516419159841
 30
0.0
 40
0.1177082522390358
 50
110.4499823104382017
 51
117.5069029072650011
  0
ARC
  5
BC58
  8
0
 10
4458.6401667696509321
 20
270.4124846063880909
 30
0.0
 40
0.0099584657123644
 50
168.1627128876573067
 51
230.256884481114497
  0
ARC
  5
BC59
  8
0
 10
4458.6549373951320376
 20
270.4094638354197855
 30
0.0
 40
0.0250347480979581
 50
148.5072070520348007
 51
168.3307269069462961
  0
ARC
  5
BC5A
  8
0
 10
4458.8449591743928977
 20
270.7692870078295755
 30
0.0
 40
0.4060900610559178
 50
238.6343391063018942
 51
254.5887780856164966
  0
ARC
  5
BC5B
  8
0
 10
4458.8535375619958359
 20
270.8297038882539027
 30
0.0
 40
0.4666791644783665
 50
255.5446798168080136
 51
269.0409641643304894
  0
LINE
  5
BC5C
  8
0
 10
4459.7512383064986352
 20
272.2754627404672192
 30
0.0
 11
4459.7512383064986352
 21
266.5077462049670771
 31
0.0
  0
LINE
  5
BC5D
  8
0
 10
4459.7486399435993008
 20
272.663756822767084
 30
0.0
 11
4459.7512383064986352
 21
272.3660139215671734
 31
0.0
  0
LINE
  5
BC5E
  8
0
 10
4459.3575375190994237
 20
270.2482851993671034
 30
0.0
 11
4459.3575375190994237
 21
270.9215960760670896
 31
0.0
  0
LINE
  5
BC5F
  8
0
 10
4459.0154659244990398
 20
273.0815997531673816
 30
0.0
 11
4459.0225662689017554
 21
272.5667700928055979
 31
0.0
  0
LINE
  5
BC60
  8
0
 10
4459.1459126490490235
 20
270.439999632067213
 30
0.0
 11
4459.1498437915988688
 21
270.4662725459671719
 31
0.0
  0
ARC
  5
BC61
  8
0
 10
4458.845657411639877
 20
269.3491134474782029
 30
0.0
 40
3.7577101382661611
 50
88.0002116734962385
 51
89.9989466421208988
  0
ARC
  5
BC62
  8
0
 10
4458.8503423060592468
 20
270.5221824340961234
 30
0.0
 40
1.9555282695112219
 50
65.0454380668637953
 51
70.5412431076366033
  0
ARC
  5
BC63
  8
0
 10
4458.8480846434331397
 20
270.7467893379458133
 30
0.0
 40
0.401069755275376
 50
269.66311919364
 51
307.6532721824141277
  0
ARC
  5
BC64
  8
0
 10
4459.7303500455573158
 20
272.2742595189254189
 30
0.0
 40
0.0209228866854187
 50
3.2967521275535581
 51
86.7032478724370748
  0
ARC
  5
BC65
  8
0
 10
4459.7274926805266659
 20
272.6621900457885204
 30
0.0
 40
0.0212052240160867
 50
4.2372383308838213
 51
83.7682969729631566
  0
ARC
  5
BC66
  8
0
 10
4458.9946668301981845
 20
273.0811258399311896
 30
0.0
 40
0.0208044927238452
 50
1.30527465796117
 51
63.9003059282369108
  0
ARC
  5
BC67
  8
0
 10
4458.9700936132867355
 20
272.9865742743556893
 30
0.0
 40
0.118150375623887
 50
73.4143502109045158
 51
86.7529906944019302
  0
ARC
  5
BC68
  8
0
 10
4458.7984397204663765
 20
228.6423825787472026
 30
0.0
 40
44.0507342034301388
 50
88.788517937992907
 51
89.363269703047834
  0
ARC
  5
BC69
  8
0
 10
4459.2832783423427827
 20
273.4837102288814776
 30
0.0
 40
0.7933274007637882
 50
254.3448666646702918
 51
270.3386426976421717
  0
ARC
  5
BC6A
  8
0
 10
4459.0822138803596317
 20
272.7835045506519123
 30
0.0
 40
0.0650075298346441
 50
196.3311835054591938
 51
258.4534515414425755
  0
ARC
  5
BC6B
  8
0
 10
4458.8417507741651207
 20
270.2686897733656224
 30
0.0
 40
0.5161901906173415
 50
311.4570581008574095
 51
357.734554682781777
  0
ARC
  5
BC6C
  8
0
 10
4458.8262918781292683
 20
270.3979339080282784
 30
0.0
 40
0.6276624601950701
 50
271.7743606289785134
 51
304.6879685556654067
  0
ARC
  5
BC6D
  8
0
 10
4458.8042281022762836
 20
270.8909900303208929
 30
0.0
 40
0.5541552497142783
 50
3.1660622141515851
 51
57.1521871293719599
  0
ARC
  5
BC6E
  8
0
 10
4458.8131670315460724
 20
270.7846156445312999
 30
0.0
 40
0.6419935583704925
 50
62.9818540155524218
 51
87.092929519983926
  0
ARC
  5
BC6F
  8
0
 10
4458.8115717505233988
 20
270.9467639023040988
 30
0.0
 40
0.5465455515633164
 50
305.4116777243336855
 51
357.3606585277062209
  0
ARC
  5
BC70
  8
0
 10
4458.8016781039632406
 20
271.0845333718938264
 30
0.0
 40
0.6684257036492233
 50
273.7784560708852268
 51
299.2481325011353874
  0
ARC
  5
BC71
  8
0
 10
4458.8366154402847314
 20
271.0762539140222884
 30
0.0
 40
0.6857034850730181
 50
270.7613208678874912
 51
297.180715338888092
  0
ARC
  5
BC72
  8
0
 10
4463.0498551813479935
 20
264.0019142226087183
 30
0.0
 40
7.5497031314447671
 50
120.130174973455695
 51
121.1029966404905025
  0
ARC
  5
BC73
  8
0
 10
4458.9070896439961871
 20
270.6495119251820256
 30
0.0
 40
0.3722517718609895
 50
308.4172716129983769
 51
341.5261222983240259
  0
ARC
  5
BC74
  8
0
 10
4458.8414629017834159
 20
270.6974485160702102
 30
0.0
 40
0.4511087484445569
 50
270.5415314232885748
 51
311.1658187411687777
  0
ARC
  5
BC75
  8
0
 10
4459.1231651912794405
 20
270.4349711006394159
 30
0.0
 40
0.0232966298700561
 50
12.4652835132531195
 51
70.4974745666266926
  0
ARC
  5
BC76
  8
0
 10
4459.0988499146242248
 20
270.4480911772016043
 30
0.0
 40
0.0477532624469506
 50
293.1141142935369999
 51
350.2444560557020736
  0
ARC
  5
BC77
  8
0
 10
4459.0243704674612673
 20
270.5926917522479016
 30
0.0
 40
0.2103116151398882
 50
278.9431197625506229
 51
296.312954474658909
  0
ARC
  5
BC78
  8
0
 10
4458.9252185794348406
 20
271.0509058681770966
 30
0.0
 40
0.6788946816868568
 50
276.4765582919355893
 51
281.1983630337011846
  0
ARC
  5
BC79
  8
0
 10
4458.962614222211414
 20
270.766346488902002
 30
0.0
 40
0.3888138118507644
 50
277.2680261173230747
 51
287.0641424183211257
  0
ARC
  5
BC7A
  8
0
 10
4459.0636790101170845
 20
270.4495046264519829
 30
0.0
 40
0.056381341176052
 50
283.3616602436777043
 51
315.3672217014438957
  0
ARC
  5
BC7B
  8
0
 10
4459.0966828754681046
 20
270.4153939497401211
 30
0.0
 40
0.0089960701423326
 50
322.305843628624018
 51
40.2240561510225376
  0
ARC
  5
BC7C
  8
0
 10
4459.0792398678349855
 20
270.4004331813541171
 30
0.0
 40
0.031975975033821
 50
40.5082499914923773
 51
64.3313796706668342
  0
ARC
  5
BC7D
  8
0
 10
4459.0387265568388102
 20
270.3248516419159841
 30
0.0
 40
0.1177082522390358
 50
62.4930970927350273
 51
69.5500176895617841
  0
ARC
  5
BC7E
  8
0
 10
4459.0512862213472545
 20
270.4124846063880909
 30
0.0
 40
0.0099584657123644
 50
309.7431155188875778
 51
11.8372871123427004
  0
ARC
  5
BC7F
  8
0
 10
4459.0365155958661489
 20
270.4094638354197855
 30
0.0
 40
0.0250347480979581
 50
11.6692730930537198
 51
31.4927929479652313
  0
ARC
  5
BC80
  8
0
 10
4458.8464938166052889
 20
270.7692870078295755
 30
0.0
 40
0.4060900610559178
 50
285.411221914383475
 51
301.3656608936980774
  0
ARC
  5
BC81
  8
0
 10
4458.8379154290032602
 20
270.8297038882539027
 30
0.0
 40
0.4666791644783665
 50
270.9590358356693969
 51
284.4553201831919864
  0
LINE
  5
BC82
  8
0
 10
4457.959899723898161
 20
272.2951477798670794
 30
0.0
 11
4459.7315532670991161
 21
272.2951477798670794
 31
0.0
  0
LINE
  5
BC83
  8
0
 10
4458.9921909100148696
 20
272.9098380310671246
 30
0.0
 11
4458.6992620809842265
 21
272.9098380310671246
 31
0.0
  0
LINE
  5
BC84
  8
0
 10
4459.3060441114530477
 20
272.4758719128672055
 30
0.0
 11
4458.3854088795442294
 21
272.4758719128672055
 31
0.0
  0
LINE
  5
BC85
  8
0
 10
4459.4154748508199191
 20
272.4940292869383143
 30
0.0
 11
4459.412622985483722
 21
272.6682703986869001
 31
0.0
  0
ARC
  5
BC86
  8
0
 10
4459.2820563492468864
 20
272.9592781033919096
 30
0.0
 40
0.4840009894341815
 50
272.8408223328642066
 51
286.0012005485447162
  0
ARC
  5
BC87
  8
0
 10
4459.3914258245486053
 20
272.6679234573257986
 30
0.0
 40
0.0212
 50
0.9376963744851083
 51
89.2283218780240333
  0
ARC
  5
BC88
  8
0
 10
4459.3413299181247567
 20
274.7859393418544869
 30
0.0
 40
2.293109062140434
 50
268.0194598031965825
 51
271.8529133061687162
  0
ARC
  5
BC89
  8
0
 10
4459.2954151922240271
 20
273.4581843487945889
 30
0.0
 40
0.964560424095916
 50
259.3277834837718956
 51
268.0194598031965825
  0
ARC
  5
BC8A
  8
0
 10
4459.1522216302810193
 20
272.6983343728559248
 30
0.0
 40
0.1913357593857508
 50
234.1075347347527043
 51
259.3277834837718956
  0
ARC
  5
BC8B
  8
0
 10
4459.0687243596639746
 20
272.5829554764090972
 30
0.0
 40
0.0489135562512873
 50
199.3232716995019871
 51
234.1075347347527043
  0
LINE
  5
BC8C
  8
0
 10
4458.2759781401782675
 20
272.4940292869383143
 30
0.0
 11
4458.2788300055135551
 21
272.6682703986869001
 31
0.0
  0
ARC
  5
BC8D
  8
0
 10
4458.4093966417513002
 20
272.9592781033919096
 30
0.0
 40
0.4840009894341815
 50
253.9987994514551986
 51
267.1591776671879757
  0
ARC
  5
BC8E
  8
0
 10
4458.3000271664486718
 20
272.6679234573257986
 30
0.0
 40
0.0212
 50
90.7716781219759525
 51
179.0623036255148861
  0
ARC
  5
BC8F
  8
0
 10
4458.3501230728734299
 20
274.7859393418544869
 30
0.0
 40
2.293109062140434
 50
268.1470866938312838
 51
271.9805401968033038
  0
ARC
  5
BC90
  8
0
 10
4458.3960377987741595
 20
273.4581843487945889
 30
0.0
 40
0.964560424095916
 50
271.9805401968033038
 51
280.6722165162281044
  0
ARC
  5
BC91
  8
0
 10
4458.5392313607180768
 20
272.6983343728559248
 30
0.0
 40
0.1913357593857508
 50
280.6722165162281044
 51
305.8924652652472105
  0
ARC
  5
BC92
  8
0
 10
4458.622728631334212
 20
272.5829554764090972
 30
0.0
 40
0.0489135562512873
 50
305.8924652652472105
 51
340.6767283005318063
  0
ARC
  5
BC93
  8
0
 10
4458.9921909100148696
 20
272.8838380310672278
 30
0.0
 40
0.026
 50
0.7901525650892881
 51
90.0
  0
ARC
  5
BC94
  8
0
 10
4458.6992620809842265
 20
272.8838380310672278
 30
0.0
 40
0.026
 50
90.0
 51
179.2098474349106993
  0
ENDSEC
  0
EOF
