  0
SECTION
  2
HEADER
  9
$ACADVER
  1
AC1009
  9
$INSBASE
 10
3764.3250186814580047
 20
120.4633180646529951
 30
0.0
  9
$EXTMIN
 10
3757.0044856277218059
 20
113.6559658690010934
 30
-0.0000000349181948
  9
$EXTMAX
 10
3771.6158182132658112
 20
121.5736223796569959
 30
0.0000000814935746
  9
$LIMMIN
 10
0.0
 20
0.0
  9
$LIMMAX
 10
11.6929133858000007
 20
8.2677165353999982
  9
$ORTHOMODE
 70
     0
  9
$REGENMODE
 70
     1
  9
$FILLMODE
 70
     1
  9
$QTEXTMODE
 70
     0
  9
$MIRRTEXT
 70
     0
  9
$DRAGMODE
 70
     2
  9
$LTSCALE
 40
0.6431102362
  9
$OSMODE
 70
  4095
  9
$ATTMODE
 70
     1
  9
$TEXTSIZE
 40
0.2
  9
$TRACEWID
 40
0.05
  9
$TEXTSTYLE
  7
STANDARD
  9
$CLAYER
  8
0
  9
$CELTYPE
  6
BYLAYER
  9
$CECOLOR
 62
   256
  9
$DIMSCALE
 40
1.0
  9
$DIMASZ
 40
0.1875
  9
$DIMEXO
 40
0.0625
  9
$DIMDLI
 40
0.4443307087
  9
$DIMRND
 40
0.0
  9
$DIMDLE
 40
0.0
  9
$DIMEXE
 40
0.125
  9
$DIMTP
 40
0.01
  9
$DIMTM
 40
0.01
  9
$DIMTXT
 40
2.0
  9
$DIMCEN
 40
0.1052362205
  9
$DIMTSZ
 40
0.0
  9
$DIMTOL
 70
     1
  9
$DIMLIM
 70
     0
  9
$DIMTIH
 70
     1
  9
$DIMTOH
 70
     1
  9
$DIMSE1
 70
     0
  9
$DIMSE2
 70
     0
  9
$DIMTAD
 70
     0
  9
$DIMZIN
 70
     0
  9
$DIMBLK
  1

  9
$DIMASO
 70
     1
  9
$DIMSHO
 70
     1
  9
$DIMPOST
  1
\X
  9
$DIMAPOST
  1

  9
$DIMALT
 70
     1
  9
$DIMALTD
 70
     2
  9
$DIMALTF
 40
25.3999999999999986
  9
$DIMLFAC
 40
1.0
  9
$DIMTOFL
 70
     0
  9
$DIMTVP
 40
0.0
  9
$DIMTIX
 70
     0
  9
$DIMSOXD
 70
     0
  9
$DIMSAH
 70
     0
  9
$DIMBLK1
  1

  9
$DIMBLK2
  1

  9
$DIMSTYLE
  2
STANDARD
  9
$DIMCLRD
 70
     0
  9
$DIMCLRE
 70
     0
  9
$DIMCLRT
 70
     0
  9
$DIMTFAC
 40
1.0
  9
$DIMGAP
 40
0.09
  9
$LUNITS
 70
     2
  9
$LUPREC
 70
     4
  9
$SKETCHINC
 40
0.1
  9
$FILLETRAD
 40
0.0
  9
$AUNITS
 70
     0
  9
$AUPREC
 70
     0
  9
$MENU
  1
.
  9
$ELEVATION
 40
0.0
  9
$PELEVATION
 40
0.0
  9
$THICKNESS
 40
0.0
  9
$LIMCHECK
 70
     0
  9
$BLIPMODE
 70
     0
  9
$CHAMFERA
 40
0.0
  9
$CHAMFERB
 40
0.0
  9
$SKPOLY
 70
     0
  9
$TDCREATE
 40
2458060.468368056230247
  9
$TDUPDATE
 40
2459434.6278472221456468
  9
$TDINDWG
 40
0.406847338
  9
$TDUSRTIMER
 40
0.406847338
  9
$USRTIMER
 70
     1
  9
$ANGBASE
 50
0.0
  9
$ANGDIR
 70
     0
  9
$PDMODE
 70
     0
  9
$PDSIZE
 40
0.3125
  9
$PLINEWID
 40
0.0
  9
$COORDS
 70
     1
  9
$SPLFRAME
 70
     0
  9
$SPLINETYPE
 70
     6
  9
$SPLINESEGS
 70
     8
  9
$ATTDIA
 70
     1
  9
$ATTREQ
 70
     1
  9
$HANDLING
 70
     1
  9
$HANDSEED
  5
16DD0
  9
$SURFTAB1
 70
     6
  9
$SURFTAB2
 70
     6
  9
$SURFTYPE
 70
     6
  9
$SURFU
 70
     6
  9
$SURFV
 70
     6
  9
$UCSNAME
  2

  9
$UCSORG
 10
0.0
 20
0.0
 30
0.0
  9
$UCSXDIR
 10
1.0
 20
0.0
 30
0.0
  9
$UCSYDIR
 10
0.0
 20
1.0
 30
0.0
  9
$PUCSNAME
  2

  9
$PUCSORG
 10
0.0
 20
0.0
 30
0.0
  9
$PUCSXDIR
 10
1.0
 20
0.0
 30
0.0
  9
$PUCSYDIR
 10
0.0
 20
1.0
 30
0.0
  9
$USERI1
 70
     0
  9
$USERI2
 70
     0
  9
$USERI3
 70
     0
  9
$USERI4
 70
     0
  9
$USERI5
 70
     0
  9
$USERR1
 40
0.0
  9
$USERR2
 40
0.0
  9
$USERR3
 40
0.0
  9
$USERR4
 40
0.0
  9
$USERR5
 40
0.0
  9
$WORLDVIEW
 70
     1
  9
$SHADEDGE
 70
     3
  9
$SHADEDIF
 70
    70
  9
$TILEMODE
 70
     1
  9
$MAXACTVP
 70
    64
  9
$PLIMCHECK
 70
     0
  9
$PEXTMIN
 10
1.0000000000000000E+20
 20
1.0000000000000000E+20
 30
1.0000000000000000E+20
  9
$PEXTMAX
 10
-1.0000000000000000E+20
 20
-1.0000000000000000E+20
 30
-1.0000000000000000E+20
  9
$PLIMMIN
 10
0.0
 20
0.0
  9
$PLIMMAX
 10
12.0
 20
9.0
  9
$UNITMODE
 70
     0
  9
$VISRETAIN
 70
     1
  9
$PLINEGEN
 70
     0
  9
$PSLTSCALE
 70
     1
  0
ENDSEC
  0
SECTION
  2
TABLES
  0
TABLE
  2
VPORT
 70
     1
  0
VPORT
  2
*ACTIVE
 70
     0
 10
0.0
 20
0.0
 11
1.0
 21
1.0
 12
-500.6961957357560777
 22
13.3107818257451207
 13
0.0
 23
0.0
 14
1.0
 24
1.0
 15
0.0
 25
0.0
 16
0.0
 26
0.0
 36
122.0237731519760018
 17
4265.00634765625
 27
104.3040122985839986
 37
0.0
 40
7.9804120444260054
 41
2.0410052910052912
 42
50.0
 43
0.0
 44
0.0
 50
0.0
 51
0.0
 71
     0
 72
   100
 73
     1
 74
     1
 75
     0
 76
     0
 77
     0
 78
     0
  0
ENDTAB
  0
TABLE
  2
LTYPE
 70
     2
  0
LTYPE
  2
CONTINUOUS
 70
     0
  3
Solid line
 72
    65
 73
     0
 40
0.0
  0
LTYPE
  2
PHANTOM2
 70
     0
  3
___ _ _ ___ _ _ ___ _ _ ___ _ _
 72
    65
 73
     6
 40
1.25
 49
0.625
 49
-0.125
 49
0.125
 49
-0.125
 49
0.125
 49
-0.125
  0
ENDTAB
  0
TABLE
  2
LAYER
 70
     2
  0
LAYER
  2
0
 70
     0
 62
   255
  6
CONTINUOUS
  0
LAYER
  2
DEFPOINTS
 70
     0
 62
     7
  6
CONTINUOUS
  0
ENDTAB
  0
TABLE
  2
STYLE
 70
     1
  0
STYLE
  2
STANDARD
 70
     0
 40
0.0
 41
0.8
 50
0.0
 71
     0
 42
0.2
  3
txt
  4

  0
ENDTAB
  0
TABLE
  2
VIEW
 70
     0
  0
ENDTAB
  0
TABLE
  2
UCS
 70
     0
  0
ENDTAB
  0
TABLE
  2
APPID
 70
     9
  0
APPID
  2
ACAD
 70
     0
  0
APPID
  2
ACAD_MLEADERVER
 70
     0
  0
APPID
  2
ACAD_EXEMPT_FROM_CAD_STANDARDS
 70
     0
  0
APPID
  2
ACAD_NAV_VCDISPLAY
 70
     0
  0
APPID
  2
ACAECLAYERSTANDARD
 70
     0
  0
APPID
  2
ACCMTRANSPARENCY
 70
     0
  0
APPID
  2
ACAD_DSTYLE_DIMJAG
 70
     0
  0
APPID
  2
ACAD_DSTYLE_DIMTALN
 70
     0
  0
APPID
  2
ACDBATTR
 70
     0
  0
ENDTAB
  0
TABLE
  2
DIMSTYLE
 70
     1
  0
DIMSTYLE
  2
STANDARD
 70
     0
  3

  4

  5

  6

  7

 40
1.0
 41
0.1875
 42
0.0625
 43
0.38
 44
0.125
 45
0.0
 46
0.0
 47
0.01
 48
0.01
140
0.15625
141
0.09
142
0.0
143
25.3999999999999986
144
1.0
145
0.0
146
1.0
147
0.09
 71
     1
 72
     0
 73
     1
 74
     1
 75
     0
 76
     0
 77
     0
 78
     4
170
     0
171
     2
172
     0
173
     0
174
     0
175
     0
176
     0
177
     0
178
     0
  0
ENDTAB
  0
ENDSEC
  0
SECTION
  2
BLOCKS
  0
BLOCK
  8
0
  2
$MODEL_SPACE
 70
     0
 10
0.0
 20
0.0
 30
0.0
  3
$MODEL_SPACE
  1

  0
ENDBLK
  5
21
  8
0
  0
BLOCK
 67
     1
  8
0
  2
$PAPER_SPACE
 70
     0
 10
0.0
 20
0.0
 30
0.0
  3
$PAPER_SPACE
  1

  0
ENDBLK
  5
1D
 67
     1
  8
0
  0
ENDSEC
  0
SECTION
  2
ENTITIES
  0
ATTDEF
  5
16015
  8
DEFPOINTS
 10
3764.3202035784938744
 20
120.4686860886893953
 30
0.0
 40
0.001
  1
K-2479X
  3

  2
MODELNUMBER
 70
     0
1001
ACDBATTR
1070
     0
1070
     1
  0
ATTDEF
  5
16016
  8
DEFPOINTS
 10
3764.3202035784938744
 20
120.4670194220228012
 30
0.0
 40
0.001
  1
PATIO
  3

  2
TRADENAME
 70
     0
1001
ACDBATTR
1070
     0
1070
     1
  0
ATTDEF
  5
16017
  8
DEFPOINTS
 10
3764.3202035784938744
 20
120.4653527553560934
 30
0.0
 40
0.001
  1
BATHROOM SINK
  3

  2
PRODUCT
 70
     0
1001
ACDBATTR
1070
     0
1070
     1
  0
LINE
  5
16D33
  8
0
 10
3763.1244632883817758
 20
113.6591061496528994
 30
0.0
 11
3765.5255740745328694
 21
113.6591061496528994
 31
0.0
  0
ARC
  5
16D34
  8
0
 10
3765.5255740745328694
 20
113.7791061496530034
 30
0.0
 40
0.12
 50
270.0
 51
353.2983822819256829
  0
LINE
  5
16D35
  8
0
 10
3757.3606827999401503
 20
121.5697111496530027
 30
0.0
 11
3771.2893545629758592
 21
121.5697111496530027
 31
0.0
  0
ARC
  5
16D36
  8
0
 10
3757.3606827999401503
 20
121.4497111496529982
 30
0.0
 40
0.12
 50
90.0
 51
180.0
  0
LINE
  5
16D37
  8
0
 10
3757.3606827999401503
 20
120.4633180646529951
 30
0.0
 11
3771.2893545629758592
 21
120.4633180646529951
 31
0.0
  0
ARC
  5
16D38
  8
0
 10
3771.2893545629758592
 20
120.5833180646529996
 30
0.0
 40
0.12
 50
270.0
 51
0.0
  0
ARC
  5
16D39
  8
0
 10
3757.3606827999401503
 20
120.5833180646529996
 30
0.0
 40
0.12
 50
180.0
 51
270.0
  0
LINE
  5
16D3A
  8
0
 10
3757.2406827999398047
 20
120.5833180646529996
 30
0.0
 11
3757.2406827999398047
 21
121.4497111496529982
 31
0.0
  0
LINE
  5
16D3B
  8
0
 10
3758.240948681358077
 20
120.0795310612528937
 30
0.0
 11
3758.4196264562579017
 21
118.4545920053528931
 31
0.0
  0
ARC
  5
16D3C
  8
0
 10
3762.0169801921088037
 20
118.7213069180514964
 30
0.0
 40
3.607227570516748
 50
184.2402640168369885
 51
257.384734455646992
  0
ARC
  5
16D3D
  8
0
 10
3764.3334205247087993
 20
132.5840332102062007
 30
0.0
 40
17.6578786313201093
 50
259.8747324010558941
 51
264.5997832973598065
  0
ARC
  5
16D3E
  8
0
 10
3762.657917081218784
 20
114.7780886823089048
 30
0.0
 40
0.2268515538857034
 50
5.2467124030118431
 51
86.5417954763780841
  0
LINE
  5
16D3F
  8
0
 10
3763.0052832057817795
 20
113.7651022962046028
 30
0.0
 11
3762.8838181670739687
 21
114.7988330046530052
 31
0.0
  0
ARC
  5
16D40
  8
0
 10
3757.8276080117948368
 20
120.0513111761126055
 30
0.0
 40
0.4143028735505294
 50
3.9056769823248159
 51
83.9651851508739782
  0
LINE
  5
16D41
  8
0
 10
3771.4093545629762048
 20
120.5833180646529996
 30
0.0
 11
3771.4093545629762048
 21
121.4497111496529982
 31
0.0
  0
ARC
  5
16D42
  8
0
 10
3771.2893545629758592
 20
121.4497111496529982
 30
0.0
 40
0.12
 50
0.0
 51
90.0
  0
LINE
  5
16D43
  8
0
 10
3770.4090886815579324
 20
120.0795310612528937
 30
0.0
 11
3770.2304109066581077
 21
118.4545920053528931
 31
0.0
  0
ARC
  5
16D44
  8
0
 10
3766.6330571708072057
 20
118.7213069180514964
 30
0.0
 40
3.607227570516748
 50
282.615265544353008
 51
355.7597359831630115
  0
ARC
  5
16D45
  8
0
 10
3764.3166168382072101
 20
132.5840332102062007
 30
0.0
 40
17.6578786313201093
 50
275.4002167026401935
 51
280.1252675989441059
  0
ARC
  5
16D46
  8
0
 10
3765.9921202816972254
 20
114.7780886823089048
 30
0.0
 40
0.2268515538857034
 50
93.4582045236219159
 51
174.7532875969882014
  0
LINE
  5
16D47
  8
0
 10
3765.6447541571337752
 20
113.7651022962046028
 30
0.0
 11
3765.7662191958420408
 21
114.7988330046530052
 31
0.0
  0
ARC
  5
16D48
  8
0
 10
3770.8224293511211727
 20
120.0513111761126055
 30
0.0
 40
0.4143028735505294
 50
96.0348148491261071
 51
176.0943230176752081
  0
ARC
  5
16D49
  8
0
 10
3763.1244632883817758
 20
113.7791061496530034
 30
0.0
 40
0.12
 50
186.7016177180709917
 51
270.0
  0
LINE
  5
16D4B
  8
0
 10
3762.6716008611579127
 20
115.0045271544529015
 30
0.0
 11
3765.9784365017580967
 21
115.0045271544529015
 31
0.0
  0
ENDSEC
  0
EOF
