  0
SECTION
  2
HEADER
  9
$ACADVER
  1
AC1009
  9
$INSBASE
 10
4391.6151415563199407
 20
231.1296152562757129
 30
0.0
  9
$EXTMIN
 10
4384.050113764337766
 20
231.1226431691341077
 30
-0.0000000000000058
  9
$EXTMAX
 10
4399.1529407484922558
 20
248.9998052614218125
 30
0.0000000000000104
  9
$LIMMIN
 10
0.0
 20
0.0
  9
$LIMMAX
 10
11.6929133858000007
 20
8.2677165353999982
  9
$ORTHOMODE
 70
     0
  9
$REGENMODE
 70
     1
  9
$FILLMODE
 70
     1
  9
$QTEXTMODE
 70
     0
  9
$MIRRTEXT
 70
     0
  9
$DRAGMODE
 70
     2
  9
$LTSCALE
 40
0.6431102362
  9
$OSMODE
 70
   575
  9
$ATTMODE
 70
     1
  9
$TEXTSIZE
 40
0.2
  9
$TRACEWID
 40
0.05
  9
$TEXTSTYLE
  7
STANDARD
  9
$CLAYER
  8
0
  9
$CELTYPE
  6
BYLAYER
  9
$CECOLOR
 62
   256
  9
$DIMSCALE
 40
1.0
  9
$DIMASZ
 40
0.1875
  9
$DIMEXO
 40
0.0625
  9
$DIMDLI
 40
0.4443307087
  9
$DIMRND
 40
0.0
  9
$DIMDLE
 40
0.0
  9
$DIMEXE
 40
0.125
  9
$DIMTP
 40
0.01
  9
$DIMTM
 40
0.01
  9
$DIMTXT
 40
2.0
  9
$DIMCEN
 40
0.1052362205
  9
$DIMTSZ
 40
0.0
  9
$DIMTOL
 70
     1
  9
$DIMLIM
 70
     0
  9
$DIMTIH
 70
     1
  9
$DIMTOH
 70
     1
  9
$DIMSE1
 70
     0
  9
$DIMSE2
 70
     0
  9
$DIMTAD
 70
     0
  9
$DIMZIN
 70
     0
  9
$DIMBLK
  1

  9
$DIMASO
 70
     1
  9
$DIMSHO
 70
     1
  9
$DIMPOST
  1
\X
  9
$DIMAPOST
  1

  9
$DIMALT
 70
     1
  9
$DIMALTD
 70
     2
  9
$DIMALTF
 40
25.3999999999999986
  9
$DIMLFAC
 40
1.0
  9
$DIMTOFL
 70
     0
  9
$DIMTVP
 40
0.0
  9
$DIMTIX
 70
     0
  9
$DIMSOXD
 70
     0
  9
$DIMSAH
 70
     0
  9
$DIMBLK1
  1

  9
$DIMBLK2
  1

  9
$DIMSTYLE
  2
STANDARD
  9
$DIMCLRD
 70
     0
  9
$DIMCLRE
 70
     0
  9
$DIMCLRT
 70
     0
  9
$DIMTFAC
 40
1.0
  9
$DIMGAP
 40
0.09
  9
$LUNITS
 70
     2
  9
$LUPREC
 70
     4
  9
$SKETCHINC
 40
0.1
  9
$FILLETRAD
 40
0.0
  9
$AUNITS
 70
     0
  9
$AUPREC
 70
     0
  9
$MENU
  1
.
  9
$ELEVATION
 40
0.0
  9
$PELEVATION
 40
0.0
  9
$THICKNESS
 40
0.0
  9
$LIMCHECK
 70
     0
  9
$BLIPMODE
 70
     0
  9
$CHAMFERA
 40
0.0
  9
$CHAMFERB
 40
0.0
  9
$SKPOLY
 70
     0
  9
$TDCREATE
 40
2458060.468368056230247
  9
$TDUPDATE
 40
2459391.1021643518470228
  9
$TDINDWG
 40
0.6618704861
  9
$TDUSRTIMER
 40
0.6618704861
  9
$USRTIMER
 70
     1
  9
$ANGBASE
 50
0.0
  9
$ANGDIR
 70
     0
  9
$PDMODE
 70
     0
  9
$PDSIZE
 40
0.3125
  9
$PLINEWID
 40
0.0
  9
$COORDS
 70
     2
  9
$SPLFRAME
 70
     0
  9
$SPLINETYPE
 70
     6
  9
$SPLINESEGS
 70
     8
  9
$ATTDIA
 70
     1
  9
$ATTREQ
 70
     1
  9
$HANDLING
 70
     1
  9
$HANDSEED
  5
13A07
  9
$SURFTAB1
 70
     6
  9
$SURFTAB2
 70
     6
  9
$SURFTYPE
 70
     6
  9
$SURFU
 70
     6
  9
$SURFV
 70
     6
  9
$UCSNAME
  2

  9
$UCSORG
 10
0.0
 20
0.0
 30
0.0
  9
$UCSXDIR
 10
1.0
 20
0.0
 30
0.0
  9
$UCSYDIR
 10
0.0
 20
1.0
 30
0.0
  9
$PUCSNAME
  2

  9
$PUCSORG
 10
0.0
 20
0.0
 30
0.0
  9
$PUCSXDIR
 10
1.0
 20
0.0
 30
0.0
  9
$PUCSYDIR
 10
0.0
 20
1.0
 30
0.0
  9
$USERI1
 70
     0
  9
$USERI2
 70
     0
  9
$USERI3
 70
     0
  9
$USERI4
 70
     0
  9
$USERI5
 70
     0
  9
$USERR1
 40
0.0
  9
$USERR2
 40
0.0
  9
$USERR3
 40
0.0
  9
$USERR4
 40
0.0
  9
$USERR5
 40
0.0
  9
$WORLDVIEW
 70
     1
  9
$SHADEDGE
 70
     3
  9
$SHADEDIF
 70
    70
  9
$TILEMODE
 70
     1
  9
$MAXACTVP
 70
    64
  9
$PLIMCHECK
 70
     0
  9
$PEXTMIN
 10
1.0000000000000000E+20
 20
1.0000000000000000E+20
 30
1.0000000000000000E+20
  9
$PEXTMAX
 10
-1.0000000000000000E+20
 20
-1.0000000000000000E+20
 30
-1.0000000000000000E+20
  9
$PLIMMIN
 10
0.0
 20
0.0
  9
$PLIMMAX
 10
12.0
 20
9.0
  9
$UNITMODE
 70
     0
  9
$VISRETAIN
 70
     1
  9
$PLINEGEN
 70
     0
  9
$PSLTSCALE
 70
     1
  0
ENDSEC
  0
SECTION
  2
TABLES
  0
TABLE
  2
VPORT
 70
     1
  0
VPORT
  2
*ACTIVE
 70
     0
 10
0.0
 20
0.0
 11
1.0
 21
1.0
 12
230.0451307159927978
 22
13.9503919820089308
 13
0.0
 23
0.0
 14
1.0
 24
1.0
 15
0.0
 25
0.0
 16
0.0
 26
0.0
 36
202.37134017897489
 17
4161.556396484375
 27
226.1108322143554972
 37
0.0
 40
21.8373791717387604
 41
2.5405405405405399
 42
50.0
 43
0.0
 44
0.0
 50
0.0
 51
0.0
 71
     0
 72
   100
 73
     1
 74
     1
 75
     0
 76
     0
 77
     0
 78
     0
  0
ENDTAB
  0
TABLE
  2
LTYPE
 70
     2
  0
LTYPE
  2
CONTINUOUS
 70
     0
  3
Solid line
 72
    65
 73
     0
 40
0.0
  0
LTYPE
  2
PHANTOM2
 70
     0
  3
___ _ _ ___ _ _ ___ _ _ ___ _ _
 72
    65
 73
     6
 40
1.25
 49
0.625
 49
-0.125
 49
0.125
 49
-0.125
 49
0.125
 49
-0.125
  0
ENDTAB
  0
TABLE
  2
LAYER
 70
     2
  0
LAYER
  2
0
 70
     0
 62
   255
  6
CONTINUOUS
  0
LAYER
  2
DEFPOINTS
 70
     0
 62
     7
  6
CONTINUOUS
  0
ENDTAB
  0
TABLE
  2
STYLE
 70
     1
  0
STYLE
  2
STANDARD
 70
     0
 40
0.0
 41
0.8
 50
0.0
 71
     0
 42
0.2
  3
txt
  4

  0
ENDTAB
  0
TABLE
  2
VIEW
 70
     1
  0
ENDTAB
  0
TABLE
  2
UCS
 70
     0
  0
ENDTAB
  0
TABLE
  2
APPID
 70
    10
  0
APPID
  2
ACAD
 70
     0
  0
APPID
  2
ACAD_MLEADERVER
 70
     0
  0
APPID
  2
ACAD_EXEMPT_FROM_CAD_STANDARDS
 70
     0
  0
APPID
  2
ACAD_NAV_VCDISPLAY
 70
     0
  0
APPID
  2
ACAECLAYERSTANDARD
 70
     0
  0
APPID
  2
ACCMTRANSPARENCY
 70
     0
  0
APPID
  2
ACAD_DSTYLE_DIMJAG
 70
     0
  0
APPID
  2
ACAD_DSTYLE_DIMTALN
 70
     0
  0
APPID
  2
ACDBATTR
 70
     0
  0
APPID
  2
DCO15
 70
     0
  0
ENDTAB
  0
TABLE
  2
DIMSTYLE
 70
     1
  0
DIMSTYLE
  2
STANDARD
 70
     0
  3

  4

  5

  6

  7

 40
1.0
 41
0.1875
 42
0.0625
 43
0.38
 44
0.125
 45
0.0
 46
0.0
 47
0.01
 48
0.01
140
0.15625
141
0.09
142
0.0
143
25.3999999999999986
144
1.0
145
0.0
146
1.0
147
0.09
 71
     1
 72
     0
 73
     1
 74
     1
 75
     0
 76
     0
 77
     0
 78
     4
170
     0
171
     2
172
     0
173
     0
174
     0
175
     0
176
     0
177
     0
178
     0
  0
ENDTAB
  0
ENDSEC
  0
SECTION
  2
BLOCKS
  0
BLOCK
  8
0
  2
$MODEL_SPACE
 70
     0
 10
0.0
 20
0.0
 30
0.0
  3
$MODEL_SPACE
  1

  0
ENDBLK
  5
21
  8
0
  0
BLOCK
 67
     1
  8
0
  2
$PAPER_SPACE
 70
     0
 10
0.0
 20
0.0
 30
0.0
  3
$PAPER_SPACE
  1

  0
ENDBLK
  5
1D
 67
     1
  8
0
  0
ENDSEC
  0
SECTION
  2
ENTITIES
  0
ATTDEF
  5
12CA7
  8
DEFPOINTS
 10
4391.6151444307752172
 20
231.1285988363198101
 30
0.0
 40
0.001
  1
K-24768T-S
  3

  2
MODELNUMBER
 70
     0
1001
ACDBATTR
1070
     0
1070
     1
  0
ATTDEF
  5
12CA8
  8
DEFPOINTS
 10
4391.6151444307752172
 20
231.1269321696530881
 30
0.0
 40
0.001
  1
REVE
  3

  2
TRADENAME
 70
     0
1001
ACDBATTR
1070
     0
1070
     1
  0
ATTDEF
  5
12CA9
  8
DEFPOINTS
 10
4391.6151444307752172
 20
231.1252655029863945
 30
0.0
 40
0.001
  1
TOILET
  3

  2
PRODUCT
 70
     0
1001
ACDBATTR
1070
     0
1070
     1
  0
LINE
  5
13904
  8
0
 10
4384.7493358330302726
 20
246.8776152562757034
 30
0.0
 11
4398.4809472796114278
 21
246.8776152562757034
 31
0.0
  0
LINE
  5
13905
  8
0
 10
4384.3527059753050708
 20
247.0744654942756995
 30
0.0
 11
4398.8775771373357202
 21
247.0744654942756995
 31
0.0
  0
ARC
  5
13906
  8
0
 10
4384.3529261470739584
 20
247.1136870163601884
 30
0.0
 40
0.0392221400517161
 50
177.2910726515719091
 51
269.6783709557449811
  0
LINE
  5
13907
  8
0
 10
4384.313747836858056
 20
247.1155407366258885
 30
0.0
 11
4384.3800522103701951
 21
248.5902280449757029
 31
0.0
  0
ARC
  5
13908
  8
0
 10
4384.616390014884928
 20
248.5853522847583861
 30
0.0
 40
0.2363880937790824
 50
92.8446451321321291
 51
178.8181287390823968
  0
ARC
  5
13909
  8
0
 10
4385.2438264818601965
 20
247.2713299840011132
 30
0.0
 40
0.3149746485348415
 50
218.7096620336093054
 51
269.998489472440383
  0
LINE
  5
1390A
  8
0
 10
4385.243818177970752
 20
246.9563553355756937
 30
0.0
 11
4385.7394176860034349
 21
246.9563553355756937
 31
0.0
  0
ARC
  5
1390B
  8
0
 10
4385.7269647307857667
 20
247.0929334795675061
 30
0.0
 40
0.0763536938544479
 50
193.9971810286338894
 51
207.6722632380607081
  0
ARC
  5
1390C
  8
0
 10
4385.9668926255535553
 20
247.2187503146294887
 30
0.0
 40
0.3472693092635515
 50
207.6722632380607081
 51
234.5312770975849901
  0
ARC
  5
1390D
  8
0
 10
4385.9489790503266704
 20
247.1957645819232141
 30
0.0
 40
0.3181569428135241
 50
234.7566974424497914
 51
269.6035261894662085
  0
ARC
  5
1390E
  8
0
 10
4386.5625965458566498
 20
247.1926629885118984
 30
0.0
 40
0.3098815782564814
 50
307.3634231002885144
 51
337.577838931394524
  0
ARC
  5
1390F
  8
0
 10
4386.5471633140459744
 20
247.2130256292167019
 30
0.0
 40
0.3354318055929442
 50
270.6477028064056753
 51
307.3478655273659115
  0
ARC
  5
13910
  8
0
 10
4385.9733921156830547
 20
247.1312319960048001
 30
0.0
 40
0.2672023851241221
 50
316.0419432206199986
 51
347.7341742699151155
  0
ARC
  5
13911
  8
0
 10
4386.0048021766679085
 20
247.1015911614940137
 30
0.0
 40
0.2240177560583485
 50
271.1075293918170814
 51
315.9228038608829934
  0
ARC
  5
13912
  8
0
 10
4384.7493358330302726
 20
246.6413947837584999
 30
0.0
 40
0.2362204725172395
 50
90.0000000143303254
 51
197.0006928407657938
  0
LINE
  5
13913
  8
0
 10
4384.5234379068697308
 20
246.5723278698756928
 30
0.0
 11
4385.9663596770706135
 21
241.8527434195756882
 31
0.0
  0
ARC
  5
13914
  8
0
 10
4382.5778782574188881
 20
240.8167806860298015
 30
0.0
 40
3.5433070875412911
 50
0.8274037439096861
 51
17.0000000001049614
  0
LINE
  5
13915
  8
0
 10
4386.1208158904701122
 20
240.8679475202756919
 30
0.0
 11
4386.2017557295703227
 21
235.2634420279757137
 31
0.0
  0
LINE
  5
13916
  8
0
 10
4397.0285273830695587
 20
235.2634420279757137
 30
0.0
 11
4386.2017557295703227
 21
235.2634420279757137
 31
0.0
  0
ARC
  5
13917
  8
0
 10
4385.2630997986234433
 20
244.7520667603455138
 30
0.0
 40
2.807817091154166
 50
50.8761792929743919
 51
55.6526840171835531
  0
ARC
  5
13918
  8
0
 10
4387.1891024025426304
 20
247.120000310530088
 30
0.0
 40
0.2444927437739847
 50
230.8761792929743137
 51
262.4712921019884106
  0
ARC
  5
13919
  8
0
 10
4387.5275963518415665
 20
246.8940108551169885
 30
0.0
 40
0.0166517394010376
 50
114.4214707820228938
 51
259.9375141656527717
  0
ARC
  5
1391A
  8
0
 10
4387.5840668420360089
 20
246.7547215791092015
 30
0.0
 40
0.16694019358758
 50
102.8877773612913984
 51
112.3031883825038051
  0
ARC
  5
1391B
  8
0
 10
4387.9006277262760705
 20
245.211480709385313
 30
0.0
 40
1.7422755804904431
 50
96.293033056970188
 51
101.7162627040257945
  0
ARC
  5
1391C
  8
0
 10
4389.1240739302893417
 20
234.9631121287141013
 30
0.0
 40
12.0633529299573308
 50
93.9687790558028837
 51
96.7333943316456413
  0
ARC
  5
1391D
  8
0
 10
4390.9958383406947178
 20
208.8954335931647108
 30
0.0
 40
38.1981211618928924
 50
92.8245116002743345
 51
94.063361661095513
  0
ARC
  5
1391E
  8
0
 10
4390.1053444634908374
 20
228.5410943533717898
 30
0.0
 40
18.5326130259685016
 50
90.5614176693773771
 51
93.0677250500791473
  0
ARC
  5
1391F
  8
0
 10
4390.1820608418020129
 20
236.7205403843462079
 30
0.0
 40
10.3554994189121796
 50
90.9990853592712057
 51
91.4293303679803842
  0
LINE
  5
13920
  8
0
 10
4384.6046585396707087
 20
248.8214490940756889
 30
0.0
 11
4385.062412989571385
 21
248.8433027375756978
 31
0.0
  0
ARC
  5
13921
  8
0
 10
4391.5743789437592568
 20
107.6260163325706998
 30
0.0
 40
141.367350120817207
 50
91.5830860281617163
 51
92.6402153069642651
  0
ARC
  5
13922
  8
0
 10
4386.5402201925462577
 20
235.1453317916617038
 30
0.0
 40
0.1181102363140579
 50
40.0792208822975908
 51
89.9999999877540944
  0
LINE
  5
13923
  8
0
 10
4385.5796836268136758
 20
243.1175037910581977
 30
0.0
 11
4385.5627412197709418
 21
243.112323977375695
 31
0.0
  0
LINE
  5
13924
  8
0
 10
4385.5627412197709418
 20
243.112323977375695
 30
0.0
 11
4385.8505086456698336
 21
242.1710791388757116
 31
0.0
  0
LINE
  5
13925
  8
0
 10
4385.8505086456698336
 20
242.1710791388757116
 30
0.0
 11
4385.867451052737124
 21
242.1762589524655027
 31
0.0
  0
ARC
  5
13926
  8
0
 10
4386.5217668740096997
 20
242.8909154593268056
 30
0.0
 40
0.9842519684278336
 50
166.9999999993285087
 51
227.0000000013430963
  0
ARC
  5
13927
  8
0
 10
4391.9814881111797149
 20
235.5494910729294133
 30
0.0
 40
2.5311541350940239
 50
186.4889337168442012
 51
194.6449713588559121
  0
ARC
  5
13928
  8
0
 10
4391.5468893943898365
 20
235.6041785762135987
 30
0.0
 40
2.130729418031009
 50
199.0266958012491898
 51
221.8831976263153933
  0
ARC
  5
13929
  8
0
 10
4391.4915426292118354
 20
235.5283363678030071
 30
0.0
 40
2.0389833933669852
 50
221.3348202535204052
 51
249.7973597104893031
  0
ARC
  5
1392A
  8
0
 10
4391.6151415563208502
 20
239.415667779083094
 30
0.0
 40
6.51443047550742
 50
220.079220883363007
 51
319.920779116636993
  0
ARC
  5
1392B
  8
0
 10
4398.8773569655668325
 20
247.1136870163601884
 30
0.0
 40
0.0392221400517161
 50
270.3216290442550189
 51
2.7089273484281171
  0
LINE
  5
1392C
  8
0
 10
4398.916535275782735
 20
247.1155407366258885
 30
0.0
 11
4398.8502309022705958
 21
248.5902280449757029
 31
0.0
  0
ARC
  5
1392D
  8
0
 10
4398.6138930977549535
 20
248.5853522847583861
 30
0.0
 40
0.2363880937790824
 50
1.181871260917593
 51
87.1553548678678709
  0
ARC
  5
1392E
  8
0
 10
4397.9864566307787754
 20
247.2713299840011132
 30
0.0
 40
0.3149746485348415
 50
270.001510527559617
 51
321.2903379663907231
  0
LINE
  5
1392F
  8
0
 10
4397.9864649346700389
 20
246.9563553355756937
 30
0.0
 11
4397.490865426639175
 21
246.9563553355756937
 31
0.0
  0
ARC
  5
13930
  8
0
 10
4397.5033183818532052
 20
247.0929334795675061
 30
0.0
 40
0.0763536938544479
 50
332.3277367619393203
 51
346.0028189713660822
  0
ARC
  5
13931
  8
0
 10
4397.2633904870872357
 20
247.2187503146294887
 30
0.0
 40
0.3472693092635515
 50
305.4687229024149815
 51
332.3277367619393203
  0
ARC
  5
13932
  8
0
 10
4397.281304062313211
 20
247.1957645819232141
 30
0.0
 40
0.3181569428135241
 50
270.3964738105339052
 51
305.2433025575501233
  0
ARC
  5
13933
  8
0
 10
4396.6676865667832317
 20
247.1926629885118984
 30
0.0
 40
0.3098815782564814
 50
202.4221610686055044
 51
232.636576899711514
  0
ARC
  5
13934
  8
0
 10
4396.683119798595726
 20
247.2130256292167019
 30
0.0
 40
0.3354318055929442
 50
232.6521344726340885
 51
269.3522971935943247
  0
ARC
  5
13935
  8
0
 10
4397.2568909969577362
 20
247.1312319960048001
 30
0.0
 40
0.2672023851241221
 50
192.2658257300849129
 51
223.9580567793800014
  0
ARC
  5
13936
  8
0
 10
4397.2254809359710634
 20
247.1015911614940137
 30
0.0
 40
0.2240177560583485
 50
224.0771961391168929
 51
268.8924706081829186
  0
ARC
  5
13937
  8
0
 10
4398.4809472796114278
 20
246.6413947837584999
 30
0.0
 40
0.2362204725172395
 50
342.9993071592340925
 51
89.9999999856696746
  0
LINE
  5
13938
  8
0
 10
4398.7068452057710601
 20
246.5723278698756928
 30
0.0
 11
4397.2639234355710869
 21
241.8527434195756882
 31
0.0
  0
ARC
  5
13939
  8
0
 10
4400.6524048552219028
 20
240.8167806860298015
 30
0.0
 40
3.5433070875412911
 50
162.9999999998950102
 51
179.1725962560902872
  0
LINE
  5
1393A
  8
0
 10
4397.1094672221706787
 20
240.8679475202756919
 30
0.0
 11
4397.0285273830695587
 21
235.2634420279757137
 31
0.0
  0
ARC
  5
1393B
  8
0
 10
4397.9671833140182571
 20
244.7520667603455138
 30
0.0
 40
2.807817091154166
 50
124.3473159828163972
 51
129.123820707025601
  0
ARC
  5
1393C
  8
0
 10
4396.041180710097251
 20
247.120000310530088
 30
0.0
 40
0.2444927437739847
 50
277.528707898011703
 51
309.1238207070255726
  0
ARC
  5
1393D
  8
0
 10
4395.7026867607992244
 20
246.8940108551169885
 30
0.0
 40
0.0166517394010376
 50
280.0624858343472283
 51
65.5785292179770636
  0
ARC
  5
1393E
  8
0
 10
4395.646216270604782
 20
246.7547215791092015
 30
0.0
 40
0.16694019358758
 50
67.6968116174961949
 51
77.11222263870863
  0
ARC
  5
1393F
  8
0
 10
4395.329655386363811
 20
245.211480709385313
 30
0.0
 40
1.7422755804904431
 50
78.2837372959741629
 51
83.7069669430298262
  0
ARC
  5
13940
  8
0
 10
4394.1062091823532683
 20
234.9631121287141013
 30
0.0
 40
12.0633529299573308
 50
83.2666056683543729
 51
86.0312209441971305
  0
ARC
  5
13941
  8
0
 10
4392.2344447719451637
 20
208.8954335931647108
 30
0.0
 40
38.1981211618928924
 50
85.9366383389045154
 51
87.1754883997256798
  0
ARC
  5
13942
  8
0
 10
4393.1249386491499536
 20
228.5410943533717898
 30
0.0
 40
18.5326130259685016
 50
86.9322749499208385
 51
89.4385823306226371
  0
ARC
  5
13943
  8
0
 10
4393.0482222708369591
 20
236.7205403843462079
 30
0.0
 40
10.3554994189121796
 50
88.5706696320196158
 51
89.0009146407288085
  0
LINE
  5
13944
  8
0
 10
4398.6256245729709917
 20
248.8214490940756889
 30
0.0
 11
4398.1678701230703155
 21
248.8433027375756978
 31
0.0
  0
ARC
  5
13945
  8
0
 10
4391.6559041688824436
 20
107.6260163325706998
 30
0.0
 40
141.367350120817207
 50
87.3597846930357349
 51
88.4169139718383121
  0
ARC
  5
13946
  8
0
 10
4396.6900629200963522
 20
235.1453317916617038
 30
0.0
 40
0.1181102363140579
 50
90.0000000122459056
 51
139.9207791177024092
  0
LINE
  5
13947
  8
0
 10
4397.6505994858271151
 20
243.1175037910581977
 30
0.0
 11
4397.6675418928707586
 21
243.112323977375695
 31
0.0
  0
LINE
  5
13948
  8
0
 10
4397.6675418928707586
 20
243.112323977375695
 30
0.0
 11
4397.3797744669709573
 21
242.1710791388757116
 31
0.0
  0
LINE
  5
13949
  8
0
 10
4397.3797744669709573
 20
242.1710791388757116
 30
0.0
 11
4397.3628320599027575
 21
242.1762589524655027
 31
0.0
  0
ARC
  5
1394A
  8
0
 10
4396.7085162386310913
 20
242.8909154593268056
 30
0.0
 40
0.9842519684278336
 50
312.99999999865679
 51
13.0000000006698695
  0
ARC
  5
1394B
  8
0
 10
4391.2487950014601665
 20
235.5494910729294133
 30
0.0
 40
2.5311541350940239
 50
345.35502864114261
 51
353.5110662831542072
  0
ARC
  5
1394C
  8
0
 10
4391.6833937182500449
 20
235.6041785762135987
 30
0.0
 40
2.130729418031009
 50
318.116802373684493
 51
340.9733041987507818
  0
ARC
  5
1394D
  8
0
 10
4391.7387404834289555
 20
235.5283363678030071
 30
0.0
 40
2.0389833933669852
 50
290.2026402895107253
 51
318.6651797464796232
  0
ARC
  5
1394E
  8
0
 10
4391.6151415563208502
 20
236.0180882819263957
 30
0.0
 40
2.5418436564266829
 50
250.9952068681421906
 51
289.0047931318579231
  0
ARC
  5
1394F
  8
0
 10
4391.6151415563208502
 20
105.5221057003355014
 30
0.0
 40
143.4715849025614034
 50
88.4238534193421941
 51
91.5761465806578059
  0
ENDSEC
  0
EOF
