  0
SECTION
  2
HEADER
  9
$ACADVER
  1
AC1009
  9
$INSBASE
 10
4454.8437248661030026
 20
272.761267912020287
 30
0.0
  9
$EXTMIN
 10
4447.9906972912740457
 20
268.1542233590008095
 30
-0.0000000349181948
  9
$EXTMAX
 10
4461.6060175953243743
 20
277.3588919186137787
 30
0.0000000814935746
  9
$LIMMIN
 10
0.0
 20
0.0
  9
$LIMMAX
 10
11.6929133858000007
 20
8.2677165353999982
  9
$ORTHOMODE
 70
     0
  9
$REGENMODE
 70
     1
  9
$FILLMODE
 70
     1
  9
$QTEXTMODE
 70
     0
  9
$MIRRTEXT
 70
     0
  9
$DRAGMODE
 70
     2
  9
$LTSCALE
 40
0.6431102362
  9
$OSMODE
 70
   575
  9
$ATTMODE
 70
     1
  9
$TEXTSIZE
 40
0.2
  9
$TRACEWID
 40
0.05
  9
$TEXTSTYLE
  7
STANDARD
  9
$CLAYER
  8
0
  9
$CELTYPE
  6
BYLAYER
  9
$CECOLOR
 62
   256
  9
$DIMSCALE
 40
1.0
  9
$DIMASZ
 40
0.1875
  9
$DIMEXO
 40
0.0625
  9
$DIMDLI
 40
0.4443307087
  9
$DIMRND
 40
0.0
  9
$DIMDLE
 40
0.0
  9
$DIMEXE
 40
0.125
  9
$DIMTP
 40
0.01
  9
$DIMTM
 40
0.01
  9
$DIMTXT
 40
2.0
  9
$DIMCEN
 40
0.1052362205
  9
$DIMTSZ
 40
0.0
  9
$DIMTOL
 70
     1
  9
$DIMLIM
 70
     0
  9
$DIMTIH
 70
     1
  9
$DIMTOH
 70
     1
  9
$DIMSE1
 70
     0
  9
$DIMSE2
 70
     0
  9
$DIMTAD
 70
     0
  9
$DIMZIN
 70
     0
  9
$DIMBLK
  1

  9
$DIMASO
 70
     1
  9
$DIMSHO
 70
     1
  9
$DIMPOST
  1
\X
  9
$DIMAPOST
  1

  9
$DIMALT
 70
     1
  9
$DIMALTD
 70
     2
  9
$DIMALTF
 40
25.3999999999999986
  9
$DIMLFAC
 40
1.0
  9
$DIMTOFL
 70
     0
  9
$DIMTVP
 40
0.0
  9
$DIMTIX
 70
     0
  9
$DIMSOXD
 70
     0
  9
$DIMSAH
 70
     0
  9
$DIMBLK1
  1

  9
$DIMBLK2
  1

  9
$DIMSTYLE
  2
STANDARD
  9
$DIMCLRD
 70
     0
  9
$DIMCLRE
 70
     0
  9
$DIMCLRT
 70
     0
  9
$DIMTFAC
 40
1.0
  9
$DIMGAP
 40
0.09
  9
$LUNITS
 70
     2
  9
$LUPREC
 70
     4
  9
$SKETCHINC
 40
0.1
  9
$FILLETRAD
 40
0.0
  9
$AUNITS
 70
     0
  9
$AUPREC
 70
     0
  9
$MENU
  1
.
  9
$ELEVATION
 40
0.0
  9
$PELEVATION
 40
0.0
  9
$THICKNESS
 40
0.0
  9
$LIMCHECK
 70
     0
  9
$BLIPMODE
 70
     0
  9
$CHAMFERA
 40
0.0
  9
$CHAMFERB
 40
0.0
  9
$SKPOLY
 70
     0
  9
$TDCREATE
 40
2458060.468368056230247
  9
$TDUPDATE
 40
2459391.506840277928859
  9
$TDINDWG
 40
0.5350302083
  9
$TDUSRTIMER
 40
0.5350302083
  9
$USRTIMER
 70
     1
  9
$ANGBASE
 50
0.0
  9
$ANGDIR
 70
     0
  9
$PDMODE
 70
     0
  9
$PDSIZE
 40
0.3125
  9
$PLINEWID
 40
0.0
  9
$COORDS
 70
     2
  9
$SPLFRAME
 70
     0
  9
$SPLINETYPE
 70
     6
  9
$SPLINESEGS
 70
     8
  9
$ATTDIA
 70
     1
  9
$ATTREQ
 70
     1
  9
$HANDLING
 70
     1
  9
$HANDSEED
  5
2118F
  9
$SURFTAB1
 70
     6
  9
$SURFTAB2
 70
     6
  9
$SURFTYPE
 70
     6
  9
$SURFU
 70
     6
  9
$SURFV
 70
     6
  9
$UCSNAME
  2

  9
$UCSORG
 10
0.0
 20
0.0
 30
0.0
  9
$UCSXDIR
 10
1.0
 20
0.0
 30
0.0
  9
$UCSYDIR
 10
0.0
 20
1.0
 30
0.0
  9
$PUCSNAME
  2

  9
$PUCSORG
 10
0.0
 20
0.0
 30
0.0
  9
$PUCSXDIR
 10
1.0
 20
0.0
 30
0.0
  9
$PUCSYDIR
 10
0.0
 20
1.0
 30
0.0
  9
$USERI1
 70
     0
  9
$USERI2
 70
     0
  9
$USERI3
 70
     0
  9
$USERI4
 70
     0
  9
$USERI5
 70
     0
  9
$USERR1
 40
0.0
  9
$USERR2
 40
0.0
  9
$USERR3
 40
0.0
  9
$USERR4
 40
0.0
  9
$USERR5
 40
0.0
  9
$WORLDVIEW
 70
     1
  9
$SHADEDGE
 70
     3
  9
$SHADEDIF
 70
    70
  9
$TILEMODE
 70
     1
  9
$MAXACTVP
 70
    64
  9
$PLIMCHECK
 70
     0
  9
$PEXTMIN
 10
1.0000000000000000E+20
 20
1.0000000000000000E+20
 30
1.0000000000000000E+20
  9
$PEXTMAX
 10
-1.0000000000000000E+20
 20
-1.0000000000000000E+20
 30
-1.0000000000000000E+20
  9
$PLIMMIN
 10
0.0
 20
0.0
  9
$PLIMMAX
 10
12.0
 20
9.0
  9
$UNITMODE
 70
     0
  9
$VISRETAIN
 70
     1
  9
$PLINEGEN
 70
     0
  9
$PSLTSCALE
 70
     1
  0
ENDSEC
  0
SECTION
  2
TABLES
  0
TABLE
  2
VPORT
 70
     1
  0
VPORT
  2
*ACTIVE
 70
     0
 10
0.0
 20
0.0
 11
1.0
 21
1.0
 12
543.4330009749448891
 22
140.1769525276268951
 13
0.0
 23
0.0
 14
1.0
 24
1.0
 15
0.0
 25
0.0
 16
0.0
 26
0.0
 36
60.4960186965801583
 17
3911.3653564453120453
 27
132.5796051025390057
 37
0.0
 40
13.5644124764537892
 41
2.4929797191887668
 42
50.0
 43
0.0
 44
0.0
 50
0.0
 51
0.0
 71
     0
 72
   100
 73
     1
 74
     1
 75
     0
 76
     0
 77
     0
 78
     0
  0
ENDTAB
  0
TABLE
  2
LTYPE
 70
     2
  0
LTYPE
  2
CONTINUOUS
 70
     0
  3
Solid line
 72
    65
 73
     0
 40
0.0
  0
LTYPE
  2
PHANTOM2
 70
     0
  3
___ _ _ ___ _ _ ___ _ _ ___ _ _
 72
    65
 73
     6
 40
1.25
 49
0.625
 49
-0.125
 49
0.125
 49
-0.125
 49
0.125
 49
-0.125
  0
ENDTAB
  0
TABLE
  2
LAYER
 70
     2
  0
LAYER
  2
0
 70
     0
 62
   255
  6
CONTINUOUS
  0
LAYER
  2
DEFPOINTS
 70
     0
 62
     7
  6
CONTINUOUS
  0
ENDTAB
  0
TABLE
  2
STYLE
 70
     1
  0
STYLE
  2
STANDARD
 70
     0
 40
0.0
 41
0.8
 50
0.0
 71
     0
 42
0.2
  3
txt
  4

  0
ENDTAB
  0
TABLE
  2
VIEW
 70
     1
  0
ENDTAB
  0
TABLE
  2
UCS
 70
     0
  0
ENDTAB
  0
TABLE
  2
APPID
 70
    11
  0
APPID
  2
ACAD
 70
     0
  0
APPID
  2
ACAD_MLEADERVER
 70
     0
  0
APPID
  2
ACAD_EXEMPT_FROM_CAD_STANDARDS
 70
     0
  0
APPID
  2
ACAD_NAV_VCDISPLAY
 70
     0
  0
APPID
  2
ACAECLAYERSTANDARD
 70
     0
  0
APPID
  2
ACCMTRANSPARENCY
 70
     0
  0
APPID
  2
ACAD_DSTYLE_DIMJAG
 70
     0
  0
APPID
  2
ACAD_DSTYLE_DIMTALN
 70
     0
  0
APPID
  2
ACDBATTR
 70
     0
  0
APPID
  2
ACADANNOTATIVE
 70
     0
  0
APPID
  2
DCO15
 70
     0
  0
ENDTAB
  0
TABLE
  2
DIMSTYLE
 70
     1
  0
DIMSTYLE
  2
STANDARD
 70
     0
  3

  4

  5

  6

  7

 40
1.0
 41
0.1875
 42
0.0625
 43
0.38
 44
0.125
 45
0.0
 46
0.0
 47
0.01
 48
0.01
140
0.15625
141
0.09
142
0.0
143
25.3999999999999986
144
1.0
145
0.0
146
1.0
147
0.09
 71
     1
 72
     0
 73
     1
 74
     1
 75
     0
 76
     0
 77
     0
 78
     4
170
     0
171
     2
172
     0
173
     0
174
     0
175
     0
176
     0
177
     0
178
     0
  0
ENDTAB
  0
ENDSEC
  0
SECTION
  2
BLOCKS
  0
BLOCK
  8
0
  2
$MODEL_SPACE
 70
     0
 10
0.0
 20
0.0
 30
0.0
  3
$MODEL_SPACE
  1

  0
ENDBLK
  5
21
  8
0
  0
BLOCK
 67
     1
  8
0
  2
$PAPER_SPACE
 70
     0
 10
0.0
 20
0.0
 30
0.0
  3
$PAPER_SPACE
  1

  0
ENDBLK
  5
1D
 67
     1
  8
0
  0
BLOCK
  8
0
  2
_FILLED
 70
     0
 10
0.0
 20
0.0
 30
0.0
  3
_FILLED
  1

  0
SOLID
  5
20E53
  8
0
  6
BYBLOCK
 62
     0
 10
0.0
 20
0.0
 30
0.0
 11
-1.0
 21
0.1666666667
 31
0.0
 12
-1.0
 22
-0.1666666667
 32
0.0
 13
-1.0
 23
-0.1666666667
 33
0.0
  0
ENDBLK
  5
20E54
  8
0
  6
BYBLOCK
 62
     0
  0
ENDSEC
  0
SECTION
  2
ENTITIES
  0
ATTDEF
  5
20106
  8
DEFPOINTS
 10
4454.8436513159640526
 20
272.7645693103623898
 30
0.0
 40
0.001
  1
K-24470IN
  3

  2
MODELNUMBER
 70
     0
1001
ACDBATTR
1070
     0
1070
     1
  0
ATTDEF
  5
20107
  8
DEFPOINTS
 10
4454.8435255063068325
 20
272.7629024699833167
 30
0.0
 40
0.001
  1
BEITOU
  3

  2
TRADENAME
 70
     0
1001
ACDBATTR
1070
     0
1070
     1
  0
ATTDEF
  5
20108
  8
DEFPOINTS
 10
4454.8436513159640526
 20
272.7612359770291164
 30
0.0
 40
0.001
  1
SHOWERHEAD 
  3

  2
PRODUCT
 70
     0
1001
ACDBATTR
1070
     0
1070
     1
  0
LINE
  5
2100E
  8
0
 10
4449.2455790229532795
 20
277.2277764974638217
 30
0.0
 11
4449.240069371352547
 21
277.2222668458638282
 31
0.0
  0
LINE
  5
2100F
  8
0
 10
4449.2458320382502279
 20
268.294843588320191
 30
0.0
 11
4449.2403224212503119
 21
268.300353205420322
 31
0.0
  0
LINE
  5
21010
  8
0
 10
4448.3749361783520726
 20
268.3322303108637925
 30
0.0
 11
4448.3749361783520726
 21
277.1904740368638045
 31
0.0
  0
LINE
  5
21011
  8
0
 10
4448.3773612152526766
 20
277.1804732293638267
 30
0.0
 11
4448.3773612152526766
 21
268.3422311183638271
 31
0.0
  0
LINE
  5
21012
  8
0
 10
4449.2458320382502279
 20
268.294843588320191
 30
0.0
 11
4449.2458320382502279
 21
268.3028625386638168
 31
0.0
  0
LINE
  5
21013
  8
0
 10
4449.2455790229532795
 20
277.2198418089637926
 30
0.0
 11
4449.2455790229532795
 21
277.2277764974638217
 31
0.0
  0
LINE
  5
21014
  8
0
 10
4449.3395085045531232
 20
277.2277764974638217
 30
0.0
 11
4449.3395085045531232
 21
277.2198418089637926
 31
0.0
  0
LINE
  5
21015
  8
0
 10
4449.3397615198500716
 20
268.3028625386638168
 30
0.0
 11
4449.3397615198500716
 21
268.294843588320191
 31
0.0
  0
LINE
  5
21016
  8
0
 10
4448.3285674577500686
 20
268.1750003410202794
 30
0.0
 11
4461.3593883050507429
 21
268.1750003410202794
 31
0.0
  0
LINE
  5
21017
  8
0
 10
4460.4418707092527256
 20
268.2949278501637878
 30
0.0
 11
4460.3479412276537914
 21
268.2949278501637878
 31
0.0
  0
LINE
  5
21018
  8
0
 10
4449.3397615198500716
 20
268.294843588320191
 30
0.0
 11
4449.2458320382502279
 21
268.294843588320191
 31
0.0
  0
LINE
  5
21019
  8
0
 10
4455.3665295309529029
 20
268.2969894719637978
 30
0.0
 11
4455.462652484753562
 21
268.2969894719637978
 31
0.0
  0
LINE
  5
2101A
  8
0
 10
4455.1646871238526728
 20
268.2990510938637954
 30
0.0
 11
4455.2471720571529659
 21
268.2990510938637954
 31
0.0
  0
LINE
  5
2101B
  8
0
 10
4461.2807207448531699
 20
268.3004375018638257
 30
0.0
 11
4460.447380360952593
 21
268.3004375018638257
 31
0.0
  0
LINE
  5
2101C
  8
0
 10
4460.3424316073251248
 20
268.3004375018638257
 30
0.0
 11
4455.4649563846533056
 21
268.3004375018638257
 31
0.0
  0
LINE
  5
2101D
  8
0
 10
4455.3642256310531593
 20
268.3004375018638257
 30
0.0
 11
4455.2485584651531099
 21
268.3004375018638257
 31
0.0
  0
LINE
  5
2101E
  8
0
 10
4455.1633007121527044
 20
268.3004375018638257
 30
0.0
 11
4449.3452792429534384
 21
268.3004375018638257
 31
0.0
  0
LINE
  5
2101F
  8
0
 10
4449.2403224179233803
 20
268.3003532400202857
 30
0.0
 11
4448.4069820026506932
 21
268.3003532400202857
 31
0.0
  0
LINE
  5
21020
  8
0
 10
4448.4167297948533815
 20
268.3028625386638168
 30
0.0
 11
4461.2707199373544427
 21
268.3028625386638168
 31
0.0
  0
LINE
  5
21021
  8
0
 10
4451.6921282882531159
 20
270.475849361863709
 30
0.0
 11
4451.6921282882531159
 21
275.0468549857637868
 31
0.0
  0
LINE
  5
21022
  8
0
 10
4454.4402776750530393
 20
277.2236532538638016
 30
0.0
 11
4454.4388912670538048
 21
277.2222668458638282
 31
0.0
  0
LINE
  5
21023
  8
0
 10
4455.1633007121527044
 20
268.3004375018638257
 30
0.0
 11
4455.1646871238526728
 21
268.2990510938637954
 31
0.0
  0
LINE
  5
21024
  8
0
 10
4457.9166296472112663
 20
270.3971567764061206
 30
0.0
 11
4451.770820479352551
 21
270.3971571707638191
 31
0.0
  0
LINE
  5
21025
  8
0
 10
4455.3642256310531593
 20
268.3004375018638257
 30
0.0
 11
4455.3665295309529029
 21
268.2969894719637978
 31
0.0
  0
LINE
  5
21026
  8
0
 10
4453.969709118053288
 20
273.1235568982638142
 30
0.0
 11
4453.969709118053288
 21
272.3991474494637828
 31
0.0
  0
LINE
  5
21027
  8
0
 10
4453.9736461259535645
 20
272.4424545359636909
 30
0.0
 11
4453.9736461259535645
 21
273.0802498116636912
 31
0.0
  0
LINE
  5
21028
  8
0
 10
4454.1744335275543563
 20
272.7613521738638269
 30
0.0
 11
4454.1744335275543563
 21
272.9417792786297809
 31
0.0
  0
LINE
  5
21029
  8
0
 10
4449.3397615198500716
 20
268.294843588320191
 30
0.0
 11
4449.3452711368490782
 21
268.3003532053202775
 31
0.0
  0
LINE
  5
2102A
  8
0
 10
4449.3395085045531232
 20
277.2277764974638217
 30
0.0
 11
4449.3450181248808804
 21
277.2222668458638282
 31
0.0
  0
LINE
  5
2102B
  8
0
 10
4453.969709118053288
 20
272.3991474494637828
 30
0.0
 11
4455.7177406141527172
 21
272.3991474494637828
 31
0.0
  0
LINE
  5
2102C
  8
0
 10
4455.6744335276525817
 20
272.4030844573637751
 30
0.0
 11
4454.0130162046543774
 21
272.4030844572637875
 31
0.0
  0
LINE
  5
2102D
  8
0
 10
4454.0130162045534234
 20
273.1196198903638219
 30
0.0
 11
4455.6744335275534468
 21
273.1196198903638219
 31
0.0
  0
LINE
  5
2102E
  8
0
 10
4455.7177406141527172
 20
273.1235568982638142
 30
0.0
 11
4453.969709118053288
 21
273.1235568982638142
 31
0.0
  0
LINE
  5
2102F
  8
0
 10
4455.7138036062533502
 20
273.0802498117637924
 30
0.0
 11
4455.7138036062533502
 21
272.4424545360637921
 31
0.0
  0
LINE
  5
21030
  8
0
 10
4455.7177406141527172
 20
272.3991474494637828
 30
0.0
 11
4455.7177406141527172
 21
273.1235568982638142
 31
0.0
  0
LINE
  5
21031
  8
0
 10
4460.347941227555566
 20
277.2277764974638217
 30
0.0
 11
4460.3424315759566525
 21
277.2222668458638282
 31
0.0
  0
LINE
  5
21032
  8
0
 10
4460.3479412276537914
 20
268.2949278501637878
 30
0.0
 11
4460.3424316073251248
 21
268.3004375018638257
 31
0.0
  0
LINE
  5
21033
  8
0
 10
4451.7708204792561446
 20
275.1255471769637779
 30
0.0
 11
4457.9166292527570477
 21
275.1255471769637779
 31
0.0
  0
LINE
  5
21034
  8
0
 10
4457.9953214439537987
 20
275.0468549857637868
 30
0.0
 11
4457.9953214439537987
 21
270.475849361863709
 31
0.0
  0
LINE
  5
21035
  8
0
 10
4455.462652484753562
 20
268.2969894719637978
 30
0.0
 11
4455.4649563846533056
 21
268.3004375018638257
 31
0.0
  0
LINE
  5
21036
  8
0
 10
4454.5241490163525668
 20
277.2222668458638282
 30
0.0
 11
4454.5227626083542418
 21
277.2236532538638016
 31
0.0
  0
LINE
  5
21037
  8
0
 10
4455.2471720571529659
 20
268.2990510938637954
 30
0.0
 11
4455.2485584651531099
 21
268.3004375018638257
 31
0.0
  0
LINE
  5
21038
  8
0
 10
4461.2707199373544427
 20
277.2198418089637926
 30
0.0
 11
4448.4167297948533815
 21
277.2198418089637926
 31
0.0
  0
LINE
  5
21039
  8
0
 10
4448.4067289873528352
 20
277.2222668458638282
 30
0.0
 11
4449.240069371352547
 21
277.2222668458638282
 31
0.0
  0
LINE
  5
2103A
  8
0
 10
4449.3450181248808804
 20
277.2222668458638282
 30
0.0
 11
4454.4388912670538048
 21
277.2222668458638282
 31
0.0
  0
LINE
  5
2103B
  8
0
 10
4454.5241490163525668
 20
277.2222668458638282
 30
0.0
 11
4460.342431576053059
 21
277.2222668458638282
 31
0.0
  0
LINE
  5
2103C
  8
0
 10
4454.5227626083542418
 20
277.2236532538638016
 30
0.0
 11
4454.4402776750530393
 21
277.2236532538638016
 31
0.0
  0
LINE
  5
2103D
  8
0
 10
4460.4418707091563192
 20
277.2277764974638217
 30
0.0
 11
4460.347941227555566
 21
277.2277764974638217
 31
0.0
  0
LINE
  5
2103E
  8
0
 10
4449.3395085045531232
 20
277.2277764974638217
 30
0.0
 11
4449.2455790229532795
 21
277.2277764974638217
 31
0.0
  0
LINE
  5
2103F
  8
0
 10
4460.3479412276537914
 20
268.2949278501637878
 30
0.0
 11
4460.3479412276537914
 21
268.3028625386638168
 31
0.0
  0
LINE
  5
21040
  8
0
 10
4460.347941227555566
 20
277.2198418089637926
 30
0.0
 11
4460.347941227555566
 21
277.2277764974638217
 31
0.0
  0
LINE
  5
21041
  8
0
 10
4460.4418707091563192
 20
277.2277764974638217
 30
0.0
 11
4460.4418707091563192
 21
277.2198418089637926
 31
0.0
  0
LINE
  5
21042
  8
0
 10
4460.4418707092527256
 20
268.3028625386638168
 30
0.0
 11
4460.4418707092527256
 21
268.2949278501637878
 31
0.0
  0
LINE
  5
21043
  8
0
 10
4461.3100885169533285
 20
268.3422311183638271
 30
0.0
 11
4461.3100885169533285
 21
277.1804732293638267
 31
0.0
  0
LINE
  5
21044
  8
0
 10
4460.4418707092527256
 20
268.2949278501637878
 30
0.0
 11
4460.447380360952593
 21
268.3004375018638257
 31
0.0
  0
LINE
  5
21045
  8
0
 10
4460.4418707091563192
 20
277.2277764974638217
 30
0.0
 11
4460.4473803261562352
 21
277.2222668804637919
 31
0.0
  0
CIRCLE
  5
21046
  8
0
 10
4448.6825605585499943
 20
268.6077246049202927
 30
0.0
 40
0.1161417323
  0
ARC
  5
21047
  8
0
 10
4451.7709014592746826
 20
270.4759303417854994
 30
0.0
 40
0.0787732126459893
 50
180.0589008420895993
 51
269.9410991579072174
  0
ARC
  5
21048
  8
0
 10
4448.3287435526226545
 20
268.2541611719917114
 30
0.0
 40
0.0791610268344849
 50
180.2500014367716972
 51
269.8725445875012952
  0
CIRCLE
  5
21049
  8
0
 10
4448.6825605585499943
 20
268.6077246049202927
 30
0.0
 40
0.0688976378
  0
ARC
  5
2104A
  8
0
 10
4448.4170254502569151
 20
268.3425267736665205
 30
0.0
 40
0.039665336888363
 50
180.4270720792065106
 51
269.5729277752781741
  0
ARC
  5
2104B
  8
0
 10
4454.0996303779520531
 20
272.4148954809638212
 30
0.0
 40
0.0393700787
 50
197.457603256546804
 51
203.5781785100132026
  0
ARC
  5
2104C
  8
0
 10
4454.6960870708526272
 20
272.4148954809638212
 30
0.0
 40
0.0393700787
 50
336.4218214899868258
 51
342.5423968051193242
  0
ARC
  5
2104D
  8
0
 10
4454.0130162046543774
 20
272.4424545360637921
 30
0.0
 40
0.0393700787
 50
180.0
 51
269.9999999978114147
  0
ARC
  5
2104E
  8
0
 10
4448.3281690981375505
 20
277.2689506493944123
 30
0.0
 40
0.0785858432949833
 50
90.2904393617342436
 51
179.9547474000951865
  0
ARC
  5
2104F
  8
0
 10
4448.4167348697483249
 20
277.1804681544675759
 30
0.0
 40
0.0393736548231883
 50
90.0073848905245342
 51
179.9926151094688862
  0
CIRCLE
  5
21050
  8
0
 10
4454.4106539999529559
 20
272.7613521738638269
 30
0.0
 40
0.3169291339
  0
CIRCLE
  5
21051
  8
0
 10
4454.4106539999529559
 20
272.7613521738638269
 30
0.0
 40
0.2972440945
  0
ARC
  5
21052
  8
0
 10
4454.4106539999529559
 20
272.7613521738638269
 30
0.0
 40
0.2854330709
 50
34.1484243338631615
 51
145.8515756303850139
  0
ARC
  5
21053
  8
0
 10
4454.4106539999529559
 20
272.7613521738638269
 30
0.0
 40
0.2362204724
 50
180.0
 51
0.0
  0
ARC
  5
21054
  8
0
 10
4454.0130162046543774
 20
273.0802498116636912
 30
0.0
 40
0.0393700787
 50
90.0
 51
179.9999999843994942
  0
ARC
  5
21055
  8
0
 10
4451.7709014592746826
 20
275.0467740059420976
 30
0.0
 40
0.0787732126459939
 50
90.0589009125458801
 51
179.9410992307149115
  0
ARC
  5
21056
  8
0
 10
4454.5241549320862759
 20
277.2025829217972728
 30
0.0
 40
0.0196839249553629
 50
90.0172194581701461
 51
118.7411421131484985
  0
ARC
  5
21057
  8
0
 10
4454.4388854895541954
 20
277.202583798563694
 30
0.0
 40
0.0196830482
 50
61.258203940025588
 51
89.9831822022232615
  0
ARC
  5
21058
  8
0
 10
4455.6744335275534468
 20
272.4424545360637921
 30
0.0
 40
0.0393700787
 50
270.0
 51
359.9999999843994942
  0
ARC
  5
21059
  8
0
 10
4461.3586735822564151
 20
268.2551246490930907
 30
0.0
 40
0.0801274957354507
 50
270.5110747860949232
 51
351.2403123185396794
  0
ARC
  5
2105A
  8
0
 10
4461.2707148625277114
 20
268.3422361930892066
 30
0.0
 40
0.0393736547524216
 50
270.0073847876068953
 51
359.992615357936927
  0
ARC
  5
2105B
  8
0
 10
4455.6744335275534468
 20
273.0802498116636912
 30
0.0
 40
0.0393700787
 50
0.0
 51
89.999999984314826
  0
ARC
  5
2105C
  8
0
 10
4457.9165481313893906
 20
275.0467738643997109
 30
0.0
 40
0.078773354333773
 50
0.0590036142380024
 51
89.940996383443121
  0
ARC
  5
2105D
  8
0
 10
4461.3593914928305821
 20
277.2688075077983854
 30
0.0
 40
0.0787279752864502
 50
4.5947599867727931
 51
90.0
  0
ARC
  5
2105E
  8
0
 10
4461.2707148625331683
 20
277.1804681545439166
 30
0.0
 40
0.0393736547469514
 50
0.0073847796210011
 51
89.9926152203659768
  0
LINE
  5
2105F
  8
0
 10
4460.447380360952593
 20
268.3004375018638257
 30
0.0
 11
4460.4476135232107481
 21
268.3028625386638168
 31
0.0
  0
LINE
  5
21060
  8
0
 10
4460.4473803261562352
 20
277.2222668804637919
 30
0.0
 11
4460.4476135706936475
 21
277.2198418089637926
 31
0.0
  0
LINE
  5
21061
  8
0
 10
4460.342431576053059
 20
277.2222668458638282
 30
0.0
 11
4460.3421984135848106
 21
277.2198418089637926
 31
0.0
  0
LINE
  5
21062
  8
0
 10
4454.5241490163525668
 20
277.2222668458638282
 30
0.0
 11
4454.5242655843885586
 21
277.2198418089637926
 31
0.0
  0
LINE
  5
21063
  8
0
 10
4454.4387747043319905
 20
277.2198418089637926
 30
0.0
 11
4454.4388912670538048
 21
277.2222668458638282
 31
0.0
  0
LINE
  5
21064
  8
0
 10
4449.3450181248808804
 20
277.2222668458638282
 30
0.0
 11
4449.3452513659840406
 21
277.2198418089637926
 31
0.0
  0
LINE
  5
21065
  8
0
 10
4449.240069371352547
 20
277.2222668458638282
 30
0.0
 11
4449.239836206858854
 21
277.2198418089637926
 31
0.0
  0
LINE
  5
21066
  8
0
 10
4449.2403224212503119
 20
268.300353205420322
 30
0.0
 11
4449.2400810724893745
 21
268.3028625386638168
 31
0.0
  0
LINE
  5
21067
  8
0
 10
4460.3424316073251248
 20
268.3004375018638257
 30
0.0
 11
4460.3421983662328785
 21
268.3028625386638168
 31
0.0
  0
LINE
  5
21068
  8
0
 10
4455.4644290619989988
 20
268.3028625386638168
 30
0.0
 11
4455.4649563846533056
 21
268.3004375018638257
 31
0.0
  0
LINE
  5
21069
  8
0
 10
4455.3642256310531593
 20
268.3004375018638257
 30
0.0
 11
4455.3647524551743118
 21
268.3028625386638168
 31
0.0
  0
LINE
  5
2106A
  8
0
 10
4455.2486750278758336
 20
268.3028625386638168
 30
0.0
 11
4455.2485584651531099
 21
268.3004375018638257
 31
0.0
  0
LINE
  5
2106B
  8
0
 10
4455.1633007121527044
 20
268.3004375018638257
 30
0.0
 11
4455.1631841484022516
 21
268.3028625386638168
 31
0.0
  0
LINE
  5
2106C
  8
0
 10
4449.3452711368490782
 20
268.3003532053202775
 30
0.0
 11
4449.3455124387091928
 21
268.3028625386638168
 31
0.0
  0
CIRCLE
  5
2106D
  8
0
 10
4448.6823075432530459
 20
272.7613521738638269
 30
0.0
 40
0.1161417323
  0
CIRCLE
  5
2106E
  8
0
 10
4448.6823075432530459
 20
272.7613521738638269
 30
0.0
 40
0.0688976378
  0
CIRCLE
  5
2106F
  8
0
 10
4448.6823075432530459
 20
276.9148954809637075
 30
0.0
 40
0.1161417323
  0
CIRCLE
  5
21070
  8
0
 10
4448.6823075432530459
 20
276.9148954809637075
 30
0.0
 40
0.0688976378
  0
CIRCLE
  5
21071
  8
0
 10
4454.4815201416531636
 20
277.0133206777637724
 30
0.0
 40
0.1161417323
  0
CIRCLE
  5
21072
  8
0
 10
4454.4815201416531636
 20
277.0133206777637724
 30
0.0
 40
0.0688976378
  0
CIRCLE
  5
21073
  8
0
 10
4461.0051421888556433
 20
276.9148954809637075
 30
0.0
 40
0.1161417323
  0
CIRCLE
  5
21074
  8
0
 10
4461.0051421888556433
 20
276.9148954809637075
 30
0.0
 40
0.0688976378
  0
CIRCLE
  5
21075
  8
0
 10
4461.0051421889529593
 20
272.7613521738638269
 30
0.0
 40
0.1161417323
  0
CIRCLE
  5
21076
  8
0
 10
4461.0051421889529593
 20
272.7613521738638269
 30
0.0
 40
0.0688976378
  0
CIRCLE
  5
21077
  8
0
 10
4461.0051421889529593
 20
268.6078088667637758
 30
0.0
 40
0.1161417323
  0
CIRCLE
  5
21078
  8
0
 10
4461.0051421889529593
 20
268.6078088667637758
 30
0.0
 40
0.0688976378
  0
CIRCLE
  5
21079
  8
0
 10
4455.205929590553751
 20
268.5093836698637801
 30
0.0
 40
0.1161417323
  0
CIRCLE
  5
2107A
  8
0
 10
4455.205929590553751
 20
268.5093836698637801
 30
0.0
 40
0.0688976378
  0
LINE
  5
2107B
  8
0
 10
4461.312513553853023
 20
268.3322303108637925
 30
0.0
 11
4461.312513553853023
 21
277.1904740368638045
 31
0.0
  0
ARC
  5
2107C
  8
0
 10
4461.2796208084218961
 20
277.1893741005301877
 30
0.0
 40
0.0329111311795576
 50
1.9152622754473509
 51
88.0847377245363816
  0
LINE
  5
2107D
  8
0
 10
4460.4473803261562352
 20
277.2222668804637919
 30
0.0
 11
4461.280720744755854
 21
277.2222668458638282
 31
0.0
  0
LINE
  5
2107E
  8
0
 10
4454.646874472453419
 20
272.7613521738638269
 30
0.0
 11
4454.646874472453419
 21
272.9417792784989274
 31
0.0
  0
CIRCLE
  5
2107F
  8
0
 10
4452.1271894330529904
 20
270.8322183155638072
 30
0.0
 40
0.1161417323
  0
CIRCLE
  5
21080
  8
0
 10
4452.1271894330529904
 20
270.8322183155638072
 30
0.0
 40
0.0688976378
  0
CIRCLE
  5
21081
  8
0
 10
4452.1271894330529904
 20
274.6904860320638022
 30
0.0
 40
0.1161417323
  0
CIRCLE
  5
21082
  8
0
 10
4452.1271894330529904
 20
274.6904860320638022
 30
0.0
 40
0.0688976378
  0
CIRCLE
  5
21083
  8
0
 10
4457.5602602990556989
 20
274.6904860320638022
 30
0.0
 40
0.1161417323
  0
CIRCLE
  5
21084
  8
0
 10
4457.5602602990556989
 20
274.6904860320638022
 30
0.0
 40
0.0688976378
  0
CIRCLE
  5
21085
  8
0
 10
4457.5602602991521053
 20
270.8322183155638072
 30
0.0
 40
0.1161417323
  0
CIRCLE
  5
21086
  8
0
 10
4457.5602602991521053
 20
270.8322183155638072
 30
0.0
 40
0.0688976378
  0
ARC
  5
21087
  8
0
 10
4448.4078289236867931
 20
277.1893741005301877
 30
0.0
 40
0.0329111311795461
 50
91.9152622754115498
 51
178.0847377245590906
  0
ARC
  5
21088
  8
0
 10
4461.2796208085201215
 20
268.3333302471972956
 30
0.0
 40
0.0329111311795773
 50
271.91526227546359
 51
358.084737724520096
  0
ARC
  5
21089
  8
0
 10
4448.4082467611488028
 20
268.3336709649793761
 30
0.0
 40
0.0333417217689089
 50
182.4764499998177882
 51
267.8260656538241733
  0
ARC
  5
2108A
  8
0
 10
4457.916547520387212
 20
270.47593069915348
 30
0.0
 40
0.0787739655585521
 50
270.0597344722555135
 51
359.9408397912699229
  0
LINE
  5
2108B
  8
0
 10
4455.5130162047526028
 20
272.7613521738638269
 30
0.0
 11
4455.5130162047526028
 21
272.9417792786297809
 31
0.0
  0
ARC
  5
2108C
  8
0
 10
4455.587819354353087
 20
272.4148954809638212
 30
0.0
 40
0.0393700787
 50
336.4218214899868258
 51
342.542396743453196
  0
ARC
  5
2108D
  8
0
 10
4454.9913626614534223
 20
272.4148954809638212
 30
0.0
 40
0.0393700787
 50
197.4576031948807042
 51
203.5781785100132026
  0
CIRCLE
  5
2108E
  8
0
 10
4455.2767957323530936
 20
272.7613521738638269
 30
0.0
 40
0.3169291339
  0
CIRCLE
  5
2108F
  8
0
 10
4455.2767957323530936
 20
272.7613521738638269
 30
0.0
 40
0.2972440945
  0
ARC
  5
21090
  8
0
 10
4455.2767957323530936
 20
272.7613521738638269
 30
0.0
 40
0.2854330709
 50
34.148424369614979
 51
145.8515756661367959
  0
ARC
  5
21091
  8
0
 10
4455.2767957323530936
 20
272.7613521738638269
 30
0.0
 40
0.2362204724
 50
180.0
 51
0.0
  0
LINE
  5
21092
  8
0
 10
4455.0405752598526306
 20
272.7613521738638269
 30
0.0
 11
4455.0405752598526306
 21
272.9417792784989274
 31
0.0
  0
LINE
  5
21093
  8
0
 10
4448.2495832793538284
 20
277.269012717026385
 30
0.0
 11
4448.2495832793538284
 21
268.2538157659632816
 31
0.0
  0
LINE
  5
21094
  8
0
 10
4461.4378664528530862
 20
268.242921992856509
 30
0.0
 11
4461.4378664528530862
 21
277.2751142297918818
 31
0.0
  0
LINE
  5
21095
  8
0
 10
4448.3277707385268513
 20
277.3475354830202946
 30
0.0
 11
4461.3593914928305821
 21
277.3475354830202946
 31
0.0
  0
ENDSEC
  0
EOF
