  0
SECTION
  2
HEADER
  9
$ACADVER
  1
AC1009
  9
$INSBASE
 10
1228.3787383603159924
 20
123.3255555406050945
 30
0.0
  9
$EXTMIN
 10
1194.8606385155430871
 20
123.3115989039533957
 30
-0.0000000000112498
  9
$EXTMAX
 10
1261.8945028137970894
 20
148.5177998801366073
 30
0.0000000000002956
  9
$LIMMIN
 10
0.0
 20
0.0
  9
$LIMMAX
 10
11.6929133858000007
 20
8.2677165353999982
  9
$ORTHOMODE
 70
     0
  9
$REGENMODE
 70
     1
  9
$FILLMODE
 70
     1
  9
$QTEXTMODE
 70
     0
  9
$MIRRTEXT
 70
     0
  9
$DRAGMODE
 70
     2
  9
$LTSCALE
 40
0.6431102362
  9
$OSMODE
 70
  4095
  9
$ATTMODE
 70
     1
  9
$TEXTSIZE
 40
0.2
  9
$TRACEWID
 40
0.05
  9
$TEXTSTYLE
  7
STANDARD
  9
$CLAYER
  8
0
  9
$CELTYPE
  6
BYLAYER
  9
$CECOLOR
 62
   256
  9
$DIMSCALE
 40
1.0
  9
$DIMASZ
 40
0.1875
  9
$DIMEXO
 40
0.0625
  9
$DIMDLI
 40
0.4443307087
  9
$DIMRND
 40
0.0
  9
$DIMDLE
 40
0.0
  9
$DIMEXE
 40
0.125
  9
$DIMTP
 40
0.01
  9
$DIMTM
 40
0.01
  9
$DIMTXT
 40
1.0
  9
$DIMCEN
 40
0.1052362205
  9
$DIMTSZ
 40
0.0
  9
$DIMTOL
 70
     1
  9
$DIMLIM
 70
     0
  9
$DIMTIH
 70
     0
  9
$DIMTOH
 70
     1
  9
$DIMSE1
 70
     0
  9
$DIMSE2
 70
     0
  9
$DIMTAD
 70
     0
  9
$DIMZIN
 70
     0
  9
$DIMBLK
  1

  9
$DIMASO
 70
     1
  9
$DIMSHO
 70
     1
  9
$DIMPOST
  1
\X
  9
$DIMAPOST
  1

  9
$DIMALT
 70
     1
  9
$DIMALTD
 70
     2
  9
$DIMALTF
 40
25.3999999999999986
  9
$DIMLFAC
 40
1.0
  9
$DIMTOFL
 70
     0
  9
$DIMTVP
 40
0.0
  9
$DIMTIX
 70
     0
  9
$DIMSOXD
 70
     0
  9
$DIMSAH
 70
     0
  9
$DIMBLK1
  1

  9
$DIMBLK2
  1

  9
$DIMSTYLE
  2
STANDARD
  9
$DIMCLRD
 70
     0
  9
$DIMCLRE
 70
     0
  9
$DIMCLRT
 70
     0
  9
$DIMTFAC
 40
1.0
  9
$DIMGAP
 40
0.09
  9
$LUNITS
 70
     2
  9
$LUPREC
 70
     4
  9
$SKETCHINC
 40
0.1
  9
$FILLETRAD
 40
0.0
  9
$AUNITS
 70
     0
  9
$AUPREC
 70
     0
  9
$MENU
  1
.
  9
$ELEVATION
 40
0.0
  9
$PELEVATION
 40
0.0
  9
$THICKNESS
 40
0.0
  9
$LIMCHECK
 70
     0
  9
$BLIPMODE
 70
     0
  9
$CHAMFERA
 40
0.0
  9
$CHAMFERB
 40
0.0
  9
$SKPOLY
 70
     0
  9
$TDCREATE
 40
2458172.5207638889551163
  9
$TDUPDATE
 40
2459138.8842824078164995
  9
$TDINDWG
 40
0.4517946991
  9
$TDUSRTIMER
 40
0.4517946991
  9
$USRTIMER
 70
     1
  9
$ANGBASE
 50
0.0
  9
$ANGDIR
 70
     0
  9
$PDMODE
 70
     0
  9
$PDSIZE
 40
0.3125
  9
$PLINEWID
 40
0.0
  9
$COORDS
 70
     1
  9
$SPLFRAME
 70
     0
  9
$SPLINETYPE
 70
     6
  9
$SPLINESEGS
 70
     8
  9
$ATTDIA
 70
     1
  9
$ATTREQ
 70
     1
  9
$HANDLING
 70
     1
  9
$HANDSEED
  5
B8FB
  9
$SURFTAB1
 70
     6
  9
$SURFTAB2
 70
     6
  9
$SURFTYPE
 70
     6
  9
$SURFU
 70
     6
  9
$SURFV
 70
     6
  9
$UCSNAME
  2

  9
$UCSORG
 10
0.0
 20
0.0
 30
0.0
  9
$UCSXDIR
 10
1.0
 20
0.0
 30
0.0
  9
$UCSYDIR
 10
0.0
 20
1.0
 30
0.0
  9
$PUCSNAME
  2

  9
$PUCSORG
 10
0.0
 20
0.0
 30
0.0
  9
$PUCSXDIR
 10
1.0
 20
0.0
 30
0.0
  9
$PUCSYDIR
 10
0.0
 20
1.0
 30
0.0
  9
$USERI1
 70
     0
  9
$USERI2
 70
     0
  9
$USERI3
 70
     0
  9
$USERI4
 70
     0
  9
$USERI5
 70
     0
  9
$USERR1
 40
0.0
  9
$USERR2
 40
0.0
  9
$USERR3
 40
0.0
  9
$USERR4
 40
0.0
  9
$USERR5
 40
0.0
  9
$WORLDVIEW
 70
     1
  9
$SHADEDGE
 70
     3
  9
$SHADEDIF
 70
    70
  9
$TILEMODE
 70
     1
  9
$MAXACTVP
 70
    64
  9
$PLIMCHECK
 70
     0
  9
$PEXTMIN
 10
1.0000000000000000E+20
 20
1.0000000000000000E+20
 30
1.0000000000000000E+20
  9
$PEXTMAX
 10
-1.0000000000000000E+20
 20
-1.0000000000000000E+20
 30
-1.0000000000000000E+20
  9
$PLIMMIN
 10
0.0
 20
0.0
  9
$PLIMMAX
 10
12.0
 20
9.0
  9
$UNITMODE
 70
     0
  9
$VISRETAIN
 70
     1
  9
$PLINEGEN
 70
     0
  9
$PSLTSCALE
 70
     1
  0
ENDSEC
  0
SECTION
  2
TABLES
  0
TABLE
  2
VPORT
 70
     1
  0
VPORT
  2
*ACTIVE
 70
     0
 10
0.0
 20
0.0
 11
1.0
 21
1.0
 12
761.6353689568403524
 22
46.781552272115249
 13
0.0
 23
0.0
 14
1.0
 24
1.0
 15
0.0
 25
0.0
 16
0.0
 26
0.0
 36
24.1179433675886514
 17
466.74220170783002
 27
89.133147119929788
 37
0.0
 40
26.0487018683015208
 41
2.5847619047619039
 42
50.0
 43
0.0
 44
0.0
 50
0.0
 51
0.0
 71
     0
 72
   100
 73
     1
 74
     1
 75
     0
 76
     0
 77
     0
 78
     0
  0
ENDTAB
  0
TABLE
  2
LTYPE
 70
     2
  0
LTYPE
  2
CONTINUOUS
 70
     0
  3
Solid line
 72
    65
 73
     0
 40
0.0
  0
LTYPE
  2
PHANTOM2
 70
     0
  3
___ _ _ ___ _ _ ___ _ _ ___ _ _
 72
    65
 73
     6
 40
1.25
 49
0.625
 49
-0.125
 49
0.125
 49
-0.125
 49
0.125
 49
-0.125
  0
ENDTAB
  0
TABLE
  2
LAYER
 70
     2
  0
LAYER
  2
0
 70
     0
 62
   255
  6
CONTINUOUS
  0
LAYER
  2
DEFPOINTS
 70
     0
 62
     7
  6
CONTINUOUS
  0
ENDTAB
  0
TABLE
  2
STYLE
 70
     1
  0
STYLE
  2
STANDARD
 70
     0
 40
0.0
 41
0.8
 50
0.0
 71
     0
 42
0.2
  3
txt
  4

  0
ENDTAB
  0
TABLE
  2
VIEW
 70
     0
  0
ENDTAB
  0
TABLE
  2
UCS
 70
     0
  0
ENDTAB
  0
TABLE
  2
APPID
 70
    11
  0
APPID
  2
ACAD
 70
     0
  0
APPID
  2
ACAD_MLEADERVER
 70
     0
  0
APPID
  2
ACAD_EXEMPT_FROM_CAD_STANDARDS
 70
     0
  0
APPID
  2
ACAD_DSTYLE_DIMJAG
 70
     0
  0
APPID
  2
ACAD_DSTYLE_DIMTALN
 70
     0
  0
APPID
  2
ACAD_NAV_VCDISPLAY
 70
     0
  0
APPID
  2
ACAECLAYERSTANDARD
 70
     0
  0
APPID
  2
ACCMTRANSPARENCY
 70
     0
  0
APPID
  2
DCO15
 70
     0
  0
APPID
  2
ACDBATTR
 70
     0
  0
APPID
  2
ACADANNOTATIVE
 70
     0
  0
ENDTAB
  0
TABLE
  2
DIMSTYLE
 70
     1
  0
DIMSTYLE
  2
STANDARD
 70
     0
  3

  4

  5

  6

  7

 40
1.0
 41
0.1875
 42
0.0625
 43
0.38
 44
0.125
 45
0.0
 46
0.0
 47
0.01
 48
0.01
140
0.15625
141
0.09
142
0.0
143
25.3999999999999986
144
1.0
145
0.0
146
1.0
147
0.09
 71
     1
 72
     0
 73
     1
 74
     1
 75
     0
 76
     0
 77
     0
 78
     4
170
     0
171
     2
172
     0
173
     0
174
     0
175
     0
176
     0
177
     0
178
     0
  0
ENDTAB
  0
ENDSEC
  0
SECTION
  2
BLOCKS
  0
BLOCK
  8
0
  2
$MODEL_SPACE
 70
     0
 10
0.0
 20
0.0
 30
0.0
  3
$MODEL_SPACE
  1

  0
ENDBLK
  5
21
  8
0
  0
BLOCK
 67
     1
  8
0
  2
$PAPER_SPACE
 70
     0
 10
0.0
 20
0.0
 30
0.0
  3
$PAPER_SPACE
  1

  0
ENDBLK
  5
1D
 67
     1
  8
0
  0
ENDSEC
  0
SECTION
  2
ENTITIES
  0
ATTDEF
  5
829
  8
DEFPOINTS
 10
1228.3724968437350071
 20
123.3228887131923983
 30
0.0
 40
0.001
  1
K-24459T
  3

  2
MODELNUMBER
 70
     0
1001
ACDBATTR
1070
     0
1070
     1
  0
ATTDEF
  5
82A
  8
DEFPOINTS
 10
1228.3724968437350071
 20
123.3212220465257047
 30
0.0
 40
0.001
  1
ALEUTIAN 2.0
  3

  2
TRADENAME
 70
     0
1001
ACDBATTR
1070
     0
1070
     1
  0
ATTDEF
  5
82B
  8
DEFPOINTS
 10
1228.3724968437350071
 20
123.3195553798590964
 30
0.0
 40
0.001
  1
BATH
  3

  2
PRODUCT
 70
     0
1001
ACDBATTR
1070
     0
1070
     1
  0
LINE
  5
B7E9
  8
0
 10
1194.8748013543161051
 20
147.1444035721052046
 30
0.0
 11
1194.8748013543161051
 21
123.7193059343051971
 31
0.0
  0
LINE
  5
B7EA
  8
0
 10
1261.8826753700159315
 20
123.7193059343051971
 30
0.0
 11
1261.8826753700159315
 21
147.1444035721052046
 31
0.0
  0
LINE
  5
B7EB
  8
0
 10
1261.5349261834710433
 20
148.5101429414021084
 30
0.0
 11
1195.143810379767956
 21
148.5101429414021084
 31
0.0
  0
LINE
  5
B7EC
  8
0
 10
1194.8748013506160532
 20
147.3413035721050903
 30
0.0
 11
1261.8039352126158974
 21
147.3413035721050903
 31
0.0
  0
LINE
  5
B7ED
  8
0
 10
1195.0717013543160192
 20
123.5224059343050982
 30
0.0
 11
1261.6857753700160174
 21
123.5224059343050982
 31
0.0
  0
ARC
  5
B7EE
  8
0
 10
1195.0717013543160192
 20
147.1444035721052046
 30
0.0
 40
0.1969
 50
90.0
 51
179.9999999999984084
  0
ARC
  5
B7EF
  8
0
 10
1195.0717013543160192
 20
123.7193059343051971
 30
0.0
 40
0.1969
 50
180.0
 51
270.0
  0
ARC
  5
B7F0
  8
0
 10
1261.6857753700160174
 20
123.7193059343051971
 30
0.0
 40
0.1969
 50
270.0
 51
0.0
  0
ARC
  5
B7F1
  8
0
 10
1261.6857753700160174
 20
147.1444035721052046
 30
0.0
 40
0.1969
 50
0.0
 51
90.0
  0
LINE
  5
B7F2
  8
0
 10
1261.8039352126158974
 20
147.3413035721050903
 30
0.0
 11
1261.7710822358828864
 21
148.2820896928413958
 31
0.0
  0
LINE
  5
B7F3
  8
0
 10
1194.8748013506160532
 20
147.3413035721050903
 30
0.0
 11
1194.9076543273561128
 21
148.2820896928433001
 31
0.0
  0
ARC
  5
B7F4
  8
0
 10
1261.5349261834710433
 20
148.2738429414021937
 30
0.0
 40
0.2363
 50
2.0000000893986152
 51
90.0
  0
ARC
  5
B7F5
  8
0
 10
1195.143810379767956
 20
148.2738429414021937
 30
0.0
 40
0.2363
 50
90.0
 51
177.999999910141895
  0
LINE
  5
B7F6
  8
0
 10
1256.3471155535089565
 20
136.5145337882495937
 30
0.0
 11
1230.0133988306160973
 21
136.5145337882495937
 31
0.0
  0
LINE
  5
B7F7
  8
0
 10
1230.0133988306160973
 20
146.1444800438088976
 30
0.0
 11
1256.3471155535089565
 21
146.1444800438088976
 31
0.0
  0
LINE
  5
B7F8
  8
0
 10
1257.9283155535090373
 20
138.0957337882495892
 30
0.0
 11
1257.9283155535090373
 21
144.5632800438089021
 31
0.0
  0
LINE
  5
B7F9
  8
0
 10
1228.4321988306160165
 20
138.0957337882495892
 30
0.0
 11
1228.4321988306160165
 21
144.5632800438089021
 31
0.0
  0
LINE
  5
B7FA
  8
0
 10
1228.7107566387498991
 20
138.0957337882495892
 30
0.0
 11
1228.7107566387498991
 21
144.2847216805450046
 31
0.0
  0
LINE
  5
B7FB
  8
0
 10
1230.2919566387499799
 20
145.8659216805450001
 30
0.0
 11
1256.0685574735400678
 21
145.8659216805450001
 31
0.0
  0
LINE
  5
B7FC
  8
0
 10
1257.6497574735399212
 20
138.0957337882495892
 30
0.0
 11
1257.6497574735399212
 21
144.2847216805450046
 31
0.0
  0
ARC
  5
B7FD
  8
0
 10
1256.0685574735400678
 20
138.0957337882495892
 30
0.0
 40
1.5811999999999991
 50
270.0
 51
359.9999999999992042
  0
ARC
  5
B7FE
  8
0
 10
1256.3471155535089565
 20
138.0957337882495892
 30
0.0
 40
1.5811999999999991
 50
270.0
 51
359.9999999999992042
  0
ARC
  5
B7FF
  8
0
 10
1230.2919566387499799
 20
138.0957337882495892
 30
0.0
 40
1.5811999999999991
 50
180.0
 51
270.0
  0
ARC
  5
B800
  8
0
 10
1230.0133988306160973
 20
138.0957337882495892
 30
0.0
 40
1.5811999999999991
 50
180.0
 51
270.0
  0
ARC
  5
B801
  8
0
 10
1230.2919566387499799
 20
144.2847216805450046
 30
0.0
 40
1.5811999999999991
 50
90.0
 51
180.0
  0
ARC
  5
B802
  8
0
 10
1230.0133988306160973
 20
144.5632800438089021
 30
0.0
 40
1.5811999999999991
 50
90.0
 51
180.0
  0
ARC
  5
B803
  8
0
 10
1256.0685574735400678
 20
144.2847216805450046
 30
0.0
 40
1.5811999999999991
 50
0.0
 51
90.0
  0
ARC
  5
B804
  8
0
 10
1256.3471155535089565
 20
144.5632800438089021
 30
0.0
 40
1.5811999999999991
 50
0.0
 51
90.0
  0
LINE
  5
B805
  8
0
 10
1256.3652965621161002
 20
124.821618532805104
 30
0.0
 11
1244.9164776645159236
 21
124.821618532805104
 31
0.0
  0
LINE
  5
B806
  8
0
 10
1256.4440050881880779
 20
124.7963567244051006
 30
0.0
 11
1244.891215856116105
 21
124.7963567244051006
 31
0.0
  0
LINE
  5
B807
  8
0
 10
1256.4440050881880779
 20
135.1224708923051878
 30
0.0
 11
1246.7055100157160723
 21
135.1224708923051878
 31
0.0
  0
LINE
  5
B808
  8
0
 10
1244.894486393716079
 20
135.1224708923051878
 30
0.0
 11
1244.891215856116105
 21
135.1224708923051878
 31
0.0
  0
LINE
  5
B809
  8
0
 10
1256.3652965621161002
 20
135.0972090839051134
 30
0.0
 11
1244.9164776645159236
 21
135.0972090839051134
 31
0.0
  0
LINE
  5
B80A
  8
0
 10
1257.8652965621161002
 20
126.321618532805104
 30
0.0
 11
1257.8652965621161002
 21
133.5972090839051134
 31
0.0
  0
LINE
  5
B80B
  8
0
 10
1257.9440050881880779
 20
126.2963567244052001
 30
0.0
 11
1257.9440050881880779
 21
133.6224708923051878
 31
0.0
  0
LINE
  5
B80C
  8
0
 10
1243.4164776645159236
 20
133.5972090839051134
 30
0.0
 11
1243.4164776645159236
 21
126.321618532805104
 31
0.0
  0
LINE
  5
B80D
  8
0
 10
1243.391215856116105
 20
133.6224708923051878
 30
0.0
 11
1243.391215856116105
 21
126.2963567244052001
 31
0.0
  0
ARC
  5
B80E
  8
0
 10
1256.4440050881880779
 20
126.2963567244052001
 30
0.0
 40
1.5
 50
270.0
 51
0.0
  0
ARC
  5
B80F
  8
0
 10
1256.3652965621161002
 20
126.321618532805104
 30
0.0
 40
1.5
 50
270.0
 51
0.0
  0
ARC
  5
B810
  8
0
 10
1256.3652965621161002
 20
133.5972090839051134
 30
0.0
 40
1.5
 50
0.0
 51
90.0
  0
ARC
  5
B811
  8
0
 10
1256.4440050881880779
 20
133.6224708923051878
 30
0.0
 40
1.5
 50
0.0
 51
90.0
  0
ARC
  5
B812
  8
0
 10
1244.9164776645159236
 20
133.5972090839051134
 30
0.0
 40
1.5
 50
90.0
 51
180.0
  0
ARC
  5
B813
  8
0
 10
1244.891215856116105
 20
133.6224708923051878
 30
0.0
 40
1.5
 50
90.0
 51
180.0
  0
ARC
  5
B814
  8
0
 10
1244.9164776645159236
 20
126.321618532805104
 30
0.0
 40
1.5
 50
180.0
 51
270.0
  0
ARC
  5
B815
  8
0
 10
1244.891215856116105
 20
126.2963567244052001
 30
0.0
 40
1.5
 50
180.0
 51
270.0
  0
LINE
  5
B816
  8
0
 10
1256.968843089342954
 20
124.9483991077051002
 30
0.0
 11
1257.1020402419449056
 21
124.9483991077051002
 31
0.0
  0
LINE
  5
B817
  8
0
 10
1257.8992432822540195
 20
125.9326510762051043
 30
0.0
 11
1257.8139871148930524
 21
125.9326510762051043
 31
0.0
  0
LINE
  5
B818
  8
0
 10
1254.4144160236160133
 20
124.7963567244051006
 30
0.0
 11
1254.4144160236160133
 21
124.821618532805104
 31
0.0
  0
LINE
  5
B819
  8
0
 10
1246.2013284173160628
 20
124.7963567244051006
 30
0.0
 11
1246.2013284173160628
 21
124.821618532805104
 31
0.0
  0
LINE
  5
B81A
  8
0
 10
1244.4858936757100309
 20
124.8847478258226005
 30
0.0
 11
1244.3839089298439831
 21
124.8847478258226005
 31
0.0
  0
LINE
  5
B81B
  8
0
 10
1243.4677871117380619
 20
125.9326510762051043
 30
0.0
 11
1243.435977662049936
 21
125.9326510762051043
 31
0.0
  0
LINE
  5
B81C
  8
0
 10
1243.5172893808160097
 20
134.1378310837874039
 30
0.0
 11
1243.5172893808160097
 21
134.2244061383821077
 31
0.0
  0
LINE
  5
B81D
  8
0
 10
1257.8332106288250998
 20
133.9093272846334912
 30
0.0
 11
1257.8332106288250998
 21
134.1882517384509015
 31
0.0
  0
LINE
  5
B81E
  8
0
 10
1243.4164776645159236
 20
126.3730786803347002
 30
0.0
 11
1243.391215856116105
 21
126.3730786803347002
 31
0.0
  0
LINE
  5
B81F
  8
0
 10
1244.894486393716079
 20
135.0970478699113926
 30
0.0
 11
1244.894486393716079
 21
135.1658001586050943
 31
0.0
  0
LINE
  5
B820
  8
0
 10
1244.894486393716079
 20
135.1658001586050943
 30
0.0
 11
1246.7055100157160723
 21
135.1658001586050943
 31
0.0
  0
LINE
  5
B821
  8
0
 10
1246.7055100157160723
 20
135.1658001586050943
 30
0.0
 11
1246.7055100157160723
 21
135.0972090839051134
 31
0.0
  0
CIRCLE
  5
B822
  8
0
 10
1197.0401556850160887
 20
124.3098075091051982
 30
0.0
 40
0.1968503937000003
  0
CIRCLE
  5
B823
  8
0
 10
1226.2921241890160218
 20
124.3098075091051982
 30
0.0
 40
0.1968503937000003
  0
LINE
  5
B824
  8
0
 10
1199.6983917430159181
 20
123.5224059343050982
 30
0.0
 11
1199.6983917430159181
 21
123.3255555406050945
 31
0.0
  0
LINE
  5
B825
  8
0
 10
1199.6983917430159181
 20
123.3255555406050945
 30
0.0
 11
1197.729887806015995
 21
123.3255555406050945
 31
0.0
  0
LINE
  5
B826
  8
0
 10
1197.729887806015995
 20
123.3255555406050945
 30
0.0
 11
1197.729887806015995
 21
123.5224059343050982
 31
0.0
  0
LINE
  5
B827
  8
0
 10
1228.9306752076161047
 20
123.3255555406050945
 30
0.0
 11
1226.9621712706159542
 21
123.3255555406050945
 31
0.0
  0
LINE
  5
B828
  8
0
 10
1257.847998042215977
 20
123.3255555406050945
 30
0.0
 11
1259.8165019792159001
 21
123.3255555406050945
 31
0.0
  0
LINE
  5
B829
  8
0
 10
1226.9621712706159542
 20
123.3255555406050945
 30
0.0
 11
1226.9621712706159542
 21
123.5224059343050982
 31
0.0
  0
LINE
  5
B82A
  8
0
 10
1228.9306752076161047
 20
123.3255555406050945
 30
0.0
 11
1228.9306752076161047
 21
123.5224059343050982
 31
0.0
  0
LINE
  5
B82B
  8
0
 10
1257.847998042215977
 20
123.3255555406050945
 30
0.0
 11
1257.847998042215977
 21
123.5224059343050982
 31
0.0
  0
LINE
  5
B82C
  8
0
 10
1259.8165019792159001
 20
123.3255555406050945
 30
0.0
 11
1259.8165019792159001
 21
123.5224059343050982
 31
0.0
  0
LINE
  5
B82D
  8
0
 10
1201.6831989921161039
 20
146.2231933359051084
 30
0.0
 11
1221.6041202519159015
 21
146.2231933359051084
 31
0.0
  0
LINE
  5
B82E
  8
0
 10
1201.6831989921161039
 20
145.120831131205108
 30
0.0
 11
1221.6041202519159015
 21
145.120831131205108
 31
0.0
  0
LINE
  5
B830
  8
0
 10
1201.3286989921159602
 20
145.4753311312051096
 30
0.0
 11
1201.3286989921159602
 21
145.8686933359051068
 31
0.0
  0
ARC
  5
B831
  8
0
 10
1201.6831989921161039
 20
145.4753311312051096
 30
0.0
 40
0.3545
 50
180.0
 51
270.0
  0
ARC
  5
B832
  8
0
 10
1201.6831989921161039
 20
145.868693335905192
 30
0.0
 40
0.3545
 50
90.0
 51
180.0
  0
LINE
  5
B833
  8
0
 10
1221.9586202520160896
 20
145.4753311312051096
 30
0.0
 11
1221.9586202520160896
 21
145.8686933359051068
 31
0.0
  0
ARC
  5
B834
  8
0
 10
1221.6041202520159459
 20
145.4753311312051096
 30
0.0
 40
0.3545
 50
270.0
 51
0.0
  0
ARC
  5
B835
  8
0
 10
1221.6041202520159459
 20
145.8686933359051068
 30
0.0
 40
0.3545
 50
0.0
 51
90.0
  0
ENDSEC
  0
EOF
