  0
SECTION
  2
HEADER
  9
$ACADVER
  1
AC1009
  9
$INSBASE
 10
2862.198398538445872
 20
141.0864133161354914
 30
0.0
  9
$EXTMIN
 10
2861.01734229804606
 20
131.118967341435507
 30
0.0
  9
$EXTMAX
 10
2863.3794547788461387
 20
141.0919004969715047
 30
0.0
  9
$LIMMIN
 10
0.0
 20
0.0
  9
$LIMMAX
 10
11.6929133858000007
 20
8.2677165353999982
  9
$ORTHOMODE
 70
     1
  9
$REGENMODE
 70
     1
  9
$FILLMODE
 70
     1
  9
$QTEXTMODE
 70
     0
  9
$MIRRTEXT
 70
     0
  9
$DRAGMODE
 70
     2
  9
$LTSCALE
 40
0.6431102362
  9
$OSMODE
 70
  3839
  9
$ATTMODE
 70
     1
  9
$TEXTSIZE
 40
0.2
  9
$TRACEWID
 40
0.05
  9
$TEXTSTYLE
  7
STANDARD
  9
$CLAYER
  8
0
  9
$CELTYPE
  6
BYLAYER
  9
$CECOLOR
 62
   256
  9
$DIMSCALE
 40
1.0
  9
$DIMASZ
 40
0.1875
  9
$DIMEXO
 40
0.0625
  9
$DIMDLI
 40
0.4443307087
  9
$DIMRND
 40
0.0
  9
$DIMDLE
 40
0.0
  9
$DIMEXE
 40
0.125
  9
$DIMTP
 40
0.01
  9
$DIMTM
 40
0.01
  9
$DIMTXT
 40
2.0
  9
$DIMCEN
 40
0.1052362205
  9
$DIMTSZ
 40
0.0
  9
$DIMTOL
 70
     1
  9
$DIMLIM
 70
     0
  9
$DIMTIH
 70
     1
  9
$DIMTOH
 70
     1
  9
$DIMSE1
 70
     0
  9
$DIMSE2
 70
     0
  9
$DIMTAD
 70
     0
  9
$DIMZIN
 70
     0
  9
$DIMBLK
  1

  9
$DIMASO
 70
     1
  9
$DIMSHO
 70
     1
  9
$DIMPOST
  1
\X
  9
$DIMAPOST
  1

  9
$DIMALT
 70
     1
  9
$DIMALTD
 70
     2
  9
$DIMALTF
 40
25.3999999999999986
  9
$DIMLFAC
 40
1.0
  9
$DIMTOFL
 70
     0
  9
$DIMTVP
 40
0.0
  9
$DIMTIX
 70
     0
  9
$DIMSOXD
 70
     0
  9
$DIMSAH
 70
     0
  9
$DIMBLK1
  1

  9
$DIMBLK2
  1

  9
$DIMSTYLE
  2
STANDARD
  9
$DIMCLRD
 70
     0
  9
$DIMCLRE
 70
     0
  9
$DIMCLRT
 70
     0
  9
$DIMTFAC
 40
1.0
  9
$DIMGAP
 40
0.09
  9
$LUNITS
 70
     2
  9
$LUPREC
 70
     4
  9
$SKETCHINC
 40
0.1
  9
$FILLETRAD
 40
0.0
  9
$AUNITS
 70
     0
  9
$AUPREC
 70
     0
  9
$MENU
  1
.
  9
$ELEVATION
 40
0.0
  9
$PELEVATION
 40
0.0
  9
$THICKNESS
 40
0.0
  9
$LIMCHECK
 70
     0
  9
$BLIPMODE
 70
     0
  9
$CHAMFERA
 40
0.0
  9
$CHAMFERB
 40
0.0
  9
$SKPOLY
 70
     0
  9
$TDCREATE
 40
2458060.468368056230247
  9
$TDUPDATE
 40
2459054.5418402780778706
  9
$TDINDWG
 40
0.2909445602
  9
$TDUSRTIMER
 40
0.2909445602
  9
$USRTIMER
 70
     1
  9
$ANGBASE
 50
0.0
  9
$ANGDIR
 70
     0
  9
$PDMODE
 70
     0
  9
$PDSIZE
 40
0.3125
  9
$PLINEWID
 40
0.0
  9
$COORDS
 70
     1
  9
$SPLFRAME
 70
     0
  9
$SPLINETYPE
 70
     6
  9
$SPLINESEGS
 70
     8
  9
$ATTDIA
 70
     1
  9
$ATTREQ
 70
     1
  9
$HANDLING
 70
     1
  9
$HANDSEED
  5
6BA1
  9
$SURFTAB1
 70
     6
  9
$SURFTAB2
 70
     6
  9
$SURFTYPE
 70
     6
  9
$SURFU
 70
     6
  9
$SURFV
 70
     6
  9
$UCSNAME
  2

  9
$UCSORG
 10
0.0
 20
0.0
 30
0.0
  9
$UCSXDIR
 10
1.0
 20
0.0
 30
0.0
  9
$UCSYDIR
 10
0.0
 20
1.0
 30
0.0
  9
$PUCSNAME
  2

  9
$PUCSORG
 10
0.0
 20
0.0
 30
0.0
  9
$PUCSXDIR
 10
1.0
 20
0.0
 30
0.0
  9
$PUCSYDIR
 10
0.0
 20
1.0
 30
0.0
  9
$USERI1
 70
     0
  9
$USERI2
 70
     0
  9
$USERI3
 70
     0
  9
$USERI4
 70
     0
  9
$USERI5
 70
     0
  9
$USERR1
 40
0.0
  9
$USERR2
 40
0.0
  9
$USERR3
 40
0.0
  9
$USERR4
 40
0.0
  9
$USERR5
 40
0.0
  9
$WORLDVIEW
 70
     1
  9
$SHADEDGE
 70
     3
  9
$SHADEDIF
 70
    70
  9
$TILEMODE
 70
     1
  9
$MAXACTVP
 70
    64
  9
$PLIMCHECK
 70
     0
  9
$PEXTMIN
 10
1.0000000000000000E+20
 20
1.0000000000000000E+20
 30
1.0000000000000000E+20
  9
$PEXTMAX
 10
-1.0000000000000000E+20
 20
-1.0000000000000000E+20
 30
-1.0000000000000000E+20
  9
$PLIMMIN
 10
0.0
 20
0.0
  9
$PLIMMAX
 10
12.0
 20
9.0
  9
$UNITMODE
 70
     0
  9
$VISRETAIN
 70
     1
  9
$PLINEGEN
 70
     0
  9
$PSLTSCALE
 70
     1
  0
ENDSEC
  0
SECTION
  2
TABLES
  0
TABLE
  2
VPORT
 70
     1
  0
VPORT
  2
*ACTIVE
 70
     0
 10
0.0
 20
0.0
 11
1.0
 21
1.0
 12
0.0
 22
0.0
 13
0.0
 23
0.0
 14
1.0
 24
1.0
 15
0.0
 25
0.0
 16
0.0
 26
0.0
 36
42.5485272557660323
 17
2862.1983642578120453
 27
136.1054366376459086
 37
0.0
 40
10.2488349244459993
 41
3.314341846758349
 42
50.0
 43
0.0
 44
0.0
 50
0.0
 51
0.0
 71
     0
 72
   100
 73
     1
 74
     1
 75
     0
 76
     0
 77
     0
 78
     0
  0
ENDTAB
  0
TABLE
  2
LTYPE
 70
     2
  0
LTYPE
  2
CONTINUOUS
 70
     0
  3
Solid line
 72
    65
 73
     0
 40
0.0
  0
LTYPE
  2
PHANTOM2
 70
     0
  3
___ _ _ ___ _ _ ___ _ _ ___ _ _
 72
    65
 73
     6
 40
1.25
 49
0.625
 49
-0.125
 49
0.125
 49
-0.125
 49
0.125
 49
-0.125
  0
ENDTAB
  0
TABLE
  2
LAYER
 70
     2
  0
LAYER
  2
0
 70
     0
 62
   255
  6
CONTINUOUS
  0
LAYER
  2
DEFPOINTS
 70
     0
 62
     7
  6
CONTINUOUS
  0
ENDTAB
  0
TABLE
  2
STYLE
 70
     1
  0
STYLE
  2
STANDARD
 70
     0
 40
0.0
 41
0.8
 50
0.0
 71
     0
 42
0.2
  3
txt
  4

  0
ENDTAB
  0
TABLE
  2
VIEW
 70
     0
  0
ENDTAB
  0
TABLE
  2
UCS
 70
     0
  0
ENDTAB
  0
TABLE
  2
APPID
 70
     9
  0
APPID
  2
ACAD
 70
     0
  0
APPID
  2
ACAD_MLEADERVER
 70
     0
  0
APPID
  2
ACAD_EXEMPT_FROM_CAD_STANDARDS
 70
     0
  0
APPID
  2
ACAD_NAV_VCDISPLAY
 70
     0
  0
APPID
  2
ACAECLAYERSTANDARD
 70
     0
  0
APPID
  2
ACCMTRANSPARENCY
 70
     0
  0
APPID
  2
ACAD_DSTYLE_DIMJAG
 70
     0
  0
APPID
  2
ACAD_DSTYLE_DIMTALN
 70
     0
  0
APPID
  2
ACDBATTR
 70
     0
  0
ENDTAB
  0
TABLE
  2
DIMSTYLE
 70
     1
  0
DIMSTYLE
  2
STANDARD
 70
     0
  3

  4

  5

  6

  7

 40
1.0
 41
0.1875
 42
0.0625
 43
0.38
 44
0.125
 45
0.0
 46
0.0
 47
0.01
 48
0.01
140
0.15625
141
0.09
142
0.0
143
25.3999999999999986
144
1.0
145
0.0
146
1.0
147
0.09
 71
     1
 72
     0
 73
     1
 74
     1
 75
     0
 76
     0
 77
     0
 78
     4
170
     0
171
     2
172
     0
173
     0
174
     0
175
     0
176
     0
177
     0
178
     0
  0
ENDTAB
  0
ENDSEC
  0
SECTION
  2
BLOCKS
  0
BLOCK
  8
0
  2
$MODEL_SPACE
 70
     0
 10
0.0
 20
0.0
 30
0.0
  3
$MODEL_SPACE
  1

  0
ENDBLK
  5
21
  8
0
  0
BLOCK
 67
     1
  8
0
  2
$PAPER_SPACE
 70
     0
 10
0.0
 20
0.0
 30
0.0
  3
$PAPER_SPACE
  1

  0
ENDBLK
  5
1D
 67
     1
  8
0
  0
ENDSEC
  0
SECTION
  2
ENTITIES
  0
ATTDEF
  5
3930
  8
DEFPOINTS
 10
2862.1955394372648698
 20
141.0909004969714999
 30
0.0
 40
0.001
  1
K-23890T-ND
  3

  2
MODELNUMBER
 70
     0
1001
ACDBATTR
1070
     0
1070
     1
  0
ATTDEF
  5
3931
  8
DEFPOINTS
 10
2862.1955394372648698
 20
141.0892338303048064
 30
0.0
 40
0.001
  1
COMPONENTS
  3

  2
TRADENAME
 70
     0
1001
ACDBATTR
1070
     0
1070
     1
  0
ATTDEF
  5
3932
  8
DEFPOINTS
 10
2862.1955394372648698
 20
141.0875671636381128
 30
0.0
 40
0.001
  1
BATHROOM SINK FAUCET
  3

  2
PRODUCT
 70
     0
1001
ACDBATTR
1070
     0
1070
     1
  0
LINE
  5
68AB
  8
0
 10
2861.0173422981461044
 20
141.0667282767354891
 30
0.0
 11
2861.0173422981461044
 21
140.9448030399354934
 31
0.0
  0
LINE
  5
68AC
  8
0
 10
2861.7062763257458755
 20
131.4727443652355134
 30
0.0
 11
2861.7062763257458755
 21
140.7745966675354907
 31
0.0
  0
LINE
  5
68AD
  8
0
 10
2861.6629579941459269
 20
140.77566133003549
 30
0.0
 11
2861.0327831726458498
 21
140.9252672776354984
 31
0.0
  0
LINE
  5
68AE
  8
0
 10
2861.6720518485458342
 20
140.7745966675354907
 30
0.0
 11
2862.7247452283459097
 21
140.7745966675354907
 31
0.0
  0
LINE
  5
68AF
  8
0
 10
2863.3640139042458941
 20
140.9252672776354984
 30
0.0
 11
2861.0327831726458498
 21
140.9252672776354984
 31
0.0
  0
LINE
  5
68B0
  8
0
 10
2863.3597674045458916
 20
141.0864133161354914
 30
0.0
 11
2861.0370296723458523
 21
141.0864133161354914
 31
0.0
  0
LINE
  5
68B1
  8
0
 10
2861.6629579941459269
 20
140.77566133003549
 30
0.0
 11
2861.6720518485458342
 21
140.7745966675354907
 31
0.0
  0
ARC
  5
68B2
  8
0
 10
2861.0380341575778402
 20
140.9452876434534971
 30
0.0
 40
0.0206975334632657
 50
181.3416223645853051
 51
255.303372884835909
  0
ARC
  5
68B3
  8
0
 10
2861.0386076623258305
 20
141.0651477645463956
 30
0.0
 40
0.0213240178383032
 50
94.243800966294387
 51
175.7494034170532018
  0
ARC
  5
68B4
  8
0
 10
2862.2139611373509069
 20
131.7831632791354934
 30
0.0
 40
0.6643782342475529
 50
232.1615382417795956
 51
268.6577633752146994
  0
ARC
  5
68B5
  8
0
 10
2862.0028170025079817
 20
131.4807902990434059
 30
0.0
 40
0.2966498104252057
 50
181.5542049019128115
 51
228.5401743566156938
  0
LINE
  5
68B6
  8
0
 10
2863.3794547787460942
 20
141.0667282767354891
 30
0.0
 11
2863.3794547787460942
 21
140.9448030399354934
 31
0.0
  0
LINE
  5
68B7
  8
0
 10
2862.6905207511458684
 20
131.4727443652355134
 30
0.0
 11
2862.6905207511458684
 21
140.7745966675354907
 31
0.0
  0
LINE
  5
68B8
  8
0
 10
2862.733839082745817
 20
140.77566133003549
 30
0.0
 11
2863.3640139042458941
 21
140.9252672776354984
 31
0.0
  0
LINE
  5
68B9
  8
0
 10
2862.733839082745817
 20
140.77566133003549
 30
0.0
 11
2862.7247452283459097
 21
140.7745966675354907
 31
0.0
  0
ARC
  5
68BA
  8
0
 10
2863.3587629193139037
 20
140.9452876434534971
 30
0.0
 40
0.0206975334632657
 50
284.6966271151641195
 51
358.6583776354148085
  0
ARC
  5
68BB
  8
0
 10
2863.358189414565004
 20
141.0651477645463956
 30
0.0
 40
0.0213240178383032
 50
4.2505965829468231
 51
85.7561990337056272
  0
ARC
  5
68BC
  8
0
 10
2862.182835939540837
 20
131.7831632791354934
 30
0.0
 40
0.6643782342475529
 50
271.3422366247853006
 51
307.8384617582194096
  0
ARC
  5
68BD
  8
0
 10
2862.393980074384217
 20
131.4807902990434059
 30
0.0
 40
0.2966498104252057
 50
311.4598256433843062
 51
358.445795098087217
  0
ENDSEC
  0
EOF
