  0
SECTION
  2
HEADER
  9
$ACADVER
  1
AC1009
  9
$INSBASE
 10
2854.5825058365871882
 20
146.3200132618972873
 30
0.0
  9
$EXTMIN
 10
2853.4014495962860565
 20
144.2085154109618088
 30
0.0
  9
$EXTMAX
 10
2855.7635620768869558
 20
147.5010695021973106
 30
0.0
  9
$LIMMIN
 10
0.0
 20
0.0
  9
$LIMMAX
 10
11.6929133858000007
 20
8.2677165353999982
  9
$ORTHOMODE
 70
     1
  9
$REGENMODE
 70
     1
  9
$FILLMODE
 70
     1
  9
$QTEXTMODE
 70
     0
  9
$MIRRTEXT
 70
     0
  9
$DRAGMODE
 70
     2
  9
$LTSCALE
 40
0.6431102362
  9
$OSMODE
 70
  3839
  9
$ATTMODE
 70
     1
  9
$TEXTSIZE
 40
0.2
  9
$TRACEWID
 40
0.05
  9
$TEXTSTYLE
  7
STANDARD
  9
$CLAYER
  8
0
  9
$CELTYPE
  6
BYLAYER
  9
$CECOLOR
 62
   256
  9
$DIMSCALE
 40
1.0
  9
$DIMASZ
 40
0.1875
  9
$DIMEXO
 40
0.0625
  9
$DIMDLI
 40
0.4443307087
  9
$DIMRND
 40
0.0
  9
$DIMDLE
 40
0.0
  9
$DIMEXE
 40
0.125
  9
$DIMTP
 40
0.01
  9
$DIMTM
 40
0.01
  9
$DIMTXT
 40
2.0
  9
$DIMCEN
 40
0.1052362205
  9
$DIMTSZ
 40
0.0
  9
$DIMTOL
 70
     1
  9
$DIMLIM
 70
     0
  9
$DIMTIH
 70
     1
  9
$DIMTOH
 70
     1
  9
$DIMSE1
 70
     0
  9
$DIMSE2
 70
     0
  9
$DIMTAD
 70
     0
  9
$DIMZIN
 70
     0
  9
$DIMBLK
  1

  9
$DIMASO
 70
     1
  9
$DIMSHO
 70
     1
  9
$DIMPOST
  1
\X
  9
$DIMAPOST
  1

  9
$DIMALT
 70
     1
  9
$DIMALTD
 70
     2
  9
$DIMALTF
 40
25.3999999999999986
  9
$DIMLFAC
 40
1.0
  9
$DIMTOFL
 70
     0
  9
$DIMTVP
 40
0.0
  9
$DIMTIX
 70
     0
  9
$DIMSOXD
 70
     0
  9
$DIMSAH
 70
     0
  9
$DIMBLK1
  1

  9
$DIMBLK2
  1

  9
$DIMSTYLE
  2
STANDARD
  9
$DIMCLRD
 70
     0
  9
$DIMCLRE
 70
     0
  9
$DIMCLRT
 70
     0
  9
$DIMTFAC
 40
1.0
  9
$DIMGAP
 40
0.09
  9
$LUNITS
 70
     2
  9
$LUPREC
 70
     4
  9
$SKETCHINC
 40
0.1
  9
$FILLETRAD
 40
0.0
  9
$AUNITS
 70
     0
  9
$AUPREC
 70
     0
  9
$MENU
  1
.
  9
$ELEVATION
 40
0.0
  9
$PELEVATION
 40
0.0
  9
$THICKNESS
 40
0.0
  9
$LIMCHECK
 70
     0
  9
$BLIPMODE
 70
     0
  9
$CHAMFERA
 40
0.0
  9
$CHAMFERB
 40
0.0
  9
$SKPOLY
 70
     0
  9
$TDCREATE
 40
2458060.468368056230247
  9
$TDUPDATE
 40
2459054.5423379628919065
  9
$TDINDWG
 40
0.3092084491
  9
$TDUSRTIMER
 40
0.3092084491
  9
$USRTIMER
 70
     1
  9
$ANGBASE
 50
0.0
  9
$ANGDIR
 70
     0
  9
$PDMODE
 70
     0
  9
$PDSIZE
 40
0.3125
  9
$PLINEWID
 40
0.0
  9
$COORDS
 70
     1
  9
$SPLFRAME
 70
     0
  9
$SPLINETYPE
 70
     6
  9
$SPLINESEGS
 70
     8
  9
$ATTDIA
 70
     1
  9
$ATTREQ
 70
     1
  9
$HANDLING
 70
     1
  9
$HANDSEED
  5
70C6
  9
$SURFTAB1
 70
     6
  9
$SURFTAB2
 70
     6
  9
$SURFTYPE
 70
     6
  9
$SURFU
 70
     6
  9
$SURFV
 70
     6
  9
$UCSNAME
  2

  9
$UCSORG
 10
0.0
 20
0.0
 30
0.0
  9
$UCSXDIR
 10
1.0
 20
0.0
 30
0.0
  9
$UCSYDIR
 10
0.0
 20
1.0
 30
0.0
  9
$PUCSNAME
  2

  9
$PUCSORG
 10
0.0
 20
0.0
 30
0.0
  9
$PUCSXDIR
 10
1.0
 20
0.0
 30
0.0
  9
$PUCSYDIR
 10
0.0
 20
1.0
 30
0.0
  9
$USERI1
 70
     0
  9
$USERI2
 70
     0
  9
$USERI3
 70
     0
  9
$USERI4
 70
     0
  9
$USERI5
 70
     0
  9
$USERR1
 40
0.0
  9
$USERR2
 40
0.0
  9
$USERR3
 40
0.0
  9
$USERR4
 40
0.0
  9
$USERR5
 40
0.0
  9
$WORLDVIEW
 70
     1
  9
$SHADEDGE
 70
     3
  9
$SHADEDIF
 70
    70
  9
$TILEMODE
 70
     1
  9
$MAXACTVP
 70
    64
  9
$PLIMCHECK
 70
     0
  9
$PEXTMIN
 10
1.0000000000000000E+20
 20
1.0000000000000000E+20
 30
1.0000000000000000E+20
  9
$PEXTMAX
 10
-1.0000000000000000E+20
 20
-1.0000000000000000E+20
 30
-1.0000000000000000E+20
  9
$PLIMMIN
 10
0.0
 20
0.0
  9
$PLIMMAX
 10
12.0
 20
9.0
  9
$UNITMODE
 70
     0
  9
$VISRETAIN
 70
     1
  9
$PLINEGEN
 70
     0
  9
$PSLTSCALE
 70
     1
  0
ENDSEC
  0
SECTION
  2
TABLES
  0
TABLE
  2
VPORT
 70
     1
  0
VPORT
  2
*ACTIVE
 70
     0
 10
0.0
 20
0.0
 11
1.0
 21
1.0
 12
0.0
 22
0.0
 13
0.0
 23
0.0
 14
1.0
 24
1.0
 15
0.0
 25
0.0
 16
0.0
 26
0.0
 36
16.8216869370335615
 17
2854.5823974609379547
 27
145.8547897338866903
 37
0.0
 40
4.0519074028585393
 41
3.314341846758349
 42
50.0
 43
0.0
 44
0.0
 50
0.0
 51
0.0
 71
     0
 72
   100
 73
     1
 74
     1
 75
     0
 76
     1
 77
     0
 78
     0
  0
ENDTAB
  0
TABLE
  2
LTYPE
 70
     2
  0
LTYPE
  2
CONTINUOUS
 70
     0
  3
Solid line
 72
    65
 73
     0
 40
0.0
  0
LTYPE
  2
PHANTOM2
 70
     0
  3
___ _ _ ___ _ _ ___ _ _ ___ _ _
 72
    65
 73
     6
 40
1.25
 49
0.625
 49
-0.125
 49
0.125
 49
-0.125
 49
0.125
 49
-0.125
  0
ENDTAB
  0
TABLE
  2
LAYER
 70
     2
  0
LAYER
  2
0
 70
     0
 62
   255
  6
CONTINUOUS
  0
LAYER
  2
DEFPOINTS
 70
     0
 62
     7
  6
CONTINUOUS
  0
ENDTAB
  0
TABLE
  2
STYLE
 70
     1
  0
STYLE
  2
STANDARD
 70
     0
 40
0.0
 41
0.8
 50
0.0
 71
     0
 42
0.2
  3
txt
  4

  0
ENDTAB
  0
TABLE
  2
VIEW
 70
     0
  0
ENDTAB
  0
TABLE
  2
UCS
 70
     0
  0
ENDTAB
  0
TABLE
  2
APPID
 70
    10
  0
APPID
  2
ACAD
 70
     0
  0
APPID
  2
ACAD_MLEADERVER
 70
     0
  0
APPID
  2
ACAD_EXEMPT_FROM_CAD_STANDARDS
 70
     0
  0
APPID
  2
ACAD_NAV_VCDISPLAY
 70
     0
  0
APPID
  2
ACAECLAYERSTANDARD
 70
     0
  0
APPID
  2
ACCMTRANSPARENCY
 70
     0
  0
APPID
  2
ACAD_DSTYLE_DIMJAG
 70
     0
  0
APPID
  2
ACAD_DSTYLE_DIMTALN
 70
     0
  0
APPID
  2
ACDBATTR
 70
     0
  0
APPID
  2
ACADANNOTATIVE
 70
     0
  0
ENDTAB
  0
TABLE
  2
DIMSTYLE
 70
     2
  0
DIMSTYLE
  2
STANDARD
 70
     0
  3

  4

  5

  6

  7

 40
1.0
 41
0.1875
 42
0.0625
 43
0.38
 44
0.125
 45
0.0
 46
0.0
 47
0.01
 48
0.01
140
0.15625
141
0.09
142
0.0
143
25.3999999999999986
144
1.0
145
0.0
146
1.0
147
0.09
 71
     1
 72
     0
 73
     1
 74
     1
 75
     0
 76
     0
 77
     0
 78
     4
170
     0
171
     2
172
     0
173
     0
174
     0
175
     0
176
     0
177
     0
178
     0
  0
DIMSTYLE
  2
ANNOTATIVE
 70
     0
  3

  4

  5

  6

  7

 40
0.0
 41
0.18
 42
0.0625
 43
0.38
 44
0.18
 45
0.0
 46
0.0
 47
0.0
 48
0.0
140
0.18
141
0.09
142
0.0
143
25.3999999999999986
144
1.0
145
0.0
146
1.0
147
0.09
 71
     0
 72
     0
 73
     1
 74
     1
 75
     0
 76
     0
 77
     0
 78
     0
170
     0
171
     2
172
     0
173
     0
174
     0
175
     0
176
     0
177
     0
178
     0
  0
ENDTAB
  0
ENDSEC
  0
SECTION
  2
BLOCKS
  0
BLOCK
  8
0
  2
$MODEL_SPACE
 70
     0
 10
0.0
 20
0.0
 30
0.0
  3
$MODEL_SPACE
  1

  0
ENDBLK
  5
21
  8
0
  0
BLOCK
 67
     1
  8
0
  2
$PAPER_SPACE
 70
     0
 10
0.0
 20
0.0
 30
0.0
  3
$PAPER_SPACE
  1

  0
ENDBLK
  5
1D
 67
     1
  8
0
  0
BLOCK
  8
0
  2
A$C29AE593B
 70
     2
 10
0.0
 20
0.0
 30
0.0
  3
A$C29AE593B
  1

  0
ATTDEF
  5
69A6
  8
DEFPOINTS
 10
0.0
 20
0.0
 30
0.0
 40
0.001
  1
BATHROOM SINK FAUCET
  3

  2
PRODUCT
 70
     0
1001
ACDBATTR
1070
     0
1070
     1
  0
ATTDEF
  5
69A7
  8
DEFPOINTS
 10
0.0
 20
0.0016666666666652
 30
0.0
 40
0.001
  1
COMPONENTS
  3

  2
TRADENAME
 70
     0
1001
ACDBATTR
1070
     0
1070
     1
  0
ATTDEF
  5
69A8
  8
DEFPOINTS
 10
0.0
 20
0.0033333333333303
 30
0.0
 40
0.001
  1
K-23889T
  3

  2
MODELNUMBER
 70
     0
1001
ACDBATTR
1070
     0
1070
     1
  0
ENDBLK
  5
69AC
  8
0
  0
ENDSEC
  0
SECTION
  2
ENTITIES
  0
ATTDEF
  5
3930
  8
DEFPOINTS
 10
2854.5774517025270143
 20
146.3179325544531935
 30
0.0
 40
0.001
  1
K-23890T-ND
  3

  2
MODELNUMBER
 70
     0
1001
ACDBATTR
1070
     0
1070
     1
  0
ATTDEF
  5
3931
  8
DEFPOINTS
 10
2854.5774517025270143
 20
146.3162658877864999
 30
0.0
 40
0.001
  1
COMPONENTS
  3

  2
TRADENAME
 70
     0
1001
ACDBATTR
1070
     0
1070
     1
  0
ATTDEF
  5
3932
  8
DEFPOINTS
 10
2854.5774517025270143
 20
146.3145992211198063
 30
0.0
 40
0.001
  1
BATHROOM SINK FAUCET
  3

  2
PRODUCT
 70
     0
1001
ACDBATTR
1070
     0
1070
     1
  0
LINE
  5
65B6
  8
0
 10
2854.7043689832162272
 20
144.6437960530053033
 30
0.0
 11
2854.6840844112871309
 21
144.6520765555032995
 31
0.0
  0
LINE
  5
65B7
  8
0
 10
2854.4518212275861515
 20
144.7676225520033029
 30
0.0
 11
2854.4301474033868544
 21
144.7764701706032895
 31
0.0
  0
LINE
  5
65B8
  8
0
 10
2854.7735895564478596
 20
144.6777358614579043
 30
0.0
 11
2854.7602655135870009
 21
144.683174959303301
 31
0.0
  0
LINE
  5
65B9
  8
0
 10
2854.8083754788531223
 20
144.7050002028522897
 30
0.0
 11
2854.7856592143862144
 21
144.7142733630032865
 31
0.0
  0
LINE
  5
65BA
  8
0
 10
2854.5533962452859669
 20
144.8298190541032966
 30
0.0
 11
2854.5317222064859379
 21
144.8386669781033049
 31
0.0
  0
LINE
  5
65BB
  8
0
 10
2854.8325421731387905
 20
144.7365994912530027
 30
0.0
 11
2854.8110529151867922
 21
144.745371766803288
 31
0.0
  0
LINE
  5
65BC
  8
0
 10
2854.8481083575670709
 20
144.7717096520285907
 30
0.0
 11
2854.8366022766858805
 21
144.7764701706032895
 31
0.0
  0
LINE
  5
65BD
  8
0
 10
2854.0903836238871918
 20
144.5622408557032941
 30
0.0
 11
2854.0903836238871918
 21
146.3200094904032937
 31
0.0
  0
LINE
  5
65BE
  8
0
 10
2854.2825838595858841
 20
144.6629295724033
 30
0.0
 11
2854.2825838595858841
 21
144.6378726736033116
 31
0.0
  0
LINE
  5
65BF
  8
0
 10
2854.3164464440869779
 20
144.6546374728033015
 30
0.0
 11
2854.3164464440869779
 21
144.6852625714033138
 31
0.0
  0
LINE
  5
65C0
  8
0
 10
2854.3284169395869867
 20
144.7783613132060907
 30
0.0
 11
2854.3284169395869867
 21
144.7438790603465009
 31
0.0
  0
LINE
  5
65C1
  8
0
 10
2854.3530273870860583
 20
144.7449884864032867
 30
0.0
 11
2854.3530273870860583
 21
144.7128573392033104
 31
0.0
  0
LINE
  5
65C2
  8
0
 10
2854.3858233698870208
 20
144.7116349077033135
 30
0.0
 11
2854.3858233698870208
 21
144.6847806711033115
 31
0.0
  0
LINE
  5
65C3
  8
0
 10
2854.3962101749862086
 20
144.628865450603314
 30
0.0
 11
2854.3962101749862086
 21
144.5982403521032893
 31
0.0
  0
LINE
  5
65C4
  8
0
 10
2854.4252261434871798
 20
144.7837946209033078
 30
0.0
 11
2854.4252261434871798
 21
144.7992113805186136
 31
0.0
  0
LINE
  5
65C5
  8
0
 10
2854.4350686631869394
 20
144.7992113804949952
 30
0.0
 11
2854.4350686631869394
 21
144.7837946209033078
 31
0.0
  0
LINE
  5
65C6
  8
0
 10
2854.4525755994859537
 20
144.6819643905579085
 30
0.0
 11
2854.4525755994859537
 21
144.6498332433033056
 31
0.0
  0
LINE
  5
65C7
  8
0
 10
2854.4555411041869775
 20
144.7679394207032999
 30
0.0
 11
2854.4555411041869775
 21
144.8094039590033049
 31
0.0
  0
LINE
  5
65C8
  8
0
 10
2854.4760135450869711
 20
144.7837946209033078
 30
0.0
 11
2854.4760135450869711
 21
144.7992113805186136
 31
0.0
  0
LINE
  5
65C9
  8
0
 10
2854.4858560647871855
 20
144.7992113804949952
 30
0.0
 11
2854.4858560647871855
 21
144.7837946209033078
 31
0.0
  0
LINE
  5
65CA
  8
0
 10
2854.5189297634869945
 20
144.5564694687033125
 30
0.0
 11
2854.5191263522870031
 21
144.5302471866033045
 31
0.0
  0
LINE
  5
65CB
  8
0
 10
2854.526108133085927
 20
144.5601970582033005
 30
0.0
 11
2854.526108133085927
 21
144.5908221568033127
 31
0.0
  0
LINE
  5
65CC
  8
0
 10
2854.7124436166868691
 20
144.6467858250761083
 30
0.0
 11
2854.7124436166868691
 21
144.6819643905033104
 31
0.0
  0
LINE
  5
65CD
  8
0
 10
2854.8119918290872192
 20
144.7088284763472075
 30
0.0
 11
2854.8119918290872192
 21
144.7449884864032867
 31
0.0
  0
LINE
  5
65CE
  8
0
 10
2854.8366022766858805
 20
144.7438934480416037
 30
0.0
 11
2854.8366022766858805
 21
144.778578411852493
 31
0.0
  0
LINE
  5
65CF
  8
0
 10
2854.5247408245868428
 20
144.5797711974032893
 30
0.0
 11
2854.5189297634869945
 21
144.5564694687033125
 31
0.0
  0
LINE
  5
65D0
  8
0
 10
2854.5191263522870031
 20
144.5302471866033045
 30
0.0
 11
2854.5254244787870448
 21
144.554671578503303
 31
0.0
  0
LINE
  5
65D1
  8
0
 10
2854.3939520000858465
 20
144.5931760032032969
 30
0.0
 11
2854.3747575130869336
 21
144.5739085967653921
 31
0.0
  0
LINE
  5
65D2
  8
0
 10
2854.3099964279858796
 20
144.6765010765033139
 30
0.0
 11
2854.2825838595858841
 21
144.6629295724033
 31
0.0
  0
LINE
  5
65D3
  8
0
 10
2854.2858088676857733
 20
144.6366852213033098
 30
0.0
 11
2854.313221436087133
 21
144.6502567254032954
 31
0.0
  0
LINE
  5
65D4
  8
0
 10
2854.3284169395869867
 20
144.7764701706032895
 30
0.0
 11
2854.3169041656060472
 21
144.7717069197956903
 31
0.0
  0
LINE
  5
65D5
  8
0
 10
2854.5571159072869705
 20
144.8301362282032869
 30
0.0
 11
2854.582509608086184
 21
144.8405023628033064
 31
0.0
  0
LINE
  5
65D6
  8
0
 10
2854.35396630098694
 20
144.745371766803288
 30
0.0
 11
2854.3324709641210575
 21
144.7365970097386878
 31
0.0
  0
LINE
  5
65D7
  8
0
 10
2854.480934804986191
 20
144.7764701706032895
 30
0.0
 11
2854.4592609807868939
 21
144.7676225520033029
 31
0.0
  0
LINE
  5
65D8
  8
0
 10
2854.3793600017861536
 20
144.7142733630032865
 30
0.0
 11
2854.3566383419210979
 21
144.7049980003596943
 31
0.0
  0
LINE
  5
65D9
  8
0
 10
2854.4047537025871861
 20
144.683174959303301
 30
0.0
 11
2854.3914252078379832
 21
144.6777340440795001
 31
0.0
  0
LINE
  5
65DA
  8
0
 10
2854.480934804986191
 20
144.6520765555032995
 30
0.0
 11
2854.4606467199478175
 21
144.6437946189388128
 31
0.0
  0
ARC
  5
65DB
  8
0
 10
2854.582514159963921
 20
145.0405225264609044
 30
0.0
 40
0.5141973712777811
 50
262.9188356684991845
 51
269.9990725460111776
  0
ARC
  5
65DC
  8
0
 10
2854.5825131828478334
 20
145.0142667889774089
 30
0.0
 40
0.4575596682880566
 50
262.9189279233092975
 51
269.9990800985780197
  0
ARC
  5
65DD
  8
0
 10
2854.582509608086184
 20
145.0159918243033133
 30
0.0
 40
0.3921331307
 50
266.5965435424952261
 51
269.9994489345253896
  0
ARC
  5
65DE
  8
0
 10
2854.582509608086184
 20
146.3200094904032937
 30
0.0
 40
1.1810600118000001
 50
90.0001829636298538
 51
245.3747399640182891
  0
ARC
  5
65DF
  8
0
 10
2854.582509608086184
 20
146.3200094904032937
 30
0.0
 40
0.5019685039000001
 50
90.0004304872216352
 51
191.3648769761205131
  0
ARC
  5
65E0
  8
0
 10
2854.5825096080147887
 20
146.3200094905743924
 30
0.0
 40
0.4921259841289458
 50
90.0004390887077363
 51
180.0000000199135002
  0
ARC
  5
65E1
  8
0
 10
2854.3643341326069276
 20
144.5644219558589896
 30
0.0
 40
0.2739591911700097
 50
180.4561597623680882
 51
214.4481494425187122
  0
ARC
  5
65E2
  8
0
 10
2854.48633817205382
 20
144.6542268810646021
 30
0.0
 40
0.4253973844872066
 50
215.1274979833112013
 51
247.6534938176179139
  0
ARC
  5
65E3
  8
0
 10
2854.6272261460139816
 20
145.0917239228550102
 30
0.0
 40
0.8843399694437879
 50
249.9886260154835895
 51
267.1013655405948839
  0
ARC
  5
65E4
  8
0
 10
2854.3546735895688471
 20
144.5597885873297912
 30
0.0
 40
0.2643013423735796
 50
148.5096089724312947
 51
179.4683846965799887
  0
ARC
  5
65E5
  8
0
 10
2854.5137442081681911
 20
144.4331389436460995
 30
0.0
 40
0.4667663851203347
 50
102.4805203493707069
 51
145.4509035491346083
  0
ARC
  5
65E6
  8
0
 10
2854.5946230545368962
 20
144.1284305472238998
 30
0.0
 40
0.7818629713070783
 50
90.8879986243436946
 51
103.4418536192799962
  0
ARC
  5
65E7
  8
0
 10
2854.5935228081780224
 20
144.8678303181802107
 30
0.0
 40
0.6188514884908785
 50
241.9730823964603985
 51
268.9799502252266166
  0
ARC
  5
65E8
  8
0
 10
2854.4400751404468792
 20
144.5824441881073028
 30
0.0
 40
0.2948336100752232
 50
193.9001758500282051
 51
242.2360835668733898
  0
ARC
  5
65E9
  8
0
 10
2854.3673890677109739
 20
144.5551024856137872
 30
0.0
 40
0.2178970207034204
 50
151.3527587941312049
 51
191.5120211433020074
  0
ARC
  5
65EA
  8
0
 10
2854.4581449050760966
 20
144.5041451753683077
 30
0.0
 40
0.3219752559105245
 50
121.3682200193224929
 51
151.137480658558303
  0
ARC
  5
65EB
  8
0
 10
2854.5633747827509978
 20
144.3374470444053088
 30
0.0
 40
0.5190938019293923
 50
101.9896196576137015
 51
121.7078555297688069
  0
ARC
  5
65EC
  8
0
 10
2854.6053086657898348
 20
144.0333826613052111
 30
0.0
 40
0.8255332993404126
 50
91.5828217592236342
 51
100.4524330523503011
  0
ARC
  5
65ED
  8
0
 10
2854.6131835036499069
 20
145.1921307823423035
 30
0.0
 40
0.7390599453519707
 50
249.8268094765186049
 51
267.6210238370956063
  0
ARC
  5
65EE
  8
0
 10
2854.4866394502378171
 20
144.826963959860791
 30
0.0
 40
0.352727082277635
 50
208.3321962831415135
 51
248.665319550747796
  0
ARC
  5
65EF
  8
0
 10
2854.5878645003781457
 20
145.0457112423422927
 30
0.0
 40
0.5774140288882876
 50
246.0035694583044972
 51
269.4682615746319811
  0
ARC
  5
65F0
  8
0
 10
2854.4762493153039031
 20
144.8073498062483111
 30
0.0
 40
0.3143026265276007
 50
203.8175621547476055
 51
246.9208455222320993
  0
ARC
  5
65F1
  8
0
 10
2854.5847735876241131
 20
145.016603527748714
 30
0.0
 40
0.4926093136950703
 50
238.0775657121778011
 51
269.736235148648575
  0
ARC
  5
65F2
  8
0
 10
2854.4582384719788024
 20
144.8090283521040931
 30
0.0
 40
0.2495299377403454
 50
199.7865095513863878
 51
237.535406582702791
  0
ARC
  5
65F3
  8
0
 10
2854.4987277221612203
 20
144.5607797372252037
 30
0.0
 40
0.0273866101830045
 50
347.1126738384044188
 51
358.7808798609920018
  0
ARC
  5
65F4
  8
0
 10
2854.574400366620921
 20
144.9965033386224889
 30
0.0
 40
0.4085454211002612
 50
244.1410231391168963
 51
263.2114634335580945
  0
ARC
  5
65F5
  8
0
 10
2854.3640694435589467
 20
144.6052607456757926
 30
0.0
 40
0.1626806987706584
 50
350.985493643736902
 51
354.9080610769560735
  0
ARC
  5
65F6
  8
0
 10
2854.3878139796261166
 20
144.5989485548475102
 30
0.0
 40
0.0084260101860979
 50
316.7575354383944841
 51
355.1786248950425033
  0
ARC
  5
65F7
  8
0
 10
2854.5097637171411407
 20
144.8638442771359109
 30
0.0
 40
0.3209540334091482
 50
225.0496118400293994
 51
244.8007191878668891
  0
ARC
  5
65F8
  8
0
 10
2854.3735777700157996
 20
144.57491090479229
 30
0.0
 40
0.0015480358824624
 50
252.4811689813074054
 51
319.6488188665175016
  0
ARC
  5
65F9
  8
0
 10
2854.2844244887451168
 20
144.6395761739665886
 30
0.0
 40
0.0032053256237419
 50
243.8442715045491127
 51
295.5881757755042827
  0
ARC
  5
65FA
  8
0
 10
2854.284280964277059
 20
144.6378264050840983
 30
0.0
 40
0.0016977352870261
 50
178.4383200587130034
 51
221.6071319598443097
  0
ARC
  5
65FB
  8
0
 10
2854.3107869252448836
 20
144.655426420677486
 30
0.0
 40
0.0057142446802811
 50
295.2166653742738731
 51
352.064000281886706
  0
ARC
  5
65FC
  8
0
 10
2854.3050203690268063
 20
144.686919265605809
 30
0.0
 40
0.0115455544233829
 50
295.5306269493777904
 51
351.7500384812395282
  0
ARC
  5
65FD
  8
0
 10
2854.461189727960118
 20
144.83240931660049
 30
0.0
 40
0.2064044157684918
 50
199.627056667937012
 51
225.4717704073792959
  0
ARC
  5
65FE
  8
0
 10
2854.5750099958540886
 20
145.0213345756772867
 30
0.0
 40
0.468235581886206
 50
246.9129217939936893
 51
263.1212134926831254
  0
ARC
  5
65FF
  8
0
 10
2854.5258862314281032
 20
144.8662485390075005
 30
0.0
 40
0.2977318724317035
 50
225.2954607769516997
 51
244.1799303439694881
  0
ARC
  5
6600
  8
0
 10
2854.4504501620699557
 20
144.8325004216478078
 30
0.0
 40
0.2386071424391488
 50
204.3023076953060979
 51
225.2894242800572044
  0
ARC
  5
6601
  8
0
 10
2854.5849562162547954
 20
145.0075547901462869
 30
0.0
 40
0.4037256488625118
 50
244.2042166076710998
 51
269.6522458368351067
  0
ARC
  5
6602
  8
0
 10
2854.5191515563351459
 20
144.8669935656986922
 30
0.0
 40
0.248542780086709
 50
214.3110739216458001
 51
243.7615950057725911
  0
ARC
  5
6603
  8
0
 10
2854.4700237879478664
 20
144.8785588716314123
 30
0.0
 40
0.2176928214277289
 50
209.2024748135021071
 51
224.1623742428683101
  0
ARC
  5
6604
  8
0
 10
2854.4651780618828525
 20
144.825809136128214
 30
0.0
 40
0.1807818983707827
 50
194.9865221896006062
 51
213.1720001850256097
  0
ARC
  5
6605
  8
0
 10
2854.5740008345328533
 20
144.9623469883543123
 30
0.0
 40
0.3381194572241728
 50
237.4063593742241949
 51
267.4962225467527901
  0
ARC
  5
6606
  8
0
 10
2854.4757233254890707
 20
144.8211171962473998
 30
0.0
 40
0.1663276915163497
 50
190.2108252780265047
 51
239.722801210983306
  0
ARC
  5
6607
  8
0
 10
2854.5917001013917798
 20
145.035345798769896
 30
0.0
 40
0.4216693194038098
 50
250.2853196905313098
 51
268.7505984044216802
  0
ARC
  5
6608
  8
0
 10
2854.5361930139220021
 20
144.8714977428587929
 30
0.0
 40
0.2487191090392396
 50
220.981218120916111
 51
249.5899661526819102
  0
ARC
  5
6609
  8
0
 10
2854.4664045525601068
 20
144.8103503185548107
 30
0.0
 40
0.1559333896751628
 50
186.9772140957425961
 51
220.8365899267488999
  0
LINE
  5
660A
  8
0
 10
2855.0746280492858205
 20
144.5622408557032941
 30
0.0
 11
2855.0746280492858205
 21
146.3200094904032937
 31
0.0
  0
LINE
  5
660B
  8
0
 10
2854.8824278135871282
 20
144.6629295724033
 30
0.0
 11
2854.8824278135871282
 21
144.6378726736033116
 31
0.0
  0
LINE
  5
660C
  8
0
 10
2854.8485652290869439
 20
144.6546374728033015
 30
0.0
 11
2854.8485652290869439
 21
144.6852625714033138
 31
0.0
  0
LINE
  5
660D
  8
0
 10
2854.7688014981868037
 20
144.628865450603314
 30
0.0
 11
2854.7688014981868037
 21
144.5982403521032893
 31
0.0
  0
LINE
  5
660E
  8
0
 10
2854.6460819096869272
 20
144.5564694687033125
 30
0.0
 11
2854.6458853208860091
 21
144.5302471866033045
 31
0.0
  0
LINE
  5
660F
  8
0
 10
2854.6389035400870853
 20
144.5601970582033005
 30
0.0
 11
2854.6389035400870853
 21
144.5908221568033127
 31
0.0
  0
LINE
  5
6610
  8
0
 10
2854.6402708485861694
 20
144.5797711974032893
 30
0.0
 11
2854.6460819096869272
 21
144.5564694687033125
 31
0.0
  0
LINE
  5
6611
  8
0
 10
2854.6458853208860091
 20
144.5302471866033045
 30
0.0
 11
2854.6395871943868769
 21
144.554671578503303
 31
0.0
  0
LINE
  5
6612
  8
0
 10
2854.7710596730858015
 20
144.5931760032032969
 30
0.0
 11
2854.7902541600869881
 21
144.5739085967653921
 31
0.0
  0
LINE
  5
6613
  8
0
 10
2854.8550152451871327
 20
144.6765010765033139
 30
0.0
 11
2854.8824278135871282
 21
144.6629295724033
 31
0.0
  0
LINE
  5
6614
  8
0
 10
2854.8792028054858747
 20
144.6366852213033098
 30
0.0
 11
2854.8517902370858792
 21
144.6502567254032954
 31
0.0
  0
ARC
  5
6615
  8
0
 10
2854.5824975132090913
 20
145.0405225264609044
 30
0.0
 40
0.5141973712777811
 50
270.0009274539888793
 51
277.0811643315008155
  0
ARC
  5
6616
  8
0
 10
2854.5824984903251789
 20
145.0142667889774089
 30
0.0
 40
0.4575596682880566
 50
270.0009199014219803
 51
277.0810720766904751
  0
ARC
  5
6617
  8
0
 10
2854.5825020650868282
 20
145.0159918243033133
 30
0.0
 40
0.3921331307
 50
270.0005510654746104
 51
273.4034564575047739
  0
ARC
  5
6618
  8
0
 10
2854.5825020650868282
 20
146.3200094904032937
 30
0.0
 40
1.1810600118000001
 50
294.6252600359816824
 51
89.9998170363701462
  0
ARC
  5
6619
  8
0
 10
2854.5825020650868282
 20
146.3200094904032937
 30
0.0
 40
0.5019685039000001
 50
348.6351230238794869
 51
89.9995695127783932
  0
ARC
  5
661A
  8
0
 10
2854.5825020651568593
 20
146.3200094905735966
 30
0.0
 40
0.4921259841298707
 50
359.9999999801723902
 51
89.999560911239314
  0
ARC
  5
661B
  8
0
 10
2854.8006775405660846
 20
144.5644219558589896
 30
0.0
 40
0.2739591911700097
 50
325.5518505574813162
 51
359.5438402376319118
  0
ARC
  5
661C
  8
0
 10
2854.678673501117828
 20
144.6542268810646021
 30
0.0
 40
0.4253973844872066
 50
292.3465061823820861
 51
324.8725020166888271
  0
ARC
  5
661D
  8
0
 10
2854.5377855271590306
 20
145.0917239228595008
 30
0.0
 40
0.8843399694481721
 50
272.8986344594196112
 51
290.0113739844426277
  0
ARC
  5
661E
  8
0
 10
2854.8103380836028009
 20
144.5597885873297912
 30
0.0
 40
0.2643013423735796
 50
0.5316153034200033
 51
31.4903910275686805
  0
ARC
  5
661F
  8
0
 10
2854.6512674650048211
 20
144.4331389436460995
 30
0.0
 40
0.4667663851203347
 50
34.5490964508653278
 51
77.5194796506292647
  0
ARC
  5
6620
  8
0
 10
2854.5703886186370255
 20
144.1284305472238998
 30
0.0
 40
0.7818629713070783
 50
76.5581463807200038
 51
89.1120013756563054
  0
ARC
  5
6621
  8
0
 10
2854.5714888649949899
 20
144.8678303181802107
 30
0.0
 40
0.6188514884908785
 50
271.0200497747733834
 51
298.0269176035395731
  0
ARC
  5
6622
  8
0
 10
2854.7249365327270425
 20
144.5824441881073028
 30
0.0
 40
0.2948336100752232
 50
297.7639164331266102
 51
346.0998241499718233
  0
ARC
  5
6623
  8
0
 10
2854.7976226054620383
 20
144.5551024856137872
 30
0.0
 40
0.2178970207034204
 50
348.4879788566963157
 51
28.6472412058687382
  0
ARC
  5
6624
  8
0
 10
2854.7068667680969156
 20
144.5041451753683077
 30
0.0
 40
0.3219752559105245
 50
28.8625193414416792
 51
58.6317799806775071
  0
ARC
  5
6625
  8
0
 10
2854.6016368904220144
 20
144.3374470444053088
 30
0.0
 40
0.5190938019293923
 50
58.2921444702312073
 51
78.0103803423862843
  0
ARC
  5
6626
  8
0
 10
2854.5597030073831775
 20
144.0333826613052111
 30
0.0
 40
0.8255332993404126
 50
79.5475669476496705
 51
88.4171782407763658
  0
ARC
  5
6627
  8
0
 10
2854.5518281695231053
 20
145.1921307823423035
 30
0.0
 40
0.7390599453519707
 50
272.3789761629043937
 51
290.1731905234814235
  0
ARC
  5
6628
  8
0
 10
2854.6783722229351952
 20
144.826963959860791
 30
0.0
 40
0.352727082277635
 50
291.3346804492522892
 51
331.6678037168584865
  0
ARC
  5
6629
  8
0
 10
2854.5771471727948665
 20
145.0457112423422927
 30
0.0
 40
0.5774140288882876
 50
270.5317384253679052
 51
293.9964305416954744
  0
ARC
  5
662A
  8
0
 10
2854.6887623578691091
 20
144.8073498062483111
 30
0.0
 40
0.3143026265276007
 50
293.0791544777678723
 51
336.1824378452524229
  0
ARC
  5
662B
  8
0
 10
2854.5802380855479896
 20
145.016603527748714
 30
0.0
 40
0.4926093136950703
 50
270.263764851351425
 51
301.9224342878222274
  0
ARC
  5
662C
  8
0
 10
2854.7067732011928456
 20
144.8090283521040931
 30
0.0
 40
0.2495299377403454
 50
302.4645934172971806
 51
340.213490448613527
  0
ARC
  5
662D
  8
0
 10
2854.6662839510117919
 20
144.5607797372252037
 30
0.0
 40
0.0273866101830045
 50
181.2191201390079982
 51
192.8873261615956096
  0
ARC
  5
662E
  8
0
 10
2854.5906113065520913
 20
144.9965033386224889
 30
0.0
 40
0.4085454211002612
 50
276.7885365664420192
 51
295.8589768608831037
  0
ARC
  5
662F
  8
0
 10
2854.8009422296140656
 20
144.6052607456757926
 30
0.0
 40
0.1626806987706584
 50
185.0919389230438981
 51
189.014506356263098
  0
ARC
  5
6630
  8
0
 10
2854.7771976935468956
 20
144.5989485548475102
 30
0.0
 40
0.0084260101860979
 50
184.8213751049574967
 51
223.2424645616042937
  0
ARC
  5
6631
  8
0
 10
2854.6552479560318716
 20
144.8638442771359109
 30
0.0
 40
0.3209540334091482
 50
295.1992808121329972
 51
314.9503881599716806
  0
ARC
  5
6632
  8
0
 10
2854.7914339031572126
 20
144.57491090479229
 30
0.0
 40
0.0015480358824624
 50
220.3511811334824131
 51
287.5188310186925946
  0
ARC
  5
6633
  8
0
 10
2854.8805871844278954
 20
144.6395761739665886
 30
0.0
 40
0.0032053256237419
 50
244.4118242244956889
 51
296.1557284954508873
  0
ARC
  5
6634
  8
0
 10
2854.8807307088968628
 20
144.6378264050840983
 30
0.0
 40
0.0016977352870261
 50
318.392868040155804
 51
1.5616799412870019
  0
ARC
  5
6635
  8
0
 10
2854.8542247479281286
 20
144.655426420677486
 30
0.0
 40
0.0057142446802811
 50
187.935999718113294
 51
244.7833346257260985
  0
ARC
  5
6636
  8
0
 10
2854.8599913041462059
 20
144.686919265605809
 30
0.0
 40
0.0115455544233829
 50
188.2499615187603865
 51
244.4693730506222096
  0
ARC
  5
6637
  8
0
 10
2854.7038219452128942
 20
144.83240931660049
 30
0.0
 40
0.2064044157684918
 50
314.5282295926022016
 51
340.3729433320614817
  0
ARC
  5
6638
  8
0
 10
2854.5900016773189236
 20
145.0213345756772867
 30
0.0
 40
0.468235581886206
 50
276.8787865073168746
 51
293.0870782060063107
  0
ARC
  5
6639
  8
0
 10
2854.6391254417458185
 20
144.8662485390075005
 30
0.0
 40
0.2977318724317035
 50
295.8200696560305119
 51
314.7045392230483003
  0
ARC
  5
663A
  8
0
 10
2854.7145615111030565
 20
144.8325004216478078
 30
0.0
 40
0.2386071424391488
 50
314.710575719942824
 51
335.6976923046938737
  0
ARC
  5
663B
  8
0
 10
2854.5800554569191263
 20
145.0075547901462869
 30
0.0
 40
0.4037256488625118
 50
270.347754163165007
 51
295.7957833923288717
  0
ARC
  5
663C
  8
0
 10
2854.6458601168378664
 20
144.8669935656986922
 30
0.0
 40
0.248542780086709
 50
296.2384049942273236
 51
325.6889260783541999
  0
ARC
  5
663D
  8
0
 10
2854.6949878852237816
 20
144.8785588716314123
 30
0.0
 40
0.2176928214277289
 50
315.8376257571317183
 51
330.7975251864979214
  0
ARC
  5
663E
  8
0
 10
2854.6998336112901598
 20
144.825809136128214
 30
0.0
 40
0.1807818983707827
 50
326.8279998149744188
 51
345.0134778103994222
  0
ARC
  5
663F
  8
0
 10
2854.5910108386401589
 20
144.9623469883543123
 30
0.0
 40
0.3381194572241728
 50
272.5037774532470962
 51
302.5936406257757767
  0
ARC
  5
6640
  8
0
 10
2854.6892883476839415
 20
144.8211171962473998
 30
0.0
 40
0.1663276915163497
 50
300.2771987890167225
 51
349.7891747219734953
  0
ARC
  5
6641
  8
0
 10
2854.573311571782142
 20
145.035345798769896
 30
0.0
 40
0.4216693194038098
 50
271.2494015955783766
 51
289.7146803094685765
  0
ARC
  5
6642
  8
0
 10
2854.6288186592501006
 20
144.8714977428587929
 30
0.0
 40
0.2487191090392396
 50
290.4100338473174929
 51
319.0187818790839174
  0
ARC
  5
6643
  8
0
 10
2854.6986071206138149
 20
144.8103503185548107
 30
0.0
 40
0.1559333896751628
 50
319.1634100732511001
 51
353.0227859042573755
  0
ARC
  5
6644
  8
0
 10
2854.4532617172221762
 20
144.7727050993132991
 30
0.0
 40
0.005282735801494
 50
254.1762713374411078
 51
295.5614266552507274
  0
ARC
  5
6645
  8
0
 10
2854.4578394578479674
 20
144.772927758625201
 30
0.0
 40
0.0054923532994335
 50
245.262331351983903
 51
284.9999708631627868
  0
ARC
  5
6646
  8
0
 10
2854.4326302828580992
 20
144.7854822258211982
 30
0.0
 40
0.007594029904665
 50
192.8399189644642036
 51
250.9161519505373121
  0
ARC
  5
6647
  8
0
 10
2854.4276572049679999
 20
144.7854887875388101
 30
0.0
 40
0.0076026254354129
 50
289.119806389526218
 51
347.1241238527861128
  0
ARC
  5
6648
  8
0
 10
2854.4834322330170835
 20
144.7854952694326016
 30
0.0
 40
0.0076111192362235
 50
192.9113163244736029
 51
250.844754590559802
  0
ARC
  5
6649
  8
0
 10
2854.4784609799989994
 20
144.7854741078257916
 30
0.0
 40
0.0075833999853004
 50
289.0392508953821107
 51
347.2046793469493196
  0
LINE
  5
664A
  8
0
 10
2854.401033825964987
 20
144.7676225520118862
 30
0.0
 11
2854.3793600017647805
 21
144.7764701706119013
 31
0.0
  0
LINE
  5
664B
  8
0
 10
2854.3744387418660153
 20
144.7837946209118911
 30
0.0
 11
2854.3744387418660153
 21
144.799211380527197
 31
0.0
  0
LINE
  5
664C
  8
0
 10
2854.3842812615657749
 20
144.7992113804864118
 30
0.0
 11
2854.3842812615657749
 21
144.7837946209118911
 31
0.0
  0
LINE
  5
664D
  8
0
 10
2854.404753702565813
 20
144.7679394207119117
 30
0.0
 11
2854.404753702565813
 21
144.8094039590118882
 31
0.0
  0
LINE
  5
664E
  8
0
 10
2854.430147403365936
 20
144.7764701706119013
 30
0.0
 11
2854.4084735791661842
 21
144.7676225520118862
 31
0.0
  0
ARC
  5
664F
  8
0
 10
2854.4024743156001023
 20
144.7727050993219109
 30
0.0
 40
0.005282735801494
 50
254.1762713374411078
 51
295.5614266552507274
  0
ARC
  5
6650
  8
0
 10
2854.407052056226803
 20
144.7729277586338128
 30
0.0
 40
0.0054923532994335
 50
245.262331351983903
 51
284.9999708631627868
  0
ARC
  5
6651
  8
0
 10
2854.3818428812369348
 20
144.78548222582981
 30
0.0
 40
0.007594029904665
 50
192.8399189644642036
 51
250.9161519505373121
  0
ARC
  5
6652
  8
0
 10
2854.3768698033468354
 20
144.7854887875473935
 30
0.0
 40
0.0076026254354129
 50
289.119806389526218
 51
347.1241238527861128
  0
LINE
  5
6653
  8
0
 10
2854.3502464243651957
 20
144.7676225520118862
 30
0.0
 11
2854.3284169395651588
 21
144.7764701706119013
 31
0.0
  0
LINE
  5
6654
  8
0
 10
2854.323651340266224
 20
144.7837946209118911
 30
0.0
 11
2854.323651340266224
 21
144.7978718985613114
 31
0.0
  0
LINE
  5
6655
  8
0
 10
2854.3334938599659836
 20
144.8028642083999955
 30
0.0
 11
2854.3334938599659836
 21
144.7837946209118911
 31
0.0
  0
LINE
  5
6656
  8
0
 10
2854.3539663009660217
 20
144.7679394207119117
 30
0.0
 11
2854.3539663009660217
 21
144.8094039590118882
 31
0.0
  0
LINE
  5
6657
  8
0
 10
2854.3793600017647805
 20
144.7764701706119013
 30
0.0
 11
2854.3576861775659381
 21
144.7676225520118862
 31
0.0
  0
ARC
  5
6658
  8
0
 10
2854.3516869140012204
 20
144.7727050993219109
 30
0.0
 40
0.005282735801494
 50
254.1762713374411078
 51
295.5614266552507274
  0
ARC
  5
6659
  8
0
 10
2854.3562646546270116
 20
144.7729277586338128
 30
0.0
 40
0.0054923532994335
 50
245.262331351983903
 51
284.9999708631627868
  0
ARC
  5
665A
  8
0
 10
2854.3310554796371434
 20
144.78548222582981
 30
0.0
 40
0.007594029904665
 50
192.8399189644642036
 51
250.9161519505373121
  0
ARC
  5
665B
  8
0
 10
2854.3260824017470441
 20
144.7854887875473935
 30
0.0
 40
0.0076026254354129
 50
289.119806389526218
 51
347.1241238527861128
  0
LINE
  5
665C
  8
0
 10
2854.5533960306652261
 20
144.7676225520033029
 30
0.0
 11
2854.5317222064650196
 21
144.7764701706032895
 31
0.0
  0
LINE
  5
665D
  8
0
 10
2854.5268009465657997
 20
144.7837946209033078
 30
0.0
 11
2854.5268009465657997
 21
144.7992113805260885
 31
0.0
  0
LINE
  5
665E
  8
0
 10
2854.536643466266014
 20
144.7992113804681082
 30
0.0
 11
2854.536643466266014
 21
144.7837946209033078
 31
0.0
  0
LINE
  5
665F
  8
0
 10
2854.5571159072651426
 20
144.7679394207032999
 30
0.0
 11
2854.5571159072651426
 21
144.8094039590033049
 31
0.0
  0
LINE
  5
6660
  8
0
 10
2854.5775883481660458
 20
144.7837946209033078
 30
0.0
 11
2854.5775883481660458
 21
144.799211380527197
 31
0.0
  0
LINE
  5
6661
  8
0
 10
2854.5874308678658053
 20
144.7992113804864118
 30
0.0
 11
2854.5874308678658053
 21
144.7837946209033078
 31
0.0
  0
LINE
  5
6662
  8
0
 10
2854.5825096080648109
 20
144.7764701706032895
 30
0.0
 11
2854.5608357838659686
 21
144.7676225520033029
 31
0.0
  0
ARC
  5
6663
  8
0
 10
2854.5548365203007961
 20
144.7727050993132991
 30
0.0
 40
0.005282735801494
 50
254.1762713374411078
 51
295.5614266552507274
  0
ARC
  5
6664
  8
0
 10
2854.5594142609270421
 20
144.772927758625201
 30
0.0
 40
0.0054923532994335
 50
245.262331351983903
 51
284.9999708631627868
  0
ARC
  5
6665
  8
0
 10
2854.5342050859371739
 20
144.7854822258211982
 30
0.0
 40
0.007594029904665
 50
192.8399189644642036
 51
250.9161519505373121
  0
ARC
  5
6666
  8
0
 10
2854.5292320080470745
 20
144.7854887875388101
 30
0.0
 40
0.0076026254354129
 50
289.119806389526218
 51
347.1241238527861128
  0
ARC
  5
6667
  8
0
 10
2854.5850070360961581
 20
144.7854952694326016
 30
0.0
 40
0.0076111192362235
 50
192.9113163244736029
 51
250.844754590559802
  0
ARC
  5
6668
  8
0
 10
2854.580035783078074
 20
144.7854741078257916
 30
0.0
 40
0.0075833999853004
 50
289.0392508953821107
 51
347.2046793469493196
  0
LINE
  5
6669
  8
0
 10
2854.6549708338648088
 20
144.7676225520118862
 30
0.0
 11
2854.6332970096659665
 21
144.7764701706119013
 31
0.0
  0
LINE
  5
666A
  8
0
 10
2854.6283757497649276
 20
144.7837946209118911
 30
0.0
 11
2854.6283757497649276
 21
144.7992113805260885
 31
0.0
  0
LINE
  5
666B
  8
0
 10
2854.6382182694660514
 20
144.7992113804681082
 30
0.0
 11
2854.6382182694660514
 21
144.7837946209118911
 31
0.0
  0
LINE
  5
666C
  8
0
 10
2854.65869071046518
 20
144.7679394207119117
 30
0.0
 11
2854.65869071046518
 21
144.8094039590118882
 31
0.0
  0
LINE
  5
666D
  8
0
 10
2854.6791631513651737
 20
144.7837946209118911
 30
0.0
 11
2854.6791631513651737
 21
144.799211380527197
 31
0.0
  0
LINE
  5
666E
  8
0
 10
2854.6890056710658428
 20
144.7992113804864118
 30
0.0
 11
2854.6890056710658428
 21
144.7837946209118911
 31
0.0
  0
LINE
  5
666F
  8
0
 10
2854.6840844112662126
 20
144.7764701706119013
 30
0.0
 11
2854.662410587066006
 21
144.7676225520118862
 31
0.0
  0
ARC
  5
6670
  8
0
 10
2854.6564113235008335
 20
144.7727050993219109
 30
0.0
 40
0.005282735801494
 50
254.1762713374411078
 51
295.5614266552507274
  0
ARC
  5
6671
  8
0
 10
2854.6609890641270795
 20
144.7729277586338128
 30
0.0
 40
0.0054923532994335
 50
245.262331351983903
 51
284.9999708631627868
  0
ARC
  5
6672
  8
0
 10
2854.6357798891372113
 20
144.78548222582981
 30
0.0
 40
0.007594029904665
 50
192.8399189644642036
 51
250.9161519505373121
  0
ARC
  5
6673
  8
0
 10
2854.6308068112471119
 20
144.7854887875473935
 30
0.0
 40
0.0076026254354129
 50
289.119806389526218
 51
347.1241238527861128
  0
ARC
  5
6674
  8
0
 10
2854.6865818392961955
 20
144.7854952694412134
 30
0.0
 40
0.0076111192362235
 50
192.9113163244736029
 51
250.844754590559802
  0
ARC
  5
6675
  8
0
 10
2854.6816105862781114
 20
144.7854741078344034
 30
0.0
 40
0.0075833999853004
 50
289.0392508953821107
 51
347.2046793469493196
  0
LINE
  5
6676
  8
0
 10
2854.7565456369648018
 20
144.7676225520118862
 30
0.0
 11
2854.7348718127659595
 21
144.7764701706119013
 31
0.0
  0
LINE
  5
6677
  8
0
 10
2854.7299505528649206
 20
144.7837946209118911
 30
0.0
 11
2854.7299505528649206
 21
144.7992113805260885
 31
0.0
  0
LINE
  5
6678
  8
0
 10
2854.7397930725651349
 20
144.7992113804681082
 30
0.0
 11
2854.7397930725651349
 21
144.7837946209118911
 31
0.0
  0
LINE
  5
6679
  8
0
 10
2854.760265513565173
 20
144.7679394207119117
 30
0.0
 11
2854.760265513565173
 21
144.8094039590118882
 31
0.0
  0
LINE
  5
667A
  8
0
 10
2854.7807379544651667
 20
144.7837946209118911
 30
0.0
 11
2854.7807379544651667
 21
144.799211380527197
 31
0.0
  0
LINE
  5
667B
  8
0
 10
2854.7905804741658358
 20
144.7992113804864118
 30
0.0
 11
2854.7905804741658358
 21
144.7837946209118911
 31
0.0
  0
LINE
  5
667C
  8
0
 10
2854.7856592143648413
 20
144.7764701706119013
 30
0.0
 11
2854.763985390165999
 21
144.7676225520118862
 31
0.0
  0
ARC
  5
667D
  8
0
 10
2854.7579861266008265
 20
144.7727050993219109
 30
0.0
 40
0.005282735801494
 50
254.1762713374411078
 51
295.5614266552507274
  0
ARC
  5
667E
  8
0
 10
2854.7625638672270725
 20
144.7729277586338128
 30
0.0
 40
0.0054923532994335
 50
245.262331351983903
 51
284.9999708631627868
  0
ARC
  5
667F
  8
0
 10
2854.7373546922372043
 20
144.78548222582981
 30
0.0
 40
0.007594029904665
 50
192.8399189644642036
 51
250.9161519505373121
  0
ARC
  5
6680
  8
0
 10
2854.7323816143471049
 20
144.7854887875473935
 30
0.0
 40
0.0076026254354129
 50
289.119806389526218
 51
347.1241238527861128
  0
ARC
  5
6681
  8
0
 10
2854.7881566423961885
 20
144.7854952694412134
 30
0.0
 40
0.0076111192362235
 50
192.9113163244736029
 51
250.844754590559802
  0
ARC
  5
6682
  8
0
 10
2854.7831853893781044
 20
144.7854741078344034
 30
0.0
 40
0.0075833999853004
 50
289.0392508953821107
 51
347.2046793469493196
  0
LINE
  5
6683
  8
0
 10
2854.375640125164864
 20
144.7987209557119002
 30
0.0
 11
2854.3539663009660217
 21
144.8075685743118868
 31
0.0
  0
LINE
  5
6684
  8
0
 10
2854.3793600017647805
 20
144.7990378244118972
 30
0.0
 11
2854.3793600017647805
 21
144.8228303316953998
 31
0.0
  0
LINE
  5
6685
  8
0
 10
2854.3998324426647741
 20
144.814893024611905
 30
0.0
 11
2854.3998324426647741
 21
144.8301054232044009
 31
0.0
  0
LINE
  5
6686
  8
0
 10
2854.4096749623649885
 20
144.8332642893807929
 30
0.0
 11
2854.4096749623649885
 21
144.814893024611905
 31
0.0
  0
LINE
  5
6687
  8
0
 10
2854.404753702565813
 20
144.8075685743118868
 30
0.0
 11
2854.3830798783651517
 21
144.7987209557119002
 31
0.0
  0
ARC
  5
6688
  8
0
 10
2854.3770806148008887
 20
144.8038035030218964
 30
0.0
 40
0.005282735801494
 50
254.1762713374411078
 51
295.5614266552507274
  0
ARC
  5
6689
  8
0
 10
2854.3816583554271347
 20
144.8040261623337983
 30
0.0
 40
0.0054923532994335
 50
245.262331351983903
 51
284.9999708631627868
  0
ARC
  5
668A
  8
0
 10
2854.3564491804368117
 20
144.8165806295297955
 30
0.0
 40
0.007594029904665
 50
225.491465067182304
 51
250.9161519505373121
  0
ARC
  5
668B
  8
0
 10
2854.3514761025471671
 20
144.8165871912474074
 30
0.0
 40
0.0076026254354129
 50
289.119806389526218
 51
344.2762604473282977
  0
ARC
  5
668C
  8
0
 10
2854.407251130595796
 20
144.8165936731411989
 30
0.0
 40
0.0076111192362235
 50
192.9113163244736029
 51
250.844754590559802
  0
ARC
  5
668D
  8
0
 10
2854.4022798775781666
 20
144.8165725115343889
 30
0.0
 40
0.0075833999853004
 50
289.0392508953821107
 51
347.2046793469493196
  0
LINE
  5
668E
  8
0
 10
2854.4772149283658109
 20
144.7987209557119002
 30
0.0
 11
2854.4555411041660591
 21
144.8075685743118868
 31
0.0
  0
LINE
  5
668F
  8
0
 10
2854.4506198442659297
 20
144.814893024611905
 30
0.0
 11
2854.4506198442659297
 21
144.83030978432609
 31
0.0
  0
LINE
  5
6690
  8
0
 10
2854.4604623639647798
 20
144.8303097842681098
 30
0.0
 11
2854.4604623639647798
 21
144.814893024611905
 31
0.0
  0
LINE
  5
6691
  8
0
 10
2854.4809348049661821
 20
144.7990378244118972
 30
0.0
 11
2854.4809348049661821
 21
144.8405023627119022
 31
0.0
  0
LINE
  5
6692
  8
0
 10
2854.5014072458648116
 20
144.814893024611905
 30
0.0
 11
2854.5014072458648116
 21
144.8303097842913019
 31
0.0
  0
LINE
  5
6693
  8
0
 10
2854.5112497655659354
 20
144.8303097843030116
 30
0.0
 11
2854.5112497655659354
 21
144.814893024611905
 31
0.0
  0
LINE
  5
6694
  8
0
 10
2854.5063285057649409
 20
144.8075685743118868
 30
0.0
 11
2854.4846546815651891
 21
144.7987209557119002
 31
0.0
  0
ARC
  5
6695
  8
0
 10
2854.4786554180009261
 20
144.8038035030218964
 30
0.0
 40
0.005282735801494
 50
254.1762713374411078
 51
295.5614266552507274
  0
ARC
  5
6696
  8
0
 10
2854.4832331586271721
 20
144.8040261623337983
 30
0.0
 40
0.0054923532994335
 50
245.262331351983903
 51
284.9999708631627868
  0
ARC
  5
6697
  8
0
 10
2854.4580239836368492
 20
144.8165806295297955
 30
0.0
 40
0.007594029904665
 50
192.8399189644642036
 51
250.9161519505373121
  0
ARC
  5
6698
  8
0
 10
2854.453050905748114
 20
144.8165871912474074
 30
0.0
 40
0.0076026254354129
 50
289.119806389526218
 51
347.1241238527861128
  0
ARC
  5
6699
  8
0
 10
2854.5088259337958334
 20
144.8165936731411989
 30
0.0
 40
0.0076111192362235
 50
192.9113163244736029
 51
250.844754590559802
  0
ARC
  5
669A
  8
0
 10
2854.5038546807782041
 20
144.8165725115343889
 30
0.0
 40
0.0075833999853004
 50
289.0392508953821107
 51
347.2046793469493196
  0
LINE
  5
669B
  8
0
 10
2854.5787897314658039
 20
144.7987209557119002
 30
0.0
 11
2854.5571159072651426
 21
144.8075685743118868
 31
0.0
  0
LINE
  5
669C
  8
0
 10
2854.5521946473659227
 20
144.814893024611905
 30
0.0
 11
2854.5521946473659227
 21
144.830309578605096
 31
0.0
  0
LINE
  5
669D
  8
0
 10
2854.5620371670647728
 20
144.8321451689903085
 30
0.0
 11
2854.5620371670647728
 21
144.814893024611905
 31
0.0
  0
LINE
  5
669E
  8
0
 10
2854.5825096080648109
 20
144.7990378244118972
 30
0.0
 11
2854.5825096080648109
 21
144.8405023627119022
 31
0.0
  0
LINE
  5
669F
  8
0
 10
2854.6029820489661688
 20
144.814893024611905
 30
0.0
 11
2854.6029820489661688
 21
144.8322240945080068
 31
0.0
  0
LINE
  5
66A0
  8
0
 10
2854.6128245686659284
 20
144.8301936811924975
 30
0.0
 11
2854.6128245686659284
 21
144.814893024611905
 31
0.0
  0
LINE
  5
66A1
  8
0
 10
2854.6079033088649339
 20
144.8075685743118868
 30
0.0
 11
2854.5862294846651821
 21
144.7987209557119002
 31
0.0
  0
ARC
  5
66A2
  8
0
 10
2854.5802302211009192
 20
144.8038035030218964
 30
0.0
 40
0.005282735801494
 50
254.1762713374411078
 51
295.5614266552507274
  0
ARC
  5
66A3
  8
0
 10
2854.5848079617271651
 20
144.8040261623337983
 30
0.0
 40
0.0054923532994335
 50
245.262331351983903
 51
284.9999708631627868
  0
ARC
  5
66A4
  8
0
 10
2854.5595987867368422
 20
144.8165806295297955
 30
0.0
 40
0.007594029904665
 50
192.8399189644642036
 51
250.9161519505373121
  0
ARC
  5
66A5
  8
0
 10
2854.5546257088471975
 20
144.8165871912474074
 30
0.0
 40
0.0076026254354129
 50
289.119806389526218
 51
347.1241238527861128
  0
ARC
  5
66A6
  8
0
 10
2854.6104007368958264
 20
144.8165936731411989
 30
0.0
 40
0.0076111192362235
 50
192.9113163244736029
 51
250.844754590559802
  0
ARC
  5
66A7
  8
0
 10
2854.6054294838781971
 20
144.8165725115343889
 30
0.0
 40
0.0075833999853004
 50
289.0392508953821107
 51
347.2046793469493196
  0
LINE
  5
66A8
  8
0
 10
2854.6803645346658413
 20
144.7987209557119002
 30
0.0
 11
2854.65869071046518
 21
144.8075685743118868
 31
0.0
  0
LINE
  5
66A9
  8
0
 10
2854.6537694505659601
 20
144.814893024611905
 30
0.0
 11
2854.6537694505659601
 21
144.83030978432609
 31
0.0
  0
LINE
  5
66AA
  8
0
 10
2854.6636119702648102
 20
144.8303097842681098
 30
0.0
 11
2854.6636119702648102
 21
144.814893024611905
 31
0.0
  0
LINE
  5
66AB
  8
0
 10
2854.6840844112662126
 20
144.7990378244118972
 30
0.0
 11
2854.6840844112662126
 21
144.8405023627119022
 31
0.0
  0
LINE
  5
66AC
  8
0
 10
2854.7045568521662062
 20
144.814893024611905
 30
0.0
 11
2854.7045568521662062
 21
144.8303097842853049
 31
0.0
  0
LINE
  5
66AD
  8
0
 10
2854.7143993718659658
 20
144.8303097843090086
 30
0.0
 11
2854.7143993718659658
 21
144.814893024611905
 31
0.0
  0
LINE
  5
66AE
  8
0
 10
2854.7094781120658809
 20
144.8075685743118868
 30
0.0
 11
2854.6878042878652195
 21
144.7987209557119002
 31
0.0
  0
ARC
  5
66AF
  8
0
 10
2854.6818050243009566
 20
144.8038035030218964
 30
0.0
 40
0.005282735801494
 50
254.1762713374411078
 51
295.5614266552507274
  0
ARC
  5
66B0
  8
0
 10
2854.6863827649272025
 20
144.8040261623337983
 30
0.0
 40
0.0054923532994335
 50
245.262331351983903
 51
284.9999708631627868
  0
ARC
  5
66B1
  8
0
 10
2854.6611735899368796
 20
144.8165806295297955
 30
0.0
 40
0.007594029904665
 50
192.8399189644642036
 51
250.9161519505373121
  0
ARC
  5
66B2
  8
0
 10
2854.6562005120467802
 20
144.8165871912474074
 30
0.0
 40
0.0076026254354129
 50
289.119806389526218
 51
347.1241238527861128
  0
ARC
  5
66B3
  8
0
 10
2854.7119755400958638
 20
144.8165936731411989
 30
0.0
 40
0.0076111192362235
 50
192.9113163244736029
 51
250.844754590559802
  0
ARC
  5
66B4
  8
0
 10
2854.7070042870777797
 20
144.8165725115343889
 30
0.0
 40
0.0075833999853004
 50
289.0392508953821107
 51
347.2046793469493196
  0
LINE
  5
66B5
  8
0
 10
2854.7819393377658344
 20
144.7987209557119002
 30
0.0
 11
2854.760265513565173
 21
144.8075685743118868
 31
0.0
  0
LINE
  5
66B6
  8
0
 10
2854.7553442536659531
 20
144.814893024611905
 30
0.0
 11
2854.7553442536659531
 21
144.8332619510856034
 31
0.0
  0
LINE
  5
66B7
  8
0
 10
2854.7651867733648032
 20
144.8301029192213889
 30
0.0
 11
2854.7651867733648032
 21
144.814893024611905
 31
0.0
  0
LINE
  5
66B8
  8
0
 10
2854.7856592143648413
 20
144.7990378244118972
 30
0.0
 11
2854.7856592143648413
 21
144.8228274720000002
 31
0.0
  0
LINE
  5
66B9
  8
0
 10
2854.8110529151649644
 20
144.8075685743118868
 30
0.0
 11
2854.7893790909652125
 21
144.7987209557119002
 31
0.0
  0
ARC
  5
66BA
  8
0
 10
2854.7833798274009496
 20
144.8038035030218964
 30
0.0
 40
0.005282735801494
 50
254.1762713374411078
 51
295.5614266552507274
  0
ARC
  5
66BB
  8
0
 10
2854.7879575680271955
 20
144.8040261623337983
 30
0.0
 40
0.0054923532994335
 50
245.262331351983903
 51
284.9999708631627868
  0
ARC
  5
66BC
  8
0
 10
2854.7627483930368726
 20
144.8165806295297955
 30
0.0
 40
0.007594029904665
 50
192.8399189644642036
 51
250.9161519505373121
  0
ARC
  5
66BD
  8
0
 10
2854.7577753151467732
 20
144.8165871912474074
 30
0.0
 40
0.0076026254354129
 50
289.119806389526218
 51
347.1241238527861128
  0
ARC
  5
66BE
  8
0
 10
2854.8135503431958568
 20
144.8165936731411989
 30
0.0
 40
0.0076111192362235
 50
195.7861067521700988
 51
250.844754590559802
  0
ARC
  5
66BF
  8
0
 10
2854.8085790901777727
 20
144.8165725115343889
 30
0.0
 40
0.0075833999853004
 50
289.0392508953821107
 51
314.4821731070518922
  0
LINE
  5
66C0
  8
0
 10
2854.4518212275861515
 20
144.8298193595022099
 30
0.0
 11
2854.4301474033868544
 21
144.8386669781021965
 31
0.0
  0
LINE
  5
66C1
  8
0
 10
2854.4555411041869775
 20
144.8301362282022069
 30
0.0
 11
2854.4555411041869775
 21
144.8452169460032906
 31
0.0
  0
LINE
  5
66C2
  8
0
 10
2854.4760135450869711
 20
144.8459914284021863
 30
0.0
 11
2854.4760135450869711
 21
144.8487279869692088
 31
0.0
  0
LINE
  5
66C3
  8
0
 10
2854.4858560647871855
 20
144.8502279982162975
 30
0.0
 11
2854.4858560647871855
 21
144.8459914284021863
 31
0.0
  0
LINE
  5
66C4
  8
0
 10
2854.480934804986191
 20
144.8386669781021965
 30
0.0
 11
2854.4592609807868939
 21
144.8298193595022099
 31
0.0
  0
ARC
  5
66C5
  8
0
 10
2854.4532617172221762
 20
144.8349019068122061
 30
0.0
 40
0.005282735801494
 50
254.1762713374411078
 51
295.5614266552507274
  0
ARC
  5
66C6
  8
0
 10
2854.4578394578479674
 20
144.8351245661241933
 30
0.0
 40
0.0054923532994335
 50
245.262331351983903
 51
284.9999708631627868
  0
ARC
  5
66C7
  8
0
 10
2854.4834322330170835
 20
144.8476920769315086
 30
0.0
 40
0.0076111192362235
 50
192.9113163244736029
 51
250.844754590559802
  0
ARC
  5
66C8
  8
0
 10
2854.4784609799989994
 20
144.8476709153246986
 30
0.0
 40
0.0075833999853004
 50
289.0392508953821107
 51
347.2046793469493196
  0
LINE
  5
66C9
  8
0
 10
2854.7057582353859289
 20
144.8298193595022099
 30
0.0
 11
2854.684084411186177
 21
144.8386669781021965
 31
0.0
  0
LINE
  5
66CA
  8
0
 10
2854.6791631512869571
 20
144.8459914284021863
 30
0.0
 11
2854.6791631512869571
 21
144.8502268951334884
 31
0.0
  0
LINE
  5
66CB
  8
0
 10
2854.6890056709858072
 20
144.8487267908020897
 30
0.0
 11
2854.6890056709858072
 21
144.8459914284021863
 31
0.0
  0
LINE
  5
66CC
  8
0
 10
2854.7094781119872096
 20
144.8301362282022069
 30
0.0
 11
2854.7094781119872096
 21
144.8452153440588859
 31
0.0
  0
LINE
  5
66CD
  8
0
 10
2854.7348718127859684
 20
144.8386669781021965
 30
0.0
 11
2854.7131979885862165
 21
144.8298193595022099
 31
0.0
  0
ARC
  5
66CE
  8
0
 10
2854.7071987250219536
 20
144.8349019068122061
 30
0.0
 40
0.005282735801494
 50
254.1762713374411078
 51
295.5614266552507274
  0
ARC
  5
66CF
  8
0
 10
2854.7117764656481995
 20
144.8351245661241933
 30
0.0
 40
0.0054923532994335
 50
245.262331351983903
 51
284.9999708631627868
  0
ARC
  5
66D0
  8
0
 10
2854.6865672906578766
 20
144.8476790333201052
 30
0.0
 40
0.007594029904665
 50
192.8399189644642036
 51
250.9161519505373121
  0
ARC
  5
66D1
  8
0
 10
2854.6815942127691414
 20
144.8476855950376887
 30
0.0
 40
0.0076026254354129
 50
289.119806389526218
 51
347.1241238527861128
  0
LINE
  5
66D2
  8
0
 10
2854.375640125164864
 20
144.7365241482119131
 30
0.0
 11
2854.3539663009660217
 21
144.7453717668118998
 31
0.0
  0
LINE
  5
66D3
  8
0
 10
2854.3490450410658923
 20
144.7526962171118896
 30
0.0
 11
2854.3490450410658923
 21
144.7681129768272115
 31
0.0
  0
LINE
  5
66D4
  8
0
 10
2854.3588875607661066
 20
144.7681129767863979
 30
0.0
 11
2854.3588875607661066
 21
144.7526962171118896
 31
0.0
  0
LINE
  5
66D5
  8
0
 10
2854.3793600017647805
 20
144.7368410169119102
 30
0.0
 11
2854.3793600017647805
 21
144.7783055552118867
 31
0.0
  0
LINE
  5
66D6
  8
0
 10
2854.3998324426647741
 20
144.7526962171118896
 30
0.0
 11
2854.3998324426647741
 21
144.7681129768272115
 31
0.0
  0
LINE
  5
66D7
  8
0
 10
2854.4096749623649885
 20
144.7681129767863979
 30
0.0
 11
2854.4096749623649885
 21
144.7526962171118896
 31
0.0
  0
LINE
  5
66D8
  8
0
 10
2854.404753702565813
 20
144.7453717668118998
 30
0.0
 11
2854.3830798783651517
 21
144.7365241482119131
 31
0.0
  0
ARC
  5
66D9
  8
0
 10
2854.3770806148008887
 20
144.7416066955219094
 30
0.0
 40
0.005282735801494
 50
254.1762713374411078
 51
295.5614266552507274
  0
ARC
  5
66DA
  8
0
 10
2854.3816583554271347
 20
144.7418293548338113
 30
0.0
 40
0.0054923532994335
 50
245.262331351983903
 51
284.9999708631627868
  0
ARC
  5
66DB
  8
0
 10
2854.3564491804368117
 20
144.7543838220298085
 30
0.0
 40
0.007594029904665
 50
192.8399189644642036
 51
250.9161519505373121
  0
ARC
  5
66DC
  8
0
 10
2854.3514761025471671
 20
144.7543903837473067
 30
0.0
 40
0.0076026254354129
 50
289.119806389526218
 51
347.1241238527861128
  0
ARC
  5
66DD
  8
0
 10
2854.407251130595796
 20
144.7543968656412119
 30
0.0
 40
0.0076111192362235
 50
192.9113163244736029
 51
250.844754590559802
  0
ARC
  5
66DE
  8
0
 10
2854.4022798775781666
 20
144.7543757040344019
 30
0.0
 40
0.0075833999853004
 50
289.0392508953821107
 51
347.2046793469493196
  0
LINE
  5
66DF
  8
0
 10
2854.4772149283658109
 20
144.7365241482119131
 30
0.0
 11
2854.4555411041660591
 21
144.7453717668118998
 31
0.0
  0
LINE
  5
66E0
  8
0
 10
2854.4506198442659297
 20
144.7526962171118896
 30
0.0
 11
2854.4506198442659297
 21
144.7681129768272115
 31
0.0
  0
LINE
  5
66E1
  8
0
 10
2854.4604623639647798
 20
144.7681129767692028
 30
0.0
 11
2854.4604623639647798
 21
144.7526962171118896
 31
0.0
  0
LINE
  5
66E2
  8
0
 10
2854.4809348049661821
 20
144.7368410169119102
 30
0.0
 11
2854.4809348049661821
 21
144.7783055552118867
 31
0.0
  0
LINE
  5
66E3
  8
0
 10
2854.5014072458648116
 20
144.7526962171118896
 30
0.0
 11
2854.5014072458648116
 21
144.7681129767863979
 31
0.0
  0
LINE
  5
66E4
  8
0
 10
2854.5112497655659354
 20
144.7681129768272115
 30
0.0
 11
2854.5112497655659354
 21
144.7526962171118896
 31
0.0
  0
LINE
  5
66E5
  8
0
 10
2854.5063285057649409
 20
144.7453717668118998
 30
0.0
 11
2854.4846546815651891
 21
144.7365241482119131
 31
0.0
  0
ARC
  5
66E6
  8
0
 10
2854.4786554180009261
 20
144.7416066955219094
 30
0.0
 40
0.005282735801494
 50
254.1762713374411078
 51
295.5614266552507274
  0
ARC
  5
66E7
  8
0
 10
2854.4832331586271721
 20
144.7418293548338113
 30
0.0
 40
0.0054923532994335
 50
245.262331351983903
 51
284.9999708631627868
  0
ARC
  5
66E8
  8
0
 10
2854.4580239836368492
 20
144.7543838220298085
 30
0.0
 40
0.007594029904665
 50
192.8399189644642036
 51
250.9161519505373121
  0
ARC
  5
66E9
  8
0
 10
2854.453050905748114
 20
144.7543903837473067
 30
0.0
 40
0.0076026254354129
 50
289.119806389526218
 51
347.1241238527861128
  0
ARC
  5
66EA
  8
0
 10
2854.5088259337958334
 20
144.7543968656412119
 30
0.0
 40
0.0076111192362235
 50
192.9113163244736029
 51
250.844754590559802
  0
ARC
  5
66EB
  8
0
 10
2854.5038546807782041
 20
144.7543757040344019
 30
0.0
 40
0.0075833999853004
 50
289.0392508953821107
 51
347.2046793469493196
  0
LINE
  5
66EC
  8
0
 10
2854.5787859599649892
 20
144.7365226096424919
 30
0.0
 11
2854.5571121357647826
 21
144.745370228242507
 31
0.0
  0
LINE
  5
66ED
  8
0
 10
2854.5521908758660174
 20
144.7526946785424968
 30
0.0
 11
2854.5521908758660174
 21
144.7681145164081897
 31
0.0
  0
LINE
  5
66EE
  8
0
 10
2854.5620333955648675
 20
144.7681114371883098
 30
0.0
 11
2854.5620333955648675
 21
144.7526946785424968
 31
0.0
  0
LINE
  5
66EF
  8
0
 10
2854.5825058365658151
 20
144.736839478342489
 30
0.0
 11
2854.5825058365658151
 21
144.7783040166424939
 31
0.0
  0
LINE
  5
66F0
  8
0
 10
2854.6029782774658088
 20
144.7526946785424968
 30
0.0
 11
2854.6029782774658088
 21
144.7681145164081897
 31
0.0
  0
LINE
  5
66F1
  8
0
 10
2854.6128207971660231
 20
144.7681114371883098
 30
0.0
 11
2854.6128207971660231
 21
144.7526946785424968
 31
0.0
  0
LINE
  5
66F2
  8
0
 10
2854.6078995373659382
 20
144.745370228242507
 30
0.0
 11
2854.5862257131648221
 21
144.7365226096424919
 31
0.0
  0
ARC
  5
66F3
  8
0
 10
2854.5802264496010139
 20
144.7416051569526019
 30
0.0
 40
0.005282735801494
 50
254.1762713374411078
 51
295.5614266552507274
  0
ARC
  5
66F4
  8
0
 10
2854.5848041902268051
 20
144.7418278162643901
 30
0.0
 40
0.0054923532994335
 50
245.262331351983903
 51
284.9999708631627868
  0
ARC
  5
66F5
  8
0
 10
2854.5595950152369369
 20
144.7543822834603873
 30
0.0
 40
0.007594029904665
 50
192.8399189644642036
 51
250.9161519505373121
  0
ARC
  5
66F6
  8
0
 10
2854.5546219373468375
 20
144.7543888451779992
 30
0.0
 40
0.0076026254354129
 50
289.119806389526218
 51
347.1241238527861128
  0
ARC
  5
66F7
  8
0
 10
2854.6103969653959211
 20
144.7543953270717907
 30
0.0
 40
0.0076111192362235
 50
192.9113163244736029
 51
250.844754590559802
  0
ARC
  5
66F8
  8
0
 10
2854.605425712377837
 20
144.7543741654650091
 30
0.0
 40
0.0075833999853004
 50
289.0392508953821107
 51
347.2046793469493196
  0
LINE
  5
66F9
  8
0
 10
2854.6803645346658413
 20
144.7365241482119131
 30
0.0
 11
2854.65869071046518
 21
144.7453717668118998
 31
0.0
  0
LINE
  5
66FA
  8
0
 10
2854.6537694505659601
 20
144.7526962171118896
 30
0.0
 11
2854.6537694505659601
 21
144.7681129768272115
 31
0.0
  0
LINE
  5
66FB
  8
0
 10
2854.6636119702648102
 20
144.7681129767863979
 30
0.0
 11
2854.6636119702648102
 21
144.7526962171118896
 31
0.0
  0
LINE
  5
66FC
  8
0
 10
2854.6840844112662126
 20
144.7368410169119102
 30
0.0
 11
2854.6840844112662126
 21
144.7783055552118867
 31
0.0
  0
LINE
  5
66FD
  8
0
 10
2854.7045568521662062
 20
144.7526962171118896
 30
0.0
 11
2854.7045568521662062
 21
144.7681129767777861
 31
0.0
  0
LINE
  5
66FE
  8
0
 10
2854.7143993718659658
 20
144.7681129768185997
 30
0.0
 11
2854.7143993718659658
 21
144.7526962171118896
 31
0.0
  0
LINE
  5
66FF
  8
0
 10
2854.7094781120658809
 20
144.7453717668118998
 30
0.0
 11
2854.6878042878652195
 21
144.7365241482119131
 31
0.0
  0
ARC
  5
6700
  8
0
 10
2854.6818050243009566
 20
144.7416066955219094
 30
0.0
 40
0.005282735801494
 50
254.1762713374411078
 51
295.5614266552507274
  0
ARC
  5
6701
  8
0
 10
2854.6863827649272025
 20
144.7418293548338113
 30
0.0
 40
0.0054923532994335
 50
245.262331351983903
 51
284.9999708631627868
  0
ARC
  5
6702
  8
0
 10
2854.6611735899368796
 20
144.7543838220298085
 30
0.0
 40
0.007594029904665
 50
192.8399189644642036
 51
250.9161519505373121
  0
ARC
  5
6703
  8
0
 10
2854.6562005120467802
 20
144.7543903837473067
 30
0.0
 40
0.0076026254354129
 50
289.119806389526218
 51
347.1241238527861128
  0
ARC
  5
6704
  8
0
 10
2854.7119755400958638
 20
144.7543968656412119
 30
0.0
 40
0.0076111192362235
 50
192.9113163244736029
 51
250.844754590559802
  0
ARC
  5
6705
  8
0
 10
2854.7070042870777797
 20
144.7543757040344019
 30
0.0
 40
0.0075833999853004
 50
289.0392508953821107
 51
347.2046793469493196
  0
LINE
  5
6706
  8
0
 10
2854.7819393377658344
 20
144.7365241482119131
 30
0.0
 11
2854.760265513565173
 21
144.7453717668118998
 31
0.0
  0
LINE
  5
6707
  8
0
 10
2854.7553442536659531
 20
144.7526962171118896
 30
0.0
 11
2854.7553442536659531
 21
144.7681129768272115
 31
0.0
  0
LINE
  5
6708
  8
0
 10
2854.7651867733648032
 20
144.7681129767863979
 30
0.0
 11
2854.7651867733648032
 21
144.7526962171118896
 31
0.0
  0
LINE
  5
6709
  8
0
 10
2854.7856592143648413
 20
144.7368410169119102
 30
0.0
 11
2854.7856592143648413
 21
144.7783055552118867
 31
0.0
  0
LINE
  5
670A
  8
0
 10
2854.8061316552661992
 20
144.7526962171118896
 30
0.0
 11
2854.8061316552661992
 21
144.7681129768185997
 31
0.0
  0
LINE
  5
670B
  8
0
 10
2854.8159741749659588
 20
144.7681129767777861
 30
0.0
 11
2854.8159741749659588
 21
144.7526962171118896
 31
0.0
  0
LINE
  5
670C
  8
0
 10
2854.8110529151649644
 20
144.7453717668118998
 30
0.0
 11
2854.7893790909652125
 21
144.7365241482119131
 31
0.0
  0
ARC
  5
670D
  8
0
 10
2854.7833798274009496
 20
144.7416066955219094
 30
0.0
 40
0.005282735801494
 50
254.1762713374411078
 51
295.5614266552507274
  0
ARC
  5
670E
  8
0
 10
2854.7879575680271955
 20
144.7418293548338113
 30
0.0
 40
0.0054923532994335
 50
245.262331351983903
 51
284.9999708631627868
  0
ARC
  5
670F
  8
0
 10
2854.7627483930368726
 20
144.7543838220298085
 30
0.0
 40
0.007594029904665
 50
192.8399189644642036
 51
250.9161519505373121
  0
ARC
  5
6710
  8
0
 10
2854.7577753151467732
 20
144.7543903837473067
 30
0.0
 40
0.0076026254354129
 50
289.119806389526218
 51
347.1241238527861128
  0
ARC
  5
6711
  8
0
 10
2854.8135503431958568
 20
144.7543968656412119
 30
0.0
 40
0.0076111192362235
 50
192.9113163244736029
 51
250.844754590559802
  0
ARC
  5
6712
  8
0
 10
2854.8085790901777727
 20
144.7543757040344019
 30
0.0
 40
0.0075833999853004
 50
289.0392508953821107
 51
347.2046793469493196
  0
LINE
  5
6713
  8
0
 10
2854.401033825964987
 20
144.7054257444119116
 30
0.0
 11
2854.3793600017647805
 21
144.7142733630118983
 31
0.0
  0
LINE
  5
6714
  8
0
 10
2854.3744387418660153
 20
144.7215978133118881
 30
0.0
 11
2854.3744387418660153
 21
144.7370145730272952
 31
0.0
  0
LINE
  5
6715
  8
0
 10
2854.3842812615657749
 20
144.7370145729863964
 30
0.0
 11
2854.3842812615657749
 21
144.7215978133118881
 31
0.0
  0
LINE
  5
6716
  8
0
 10
2854.404753702565813
 20
144.7057426131119087
 30
0.0
 11
2854.404753702565813
 21
144.7472071514119136
 31
0.0
  0
LINE
  5
6717
  8
0
 10
2854.4252261434658067
 20
144.7215978133118881
 30
0.0
 11
2854.4252261434658067
 21
144.7370145730272952
 31
0.0
  0
LINE
  5
6718
  8
0
 10
2854.435068663166021
 20
144.7370145729863964
 30
0.0
 11
2854.435068663166021
 21
144.7215978133118881
 31
0.0
  0
LINE
  5
6719
  8
0
 10
2854.430147403365936
 20
144.7142733630118983
 30
0.0
 11
2854.4084735791661842
 21
144.7054257444119116
 31
0.0
  0
ARC
  5
671A
  8
0
 10
2854.4024743156001023
 20
144.7105082917219079
 30
0.0
 40
0.005282735801494
 50
254.1762713374411078
 51
295.5614266552507274
  0
ARC
  5
671B
  8
0
 10
2854.407052056226803
 20
144.7107309510338098
 30
0.0
 40
0.0054923532994335
 50
245.262331351983903
 51
284.9999708631627868
  0
ARC
  5
671C
  8
0
 10
2854.3818428812369348
 20
144.723285418229807
 30
0.0
 40
0.007594029904665
 50
192.8399189644642036
 51
250.9161519505373121
  0
ARC
  5
671D
  8
0
 10
2854.3768698033468354
 20
144.7232919799473052
 30
0.0
 40
0.0076026254354129
 50
289.119806389526218
 51
347.1241238527861128
  0
ARC
  5
671E
  8
0
 10
2854.432644831395919
 20
144.7232984618412104
 30
0.0
 40
0.0076111192362235
 50
192.9113163244736029
 51
250.844754590559802
  0
ARC
  5
671F
  8
0
 10
2854.4276735783778349
 20
144.7232773002344004
 30
0.0
 40
0.0075833999853004
 50
289.0392508953821107
 51
347.2046793469493196
  0
LINE
  5
6720
  8
0
 10
2854.5026086290649801
 20
144.7054257444119116
 30
0.0
 11
2854.4809348048647735
 21
144.7142733630118983
 31
0.0
  0
LINE
  5
6721
  8
0
 10
2854.4760135449660083
 20
144.7215978133118881
 30
0.0
 11
2854.4760135449660083
 21
144.7370145730681088
 31
0.0
  0
LINE
  5
6722
  8
0
 10
2854.4858560646648584
 20
144.7370145729456112
 30
0.0
 11
2854.4858560646648584
 21
144.7215978133118881
 31
0.0
  0
LINE
  5
6723
  8
0
 10
2854.5063285056648965
 20
144.7057426131119087
 30
0.0
 11
2854.5063285056648965
 21
144.7472071514119136
 31
0.0
  0
LINE
  5
6724
  8
0
 10
2854.5268009465657997
 20
144.7215978133118881
 30
0.0
 11
2854.5268009465657997
 21
144.73701457302721
 31
0.0
  0
LINE
  5
6725
  8
0
 10
2854.536643466266014
 20
144.7370145729863964
 30
0.0
 11
2854.536643466266014
 21
144.7215978133118881
 31
0.0
  0
LINE
  5
6726
  8
0
 10
2854.5317222064650196
 20
144.7142733630118983
 30
0.0
 11
2854.5100483822661772
 21
144.7054257444119116
 31
0.0
  0
ARC
  5
6727
  8
0
 10
2854.5040491187000953
 20
144.7105082917219079
 30
0.0
 40
0.005282735801494
 50
254.1762713374411078
 51
295.5614266552507274
  0
ARC
  5
6728
  8
0
 10
2854.508626859326796
 20
144.7107309510338098
 30
0.0
 40
0.0054923532994335
 50
245.262331351983903
 51
284.9999708631627868
  0
ARC
  5
6729
  8
0
 10
2854.4834176843369278
 20
144.723285418229807
 30
0.0
 40
0.007594029904665
 50
192.8399189644642036
 51
250.9161519505373121
  0
ARC
  5
672A
  8
0
 10
2854.4784446064468284
 20
144.7232919799473052
 30
0.0
 40
0.0076026254354129
 50
289.119806389526218
 51
347.1241238527861128
  0
ARC
  5
672B
  8
0
 10
2854.534219634495912
 20
144.7232984618412104
 30
0.0
 40
0.0076111192362235
 50
192.9113163244736029
 51
250.844754590559802
  0
ARC
  5
672C
  8
0
 10
2854.5292483814778279
 20
144.7232773002344004
 30
0.0
 40
0.0075833999853004
 50
289.0392508953821107
 51
347.2046793469493196
  0
LINE
  5
672D
  8
0
 10
2854.6041834322650175
 20
144.7054257444119116
 30
0.0
 11
2854.5825096080648109
 21
144.7142733630118983
 31
0.0
  0
LINE
  5
672E
  8
0
 10
2854.5775883481660458
 20
144.7215978133118881
 30
0.0
 11
2854.5775883481660458
 21
144.7370114948683124
 31
0.0
  0
LINE
  5
672F
  8
0
 10
2854.5874308678658053
 20
144.7370145740065936
 30
0.0
 11
2854.5874308678658053
 21
144.7215978133118881
 31
0.0
  0
LINE
  5
6730
  8
0
 10
2854.6079033088649339
 20
144.7057426131119087
 30
0.0
 11
2854.6079033088649339
 21
144.7472071514119136
 31
0.0
  0
LINE
  5
6731
  8
0
 10
2854.6283757497649276
 20
144.7215978133118881
 30
0.0
 11
2854.6283757497649276
 21
144.7370145730272952
 31
0.0
  0
LINE
  5
6732
  8
0
 10
2854.6382182694660514
 20
144.7370145729863964
 30
0.0
 11
2854.6382182694660514
 21
144.7215978133118881
 31
0.0
  0
LINE
  5
6733
  8
0
 10
2854.6332970096659665
 20
144.7142733630118983
 30
0.0
 11
2854.6116231854662146
 21
144.7054257444119116
 31
0.0
  0
ARC
  5
6734
  8
0
 10
2854.6056239219010422
 20
144.7105082917219079
 30
0.0
 40
0.005282735801494
 50
254.1762713374411078
 51
295.5614266552507274
  0
ARC
  5
6735
  8
0
 10
2854.6102016625268334
 20
144.7107309510338098
 30
0.0
 40
0.0054923532994335
 50
245.262331351983903
 51
284.9999708631627868
  0
ARC
  5
6736
  8
0
 10
2854.5849924875369652
 20
144.723285418229807
 30
0.0
 40
0.007594029904665
 50
192.8399189644642036
 51
250.9161519505373121
  0
ARC
  5
6737
  8
0
 10
2854.5800194096468658
 20
144.7232919799473052
 30
0.0
 40
0.0076026254354129
 50
289.119806389526218
 51
347.1241238527861128
  0
ARC
  5
6738
  8
0
 10
2854.6357944376959495
 20
144.7232984618412104
 30
0.0
 40
0.0076111192362235
 50
192.9113163244736029
 51
250.844754590559802
  0
ARC
  5
6739
  8
0
 10
2854.6308231846778654
 20
144.7232773002344004
 30
0.0
 40
0.0075833999853004
 50
289.0392508953821107
 51
347.2046793469493196
  0
LINE
  5
673A
  8
0
 10
2854.70575823536592
 20
144.7054257444119116
 30
0.0
 11
2854.6840844111648039
 21
144.7142733630118983
 31
0.0
  0
LINE
  5
673B
  8
0
 10
2854.6791631512651293
 20
144.7215978133118881
 30
0.0
 11
2854.6791631512651293
 21
144.7370145730681088
 31
0.0
  0
LINE
  5
673C
  8
0
 10
2854.6890056709657983
 20
144.7370145729456112
 30
0.0
 11
2854.6890056709657983
 21
144.7215978133118881
 31
0.0
  0
LINE
  5
673D
  8
0
 10
2854.7094781119658364
 20
144.7057426131119087
 30
0.0
 11
2854.7094781119658364
 21
144.7472071514119136
 31
0.0
  0
LINE
  5
673E
  8
0
 10
2854.7299505528649206
 20
144.7215978133118881
 30
0.0
 11
2854.7299505528649206
 21
144.7370145730272952
 31
0.0
  0
LINE
  5
673F
  8
0
 10
2854.7397930725651349
 20
144.7370145729863964
 30
0.0
 11
2854.7397930725651349
 21
144.7215978133118881
 31
0.0
  0
LINE
  5
6740
  8
0
 10
2854.7348718127659595
 20
144.7142733630118983
 30
0.0
 11
2854.7131979885648434
 21
144.7054257444119116
 31
0.0
  0
ARC
  5
6741
  8
0
 10
2854.7071987250010352
 20
144.7105082917219079
 30
0.0
 40
0.005282735801494
 50
254.1762713374411078
 51
295.5614266552507274
  0
ARC
  5
6742
  8
0
 10
2854.7117764656268264
 20
144.7107309510338098
 30
0.0
 40
0.0054923532994335
 50
245.262331351983903
 51
284.9999708631627868
  0
ARC
  5
6743
  8
0
 10
2854.6865672906369582
 20
144.723285418229807
 30
0.0
 40
0.007594029904665
 50
192.8399189644642036
 51
250.9161519505373121
  0
ARC
  5
6744
  8
0
 10
2854.6815942127468588
 20
144.7232919799473052
 30
0.0
 40
0.0076026254354129
 50
289.119806389526218
 51
347.1241238527861128
  0
ARC
  5
6745
  8
0
 10
2854.7373692407959425
 20
144.7232984618412104
 30
0.0
 40
0.0076111192362235
 50
192.9113163244736029
 51
250.844754590559802
  0
ARC
  5
6746
  8
0
 10
2854.7323979877778584
 20
144.7232773002344004
 30
0.0
 40
0.0075833999853004
 50
289.0392508953821107
 51
347.2046793469493196
  0
LINE
  5
6747
  8
0
 10
2854.4264275267660196
 20
144.6743273407118977
 30
0.0
 11
2854.404753702565813
 21
144.6831749593119127
 31
0.0
  0
LINE
  5
6748
  8
0
 10
2854.3998324426647741
 20
144.6904994096119026
 30
0.0
 11
2854.3998324426647741
 21
144.7059161692272937
 31
0.0
  0
LINE
  5
6749
  8
0
 10
2854.4096749623649885
 20
144.7059161691863949
 30
0.0
 11
2854.4096749623649885
 21
144.6904994096119026
 31
0.0
  0
LINE
  5
674A
  8
0
 10
2854.430147403365936
 20
144.6746442094118947
 30
0.0
 11
2854.430147403365936
 21
144.7161087477118997
 31
0.0
  0
LINE
  5
674B
  8
0
 10
2854.4506198442659297
 20
144.6904994096119026
 30
0.0
 11
2854.4506198442659297
 21
144.7059161692272937
 31
0.0
  0
LINE
  5
674C
  8
0
 10
2854.4604623639647798
 20
144.7059161691863949
 30
0.0
 11
2854.4604623639647798
 21
144.6904994096119026
 31
0.0
  0
LINE
  5
674D
  8
0
 10
2854.4555411041660591
 20
144.6831749593119127
 30
0.0
 11
2854.433867279964943
 21
144.6743273407118977
 31
0.0
  0
ARC
  5
674E
  8
0
 10
2854.4278680164011348
 20
144.6794098880218939
 30
0.0
 40
0.005282735801494
 50
254.1762713374411078
 51
295.5614266552507274
  0
ARC
  5
674F
  8
0
 10
2854.432445757026926
 20
144.6796325473337959
 30
0.0
 40
0.0054923532994335
 50
245.262331351983903
 51
284.9999708631627868
  0
ARC
  5
6750
  8
0
 10
2854.4072365820370578
 20
144.692187014529793
 30
0.0
 40
0.007594029904665
 50
192.8399189644642036
 51
250.9161519505373121
  0
ARC
  5
6751
  8
0
 10
2854.4022635041469584
 20
144.692193576247405
 30
0.0
 40
0.0076026254354129
 50
289.119806389526218
 51
347.1241238527861128
  0
ARC
  5
6752
  8
0
 10
2854.4580385321960421
 20
144.6922000581411965
 30
0.0
 40
0.0076111192362235
 50
192.9113163244736029
 51
250.844754590559802
  0
ARC
  5
6753
  8
0
 10
2854.453067279177958
 20
144.6921788965345002
 30
0.0
 40
0.0075833999853004
 50
289.0392508953821107
 51
347.2046793469493196
  0
LINE
  5
6754
  8
0
 10
2854.5280023298660126
 20
144.6743273407118977
 30
0.0
 11
2854.5063285056648965
 21
144.6831749593119127
 31
0.0
  0
LINE
  5
6755
  8
0
 10
2854.5014072457652219
 20
144.6904994096119026
 30
0.0
 11
2854.5014072457652219
 21
144.7059161692272937
 31
0.0
  0
LINE
  5
6756
  8
0
 10
2854.511249765465891
 20
144.7059161691863949
 30
0.0
 11
2854.511249765465891
 21
144.6904994096119026
 31
0.0
  0
LINE
  5
6757
  8
0
 10
2854.5317222064650196
 20
144.6746442094118947
 30
0.0
 11
2854.5317222064650196
 21
144.7161087477118997
 31
0.0
  0
LINE
  5
6758
  8
0
 10
2854.5521946473659227
 20
144.6904994096119026
 30
0.0
 11
2854.5521946473659227
 21
144.7059161692272937
 31
0.0
  0
LINE
  5
6759
  8
0
 10
2854.5620371670647728
 20
144.7059161691863949
 30
0.0
 11
2854.5620371670647728
 21
144.6904994096119026
 31
0.0
  0
LINE
  5
675A
  8
0
 10
2854.5571159072651426
 20
144.6831749593119127
 30
0.0
 11
2854.535442083064936
 21
144.6743273407118977
 31
0.0
  0
ARC
  5
675B
  8
0
 10
2854.5294428195011278
 20
144.6794098880218939
 30
0.0
 40
0.005282735801494
 50
254.1762713374411078
 51
295.5614266552507274
  0
ARC
  5
675C
  8
0
 10
2854.534020560126919
 20
144.6796325473337959
 30
0.0
 40
0.0054923532994335
 50
245.262331351983903
 51
284.9999708631627868
  0
ARC
  5
675D
  8
0
 10
2854.5088113851370508
 20
144.692187014529793
 30
0.0
 40
0.007594029904665
 50
192.8399189644642036
 51
250.9161519505373121
  0
ARC
  5
675E
  8
0
 10
2854.5038383072469514
 20
144.692193576247405
 30
0.0
 40
0.0076026254354129
 50
289.119806389526218
 51
347.1241238527861128
  0
ARC
  5
675F
  8
0
 10
2854.5596133352951256
 20
144.6922000581411965
 30
0.0
 40
0.0076111192362235
 50
192.9113163244736029
 51
250.844754590559802
  0
ARC
  5
6760
  8
0
 10
2854.554642082277951
 20
144.6921788965345002
 30
0.0
 40
0.0075833999853004
 50
289.0392508953821107
 51
347.2046793469493196
  0
LINE
  5
6761
  8
0
 10
2854.6295771330651405
 20
144.6743273407118977
 30
0.0
 11
2854.6079033088649339
 21
144.6831749593119127
 31
0.0
  0
LINE
  5
6762
  8
0
 10
2854.6029820489661688
 20
144.6904994096119026
 30
0.0
 11
2854.6029820489661688
 21
144.7059161692272937
 31
0.0
  0
LINE
  5
6763
  8
0
 10
2854.6128245686659284
 20
144.7059161691863949
 30
0.0
 11
2854.6128245686659284
 21
144.6904994096119026
 31
0.0
  0
LINE
  5
6764
  8
0
 10
2854.6332970096659665
 20
144.6746442094118947
 30
0.0
 11
2854.6332970096659665
 21
144.7161087477118997
 31
0.0
  0
LINE
  5
6765
  8
0
 10
2854.6537694505659601
 20
144.6904994096119026
 30
0.0
 11
2854.6537694505659601
 21
144.7059161692272937
 31
0.0
  0
LINE
  5
6766
  8
0
 10
2854.6636119702648102
 20
144.7059161691863949
 30
0.0
 11
2854.6636119702648102
 21
144.6904994096119026
 31
0.0
  0
LINE
  5
6767
  8
0
 10
2854.65869071046518
 20
144.6831749593119127
 30
0.0
 11
2854.6370168862658829
 21
144.6743273407118977
 31
0.0
  0
ARC
  5
6768
  8
0
 10
2854.6310176227011652
 20
144.6794098880218939
 30
0.0
 40
0.005282735801494
 50
254.1762713374411078
 51
295.5614266552507274
  0
ARC
  5
6769
  8
0
 10
2854.6355953633269564
 20
144.6796325473337959
 30
0.0
 40
0.0054923532994335
 50
245.262331351983903
 51
284.9999708631627868
  0
ARC
  5
676A
  8
0
 10
2854.6103861883370882
 20
144.692187014529793
 30
0.0
 40
0.007594029904665
 50
192.8399189644642036
 51
250.9161519505373121
  0
ARC
  5
676B
  8
0
 10
2854.6054131104469889
 20
144.692193576247405
 30
0.0
 40
0.0076026254354129
 50
289.119806389526218
 51
347.1241238527861128
  0
ARC
  5
676C
  8
0
 10
2854.6611881384960725
 20
144.6922000581411965
 30
0.0
 40
0.0076111192362235
 50
192.9113163244736029
 51
250.844754590559802
  0
ARC
  5
676D
  8
0
 10
2854.6562168854779884
 20
144.6921788965345002
 30
0.0
 40
0.0075833999853004
 50
289.0392508953821107
 51
347.2046793469493196
  0
LINE
  5
676E
  8
0
 10
2854.731151936166043
 20
144.6743273407118977
 30
0.0
 11
2854.7094781119658364
 21
144.6831749593119127
 31
0.0
  0
LINE
  5
676F
  8
0
 10
2854.7045568520647976
 20
144.6904994096119026
 30
0.0
 11
2854.7045568520647976
 21
144.7059161692272937
 31
0.0
  0
LINE
  5
6770
  8
0
 10
2854.7143993717650119
 20
144.7059161691863949
 30
0.0
 11
2854.7143993717650119
 21
144.6904994096119026
 31
0.0
  0
LINE
  5
6771
  8
0
 10
2854.7348718127659595
 20
144.6746442094118947
 30
0.0
 11
2854.7348718127659595
 21
144.7161087477118997
 31
0.0
  0
LINE
  5
6772
  8
0
 10
2854.7553442536659531
 20
144.6904994096119026
 30
0.0
 11
2854.7553442536659531
 21
144.7059161692272937
 31
0.0
  0
LINE
  5
6773
  8
0
 10
2854.7651867733648032
 20
144.7059161691863949
 30
0.0
 11
2854.7651867733648032
 21
144.6904994096119026
 31
0.0
  0
LINE
  5
6774
  8
0
 10
2854.760265513565173
 20
144.6831749593119127
 30
0.0
 11
2854.7385916893658759
 21
144.6743273407118977
 31
0.0
  0
ARC
  5
6775
  8
0
 10
2854.7325924258011582
 20
144.6794098880218939
 30
0.0
 40
0.005282735801494
 50
254.1762713374411078
 51
295.5614266552507274
  0
ARC
  5
6776
  8
0
 10
2854.7371701664269494
 20
144.6796325473337959
 30
0.0
 40
0.0054923532994335
 50
245.262331351983903
 51
284.9999708631627868
  0
ARC
  5
6777
  8
0
 10
2854.7119609914370812
 20
144.692187014529793
 30
0.0
 40
0.007594029904665
 50
192.8399189644642036
 51
250.9161519505373121
  0
ARC
  5
6778
  8
0
 10
2854.7069879135469819
 20
144.692193576247405
 30
0.0
 40
0.0076026254354129
 50
289.119806389526218
 51
347.1241238527861128
  0
ARC
  5
6779
  8
0
 10
2854.7627629415960655
 20
144.6922000581411965
 30
0.0
 40
0.0076111192362235
 50
192.9113163244736029
 51
250.844754590559802
  0
ARC
  5
677A
  8
0
 10
2854.7577916885779814
 20
144.6921788965345002
 30
0.0
 40
0.0075833999853004
 50
289.0392508953821107
 51
347.2046793469493196
  0
LINE
  5
677B
  8
0
 10
2854.5026086290649801
 20
144.6432289369118962
 30
0.0
 11
2854.4809348048647735
 21
144.6520765555119112
 31
0.0
  0
LINE
  5
677C
  8
0
 10
2854.4760135449660083
 20
144.6594010058119011
 30
0.0
 11
2854.4760135449660083
 21
144.6748177655680081
 31
0.0
  0
LINE
  5
677D
  8
0
 10
2854.4858560646648584
 20
144.6748177654455958
 30
0.0
 11
2854.4858560646648584
 21
144.6594010058119011
 31
0.0
  0
LINE
  5
677E
  8
0
 10
2854.5063285056648965
 20
144.6435458056118932
 30
0.0
 11
2854.5063285056648965
 21
144.6850103439118982
 31
0.0
  0
LINE
  5
677F
  8
0
 10
2854.5268009465657997
 20
144.6594010058119011
 30
0.0
 11
2854.5268009465657997
 21
144.6748177655271945
 31
0.0
  0
LINE
  5
6780
  8
0
 10
2854.536643466266014
 20
144.6748177654864094
 30
0.0
 11
2854.536643466266014
 21
144.6594010058119011
 31
0.0
  0
LINE
  5
6781
  8
0
 10
2854.5317222064650196
 20
144.6520765555119112
 30
0.0
 11
2854.5100483822661772
 21
144.6432289369118962
 31
0.0
  0
ARC
  5
6782
  8
0
 10
2854.5040491187000953
 20
144.6483114842218924
 30
0.0
 40
0.005282735801494
 50
254.1762713374411078
 51
295.5614266552507274
  0
ARC
  5
6783
  8
0
 10
2854.508626859326796
 20
144.6485341435337943
 30
0.0
 40
0.0054923532994335
 50
245.262331351983903
 51
284.9999708631627868
  0
ARC
  5
6784
  8
0
 10
2854.4834176843369278
 20
144.6610886107297915
 30
0.0
 40
0.007594029904665
 50
192.8399189644642036
 51
250.9161519505373121
  0
ARC
  5
6785
  8
0
 10
2854.4784446064468284
 20
144.6610951724474035
 30
0.0
 40
0.0076026254354129
 50
289.119806389526218
 51
347.1241238527861128
  0
ARC
  5
6786
  8
0
 10
2854.534219634495912
 20
144.6611016543411949
 30
0.0
 40
0.0076111192362235
 50
192.9113163244736029
 51
250.844754590559802
  0
ARC
  5
6787
  8
0
 10
2854.5292483814778279
 20
144.6610804927344134
 30
0.0
 40
0.0075833999853004
 50
289.0392508953821107
 51
347.2046793469493196
  0
LINE
  5
6788
  8
0
 10
2854.6041834322650175
 20
144.6432289369118962
 30
0.0
 11
2854.5825096080648109
 21
144.6520765555119112
 31
0.0
  0
LINE
  5
6789
  8
0
 10
2854.5775883481660458
 20
144.6594010058119011
 30
0.0
 11
2854.5775883481660458
 21
144.674814687368297
 31
0.0
  0
LINE
  5
678A
  8
0
 10
2854.5874308678658053
 20
144.6748177665066066
 30
0.0
 11
2854.5874308678658053
 21
144.6594010058119011
 31
0.0
  0
LINE
  5
678B
  8
0
 10
2854.6079033088649339
 20
144.6435458056118932
 30
0.0
 11
2854.6079033088649339
 21
144.6850103439118982
 31
0.0
  0
LINE
  5
678C
  8
0
 10
2854.6283757497649276
 20
144.6594010058119011
 30
0.0
 11
2854.6283757497649276
 21
144.6748177655271945
 31
0.0
  0
LINE
  5
678D
  8
0
 10
2854.6382182694660514
 20
144.6748177654864094
 30
0.0
 11
2854.6382182694660514
 21
144.6594010058119011
 31
0.0
  0
LINE
  5
678E
  8
0
 10
2854.6332970096659665
 20
144.6520765555119112
 30
0.0
 11
2854.6116231854662146
 21
144.6432289369118962
 31
0.0
  0
ARC
  5
678F
  8
0
 10
2854.6056239219010422
 20
144.6483114842218924
 30
0.0
 40
0.005282735801494
 50
254.1762713374411078
 51
295.5614266552507274
  0
ARC
  5
6790
  8
0
 10
2854.6102016625268334
 20
144.6485341435337943
 30
0.0
 40
0.0054923532994335
 50
245.262331351983903
 51
284.9999708631627868
  0
ARC
  5
6791
  8
0
 10
2854.5849924875369652
 20
144.6610886107297915
 30
0.0
 40
0.007594029904665
 50
192.8399189644642036
 51
250.9161519505373121
  0
ARC
  5
6792
  8
0
 10
2854.5800194096468658
 20
144.6610951724474035
 30
0.0
 40
0.0076026254354129
 50
289.119806389526218
 51
347.1241238527861128
  0
ARC
  5
6793
  8
0
 10
2854.6357944376959495
 20
144.6611016543411949
 30
0.0
 40
0.0076111192362235
 50
192.9113163244736029
 51
250.844754590559802
  0
ARC
  5
6794
  8
0
 10
2854.6308231846778654
 20
144.6610804927344134
 30
0.0
 40
0.0075833999853004
 50
289.0392508953821107
 51
347.2046793469493196
  0
LINE
  5
6795
  8
0
 10
2854.5268009465871728
 20
144.8459914284032948
 30
0.0
 11
2854.5268009465871728
 21
144.8551744636160947
 31
0.0
  0
LINE
  5
6796
  8
0
 10
2854.5366434662869324
 20
144.8560553293191049
 30
0.0
 11
2854.5366434662869324
 21
144.8459914284032948
 31
0.0
  0
ARC
  5
6797
  8
0
 10
2854.5342050859580922
 20
144.8476790333212136
 30
0.0
 40
0.007594029904665
 50
192.8399189644642036
 51
250.9161519505373121
  0
ARC
  5
6798
  8
0
 10
2854.5292320080679929
 20
144.8476855950387971
 30
0.0
 40
0.0076026254354129
 50
289.119806389526218
 51
347.1241238527861128
  0
LINE
  5
6799
  8
0
 10
2854.5775845766861494
 20
144.84598988881379
 30
0.0
 11
2854.5775845766861494
 21
144.8584502968377876
 31
0.0
  0
LINE
  5
679A
  8
0
 10
2854.5874270963868184
 20
144.858450296841113
 30
0.0
 11
2854.5874270963868184
 21
144.84598988881379
 31
0.0
  0
ARC
  5
679B
  8
0
 10
2854.5849887160579783
 20
144.8476774937317089
 30
0.0
 40
0.007594029904665
 50
192.8399189644642036
 51
250.9161519505373121
  0
ARC
  5
679C
  8
0
 10
2854.5800156381678789
 20
144.8476840554492071
 30
0.0
 40
0.0076026254354129
 50
289.119806389526218
 51
347.1241238527861128
  0
LINE
  5
679D
  8
0
 10
2854.6283757497872102
 20
144.8459914284032948
 30
0.0
 11
2854.6283757497872102
 21
144.8560546997086078
 31
0.0
  0
LINE
  5
679E
  8
0
 10
2854.6382182694869698
 20
144.8551737429901038
 30
0.0
 11
2854.6382182694869698
 21
144.8459914284032948
 31
0.0
  0
ARC
  5
679F
  8
0
 10
2854.6357798891581297
 20
144.8476790333212136
 30
0.0
 40
0.007594029904665
 50
192.8399189644642036
 51
250.9161519505373121
  0
ARC
  5
67A0
  8
0
 10
2854.6308068112680303
 20
144.8476855950387971
 30
0.0
 40
0.0076026254354129
 50
289.119806389526218
 51
347.1241238527861128
  0
LINE
  5
67A1
  8
0
 10
2854.5026086291009051
 20
144.8298193595022099
 30
0.0
 11
2854.4809348049011533
 21
144.8386669781021965
 31
0.0
  0
LINE
  5
67A2
  8
0
 10
2854.5063285057008216
 20
144.8301362282022069
 30
0.0
 11
2854.5063285057008216
 21
144.8529606967775862
 31
0.0
  0
LINE
  5
67A3
  8
0
 10
2854.5317222065009446
 20
144.8386669781021965
 30
0.0
 11
2854.5100483823011928
 21
144.8298193595022099
 31
0.0
  0
ARC
  5
67A4
  8
0
 10
2854.5040491187369298
 20
144.8349019068122061
 30
0.0
 40
0.005282735801494
 50
254.1762713374411078
 51
295.5614266552507274
  0
ARC
  5
67A5
  8
0
 10
2854.5086268593631758
 20
144.8351245661241933
 30
0.0
 40
0.0054923532994335
 50
245.262331351983903
 51
284.9999708631627868
  0
LINE
  5
67A6
  8
0
 10
2854.4264275267660196
 20
144.7365241482119131
 30
0.0
 11
2854.404753702565813
 21
144.7453717668118998
 31
0.0
  0
LINE
  5
67A7
  8
0
 10
2854.430147403365936
 20
144.7368410169119102
 30
0.0
 11
2854.430147403365936
 21
144.7783055552118867
 31
0.0
  0
LINE
  5
67A8
  8
0
 10
2854.4555411041660591
 20
144.7453717668118998
 30
0.0
 11
2854.433867279964943
 21
144.7365241482119131
 31
0.0
  0
ARC
  5
67A9
  8
0
 10
2854.4278680164011348
 20
144.7416066955219094
 30
0.0
 40
0.005282735801494
 50
254.1762713374411078
 51
295.5614266552507274
  0
ARC
  5
67AA
  8
0
 10
2854.432445757026926
 20
144.7418293548338113
 30
0.0
 40
0.0054923532994335
 50
245.262331351983903
 51
284.9999708631627868
  0
LINE
  5
67AB
  8
0
 10
2854.5280023298660126
 20
144.7365241482119131
 30
0.0
 11
2854.5063285056648965
 21
144.7453717668118998
 31
0.0
  0
LINE
  5
67AC
  8
0
 10
2854.5317222064650196
 20
144.7368410169119102
 30
0.0
 11
2854.5317222064650196
 21
144.7783055552118867
 31
0.0
  0
LINE
  5
67AD
  8
0
 10
2854.5571159072651426
 20
144.7453717668118998
 30
0.0
 11
2854.535442083064936
 21
144.7365241482119131
 31
0.0
  0
ARC
  5
67AE
  8
0
 10
2854.5294428195011278
 20
144.7416066955219094
 30
0.0
 40
0.005282735801494
 50
254.1762713374411078
 51
295.5614266552507274
  0
ARC
  5
67AF
  8
0
 10
2854.534020560126919
 20
144.7418293548338113
 30
0.0
 40
0.0054923532994335
 50
245.262331351983903
 51
284.9999708631627868
  0
LINE
  5
67B0
  8
0
 10
2854.6295771330651405
 20
144.7365241482119131
 30
0.0
 11
2854.6079033088649339
 21
144.7453717668118998
 31
0.0
  0
LINE
  5
67B1
  8
0
 10
2854.6332970096659665
 20
144.7368410169119102
 30
0.0
 11
2854.6332970096659665
 21
144.7783055552118867
 31
0.0
  0
LINE
  5
67B2
  8
0
 10
2854.65869071046518
 20
144.7453717668118998
 30
0.0
 11
2854.6370168862658829
 21
144.7365241482119131
 31
0.0
  0
ARC
  5
67B3
  8
0
 10
2854.6310176227011652
 20
144.7416066955219094
 30
0.0
 40
0.005282735801494
 50
254.1762713374411078
 51
295.5614266552507274
  0
ARC
  5
67B4
  8
0
 10
2854.6355953633269564
 20
144.7418293548338113
 30
0.0
 40
0.0054923532994335
 50
245.262331351983903
 51
284.9999708631627868
  0
LINE
  5
67B5
  8
0
 10
2854.731151936166043
 20
144.7365241482119131
 30
0.0
 11
2854.7094781119658364
 21
144.7453717668118998
 31
0.0
  0
LINE
  5
67B6
  8
0
 10
2854.7348718127659595
 20
144.7368410169119102
 30
0.0
 11
2854.7348718127659595
 21
144.7783055552118867
 31
0.0
  0
LINE
  5
67B7
  8
0
 10
2854.760265513565173
 20
144.7453717668118998
 30
0.0
 11
2854.7385916893658759
 21
144.7365241482119131
 31
0.0
  0
ARC
  5
67B8
  8
0
 10
2854.7325924258011582
 20
144.7416066955219094
 30
0.0
 40
0.005282735801494
 50
254.1762713374411078
 51
295.5614266552507274
  0
ARC
  5
67B9
  8
0
 10
2854.7371701664269494
 20
144.7418293548338113
 30
0.0
 40
0.0054923532994335
 50
245.262331351983903
 51
284.9999708631627868
  0
LINE
  5
67BA
  8
0
 10
2854.5026086290649801
 20
144.7676225520118862
 30
0.0
 11
2854.4809348048647735
 21
144.7764701706119013
 31
0.0
  0
LINE
  5
67BB
  8
0
 10
2854.5063285056648965
 20
144.7679394207119117
 30
0.0
 11
2854.5063285056648965
 21
144.8094039590118882
 31
0.0
  0
LINE
  5
67BC
  8
0
 10
2854.5317222064650196
 20
144.7764701706119013
 30
0.0
 11
2854.5100483822661772
 21
144.7676225520118862
 31
0.0
  0
ARC
  5
67BD
  8
0
 10
2854.5040491187000953
 20
144.7727050993219109
 30
0.0
 40
0.005282735801494
 50
254.1762713374411078
 51
295.5614266552507274
  0
ARC
  5
67BE
  8
0
 10
2854.508626859326796
 20
144.7729277586338128
 30
0.0
 40
0.0054923532994335
 50
245.262331351983903
 51
284.9999708631627868
  0
LINE
  5
67BF
  8
0
 10
2854.6041834322650175
 20
144.7676225520033029
 30
0.0
 11
2854.5825096080648109
 21
144.7764701706032895
 31
0.0
  0
LINE
  5
67C0
  8
0
 10
2854.6079033088649339
 20
144.7679394207032999
 30
0.0
 11
2854.6079033088649339
 21
144.8094039590033049
 31
0.0
  0
LINE
  5
67C1
  8
0
 10
2854.6332970096659665
 20
144.7764701706032895
 30
0.0
 11
2854.6116231854662146
 21
144.7676225520033029
 31
0.0
  0
ARC
  5
67C2
  8
0
 10
2854.6056239219010422
 20
144.7727050993132991
 30
0.0
 40
0.005282735801494
 50
254.1762713374411078
 51
295.5614266552507274
  0
ARC
  5
67C3
  8
0
 10
2854.6102016625268334
 20
144.772927758625201
 30
0.0
 40
0.0054923532994335
 50
245.262331351983903
 51
284.9999708631627868
  0
LINE
  5
67C4
  8
0
 10
2854.70575823536592
 20
144.7676225520033029
 30
0.0
 11
2854.6840844111648039
 21
144.7764701706032895
 31
0.0
  0
LINE
  5
67C5
  8
0
 10
2854.7094781119658364
 20
144.7679394207032999
 30
0.0
 11
2854.7094781119658364
 21
144.8094039590033049
 31
0.0
  0
LINE
  5
67C6
  8
0
 10
2854.7348718127659595
 20
144.7764701706032895
 30
0.0
 11
2854.7131979885648434
 21
144.7676225520033029
 31
0.0
  0
ARC
  5
67C7
  8
0
 10
2854.7071987250010352
 20
144.7727050993132991
 30
0.0
 40
0.005282735801494
 50
254.1762713374411078
 51
295.5614266552507274
  0
ARC
  5
67C8
  8
0
 10
2854.7117764656268264
 20
144.772927758625201
 30
0.0
 40
0.0054923532994335
 50
245.262331351983903
 51
284.9999708631627868
  0
LINE
  5
67C9
  8
0
 10
2854.8073330385659574
 20
144.7676225520033029
 30
0.0
 11
2854.7856592143648413
 21
144.7764701706032895
 31
0.0
  0
LINE
  5
67CA
  8
0
 10
2854.8110529151649644
 20
144.7679394207032999
 30
0.0
 11
2854.8110529151649644
 21
144.8094039590033049
 31
0.0
  0
LINE
  5
67CB
  8
0
 10
2854.8366022766858805
 20
144.7764701706032895
 30
0.0
 11
2854.8147727917657903
 21
144.7676225520033029
 31
0.0
  0
ARC
  5
67CC
  8
0
 10
2854.8087735282010726
 20
144.7727050993132991
 30
0.0
 40
0.005282735801494
 50
254.1762713374411078
 51
295.5614266552507274
  0
ARC
  5
67CD
  8
0
 10
2854.8133512688268638
 20
144.772927758625201
 30
0.0
 40
0.0054923532994335
 50
245.262331351983903
 51
284.9999708631627868
  0
LINE
  5
67CE
  8
0
 10
2854.4518212275647784
 20
144.7054257444119116
 30
0.0
 11
2854.430147403365936
 21
144.7142733630118983
 31
0.0
  0
LINE
  5
67CF
  8
0
 10
2854.4555411041660591
 20
144.7057426131119087
 30
0.0
 11
2854.4555411041660591
 21
144.7472071514119136
 31
0.0
  0
LINE
  5
67D0
  8
0
 10
2854.4809348049661821
 20
144.7142733630118983
 30
0.0
 11
2854.4592609807659755
 21
144.7054257444119116
 31
0.0
  0
ARC
  5
67D1
  8
0
 10
2854.4532617172008031
 20
144.7105082917219079
 30
0.0
 40
0.005282735801494
 50
254.1762713374411078
 51
295.5614266552507274
  0
ARC
  5
67D2
  8
0
 10
2854.457839457827049
 20
144.7107309510338098
 30
0.0
 40
0.0054923532994335
 50
245.262331351983903
 51
284.9999708631627868
  0
LINE
  5
67D3
  8
0
 10
2854.5533960306652261
 20
144.7054257444119116
 30
0.0
 11
2854.5317222064650196
 21
144.7142733630118983
 31
0.0
  0
LINE
  5
67D4
  8
0
 10
2854.5571159072651426
 20
144.7057426131119087
 30
0.0
 11
2854.5571159072651426
 21
144.7472071514119136
 31
0.0
  0
LINE
  5
67D5
  8
0
 10
2854.5825096080648109
 20
144.7142733630118983
 30
0.0
 11
2854.5608357838659686
 21
144.7054257444119116
 31
0.0
  0
ARC
  5
67D6
  8
0
 10
2854.5548365203007961
 20
144.7105082917219079
 30
0.0
 40
0.005282735801494
 50
254.1762713374411078
 51
295.5614266552507274
  0
ARC
  5
67D7
  8
0
 10
2854.5594142609270421
 20
144.7107309510338098
 30
0.0
 40
0.0054923532994335
 50
245.262331351983903
 51
284.9999708631627868
  0
LINE
  5
67D8
  8
0
 10
2854.6549708338648088
 20
144.7054257444119116
 30
0.0
 11
2854.6332970096659665
 21
144.7142733630118983
 31
0.0
  0
LINE
  5
67D9
  8
0
 10
2854.65869071046518
 20
144.7057426131119087
 30
0.0
 11
2854.65869071046518
 21
144.7472071514119136
 31
0.0
  0
LINE
  5
67DA
  8
0
 10
2854.6840844112662126
 20
144.7142733630118983
 30
0.0
 11
2854.662410587066006
 21
144.7054257444119116
 31
0.0
  0
ARC
  5
67DB
  8
0
 10
2854.6564113235008335
 20
144.7105082917219079
 30
0.0
 40
0.005282735801494
 50
254.1762713374411078
 51
295.5614266552507274
  0
ARC
  5
67DC
  8
0
 10
2854.6609890641270795
 20
144.7107309510338098
 30
0.0
 40
0.0054923532994335
 50
245.262331351983903
 51
284.9999708631627868
  0
LINE
  5
67DD
  8
0
 10
2854.7565456369648018
 20
144.7054257444119116
 30
0.0
 11
2854.7348718127659595
 21
144.7142733630118983
 31
0.0
  0
LINE
  5
67DE
  8
0
 10
2854.760265513565173
 20
144.7057426131119087
 30
0.0
 11
2854.760265513565173
 21
144.7472071514119136
 31
0.0
  0
LINE
  5
67DF
  8
0
 10
2854.7856592143648413
 20
144.7142733630118983
 30
0.0
 11
2854.763985390165999
 21
144.7054257444119116
 31
0.0
  0
ARC
  5
67E0
  8
0
 10
2854.7579861266008265
 20
144.7105082917219079
 30
0.0
 40
0.005282735801494
 50
254.1762713374411078
 51
295.5614266552507274
  0
ARC
  5
67E1
  8
0
 10
2854.7625638672270725
 20
144.7107309510338098
 30
0.0
 40
0.0054923532994335
 50
245.262331351983903
 51
284.9999708631627868
  0
LINE
  5
67E2
  8
0
 10
2854.4772149283658109
 20
144.6743273407118977
 30
0.0
 11
2854.4555411041660591
 21
144.6831749593119127
 31
0.0
  0
LINE
  5
67E3
  8
0
 10
2854.4809348049661821
 20
144.6746442094118947
 30
0.0
 11
2854.4809348049661821
 21
144.7161087477118997
 31
0.0
  0
LINE
  5
67E4
  8
0
 10
2854.5063285057649409
 20
144.6831749593119127
 30
0.0
 11
2854.4846546815651891
 21
144.6743273407118977
 31
0.0
  0
ARC
  5
67E5
  8
0
 10
2854.4786554180009261
 20
144.6794098880218939
 30
0.0
 40
0.005282735801494
 50
254.1762713374411078
 51
295.5614266552507274
  0
ARC
  5
67E6
  8
0
 10
2854.4832331586271721
 20
144.6796325473337959
 30
0.0
 40
0.0054923532994335
 50
245.262331351983903
 51
284.9999708631627868
  0
LINE
  5
67E7
  8
0
 10
2854.5787859599649892
 20
144.6743258021425049
 30
0.0
 11
2854.5571121357647826
 21
144.6831734207424915
 31
0.0
  0
LINE
  5
67E8
  8
0
 10
2854.5825058365658151
 20
144.674642670842502
 30
0.0
 11
2854.5825058365658151
 21
144.7161072091425069
 31
0.0
  0
LINE
  5
67E9
  8
0
 10
2854.6078995373659382
 20
144.6831734207424915
 30
0.0
 11
2854.5862257131648221
 21
144.6743258021425049
 31
0.0
  0
ARC
  5
67EA
  8
0
 10
2854.5802264496010139
 20
144.6794083494525012
 30
0.0
 40
0.005282735801494
 50
254.1762713374411078
 51
295.5614266552507274
  0
ARC
  5
67EB
  8
0
 10
2854.5848041902268051
 20
144.6796310087644031
 30
0.0
 40
0.0054923532994335
 50
245.262331351983903
 51
284.9999708631627868
  0
LINE
  5
67EC
  8
0
 10
2854.6803645346658413
 20
144.6743273407118977
 30
0.0
 11
2854.65869071046518
 21
144.6831749593119127
 31
0.0
  0
LINE
  5
67ED
  8
0
 10
2854.6840844112662126
 20
144.6746442094118947
 30
0.0
 11
2854.6840844112662126
 21
144.7161087477118997
 31
0.0
  0
LINE
  5
67EE
  8
0
 10
2854.7094781120658809
 20
144.6831749593119127
 30
0.0
 11
2854.6878042878652195
 21
144.6743273407118977
 31
0.0
  0
ARC
  5
67EF
  8
0
 10
2854.6818050243009566
 20
144.6794098880218939
 30
0.0
 40
0.005282735801494
 50
254.1762713374411078
 51
295.5614266552507274
  0
ARC
  5
67F0
  8
0
 10
2854.6863827649272025
 20
144.6796325473337959
 30
0.0
 40
0.0054923532994335
 50
245.262331351983903
 51
284.9999708631627868
  0
LINE
  5
67F1
  8
0
 10
2854.5533960306652261
 20
144.6432289369118962
 30
0.0
 11
2854.5317222064650196
 21
144.6520765555119112
 31
0.0
  0
LINE
  5
67F2
  8
0
 10
2854.5571159072651426
 20
144.6435458056118932
 30
0.0
 11
2854.5571159072651426
 21
144.6850103439118982
 31
0.0
  0
LINE
  5
67F3
  8
0
 10
2854.5825096080648109
 20
144.6520765555119112
 30
0.0
 11
2854.5608357838659686
 21
144.6432289369118962
 31
0.0
  0
ARC
  5
67F4
  8
0
 10
2854.5548365203007961
 20
144.6483114842218924
 30
0.0
 40
0.005282735801494
 50
254.1762713374411078
 51
295.5614266552507274
  0
ARC
  5
67F5
  8
0
 10
2854.5594142609270421
 20
144.6485341435337943
 30
0.0
 40
0.0054923532994335
 50
245.262331351983903
 51
284.9999708631627868
  0
LINE
  5
67F6
  8
0
 10
2854.6549708338648088
 20
144.6432289369118962
 30
0.0
 11
2854.6332970096659665
 21
144.6520765555119112
 31
0.0
  0
LINE
  5
67F7
  8
0
 10
2854.65869071046518
 20
144.6435458056118932
 30
0.0
 11
2854.65869071046518
 21
144.6850103439118982
 31
0.0
  0
LINE
  5
67F8
  8
0
 10
2854.6840844112662126
 20
144.6520765555119112
 30
0.0
 11
2854.662410587066006
 21
144.6432289369118962
 31
0.0
  0
ARC
  5
67F9
  8
0
 10
2854.6564113235008335
 20
144.6483114842218924
 30
0.0
 40
0.005282735801494
 50
254.1762713374411078
 51
295.5614266552507274
  0
ARC
  5
67FA
  8
0
 10
2854.6609890641270795
 20
144.6485341435337943
 30
0.0
 40
0.0054923532994335
 50
245.262331351983903
 51
284.9999708631627868
  0
LINE
  5
67FB
  8
0
 10
2854.528002329886931
 20
144.7987209557022084
 30
0.0
 11
2854.5063285056858149
 21
144.807568574302195
 31
0.0
  0
LINE
  5
67FC
  8
0
 10
2854.5317222064859379
 20
144.7990378244022054
 30
0.0
 11
2854.5317222064859379
 21
144.8405023627022103
 31
0.0
  0
LINE
  5
67FD
  8
0
 10
2854.5571159072869705
 20
144.807568574302195
 30
0.0
 11
2854.5354420830872186
 21
144.7987209557022084
 31
0.0
  0
ARC
  5
67FE
  8
0
 10
2854.5294428195220462
 20
144.8038035030122899
 30
0.0
 40
0.005282735801494
 50
254.1762713374411078
 51
295.5614266552507274
  0
ARC
  5
67FF
  8
0
 10
2854.5340205601478374
 20
144.8040261623241065
 30
0.0
 40
0.0054923532994335
 50
245.262331351983903
 51
284.9999708631627868
  0
LINE
  5
6800
  8
0
 10
2854.6295771330869684
 20
144.7987209557022084
 30
0.0
 11
2854.6079033088858523
 21
144.807568574302195
 31
0.0
  0
LINE
  5
6801
  8
0
 10
2854.6332970096868848
 20
144.7990378244022054
 30
0.0
 11
2854.6332970096868848
 21
144.8405023627022103
 31
0.0
  0
LINE
  5
6802
  8
0
 10
2854.6586907104870079
 20
144.807568574302195
 30
0.0
 11
2854.6370168862858918
 21
144.7987209557022084
 31
0.0
  0
ARC
  5
6803
  8
0
 10
2854.6310176227220836
 20
144.8038035030122899
 30
0.0
 40
0.005282735801494
 50
254.1762713374411078
 51
295.5614266552507274
  0
ARC
  5
6804
  8
0
 10
2854.6355953633478748
 20
144.8040261623241065
 30
0.0
 40
0.0054923532994335
 50
245.262331351983903
 51
284.9999708631627868
  0
LINE
  5
6805
  8
0
 10
2854.7311519361869614
 20
144.7987209557022084
 30
0.0
 11
2854.7094781119872096
 21
144.807568574302195
 31
0.0
  0
LINE
  5
6806
  8
0
 10
2854.7348718127859684
 20
144.7990378244022054
 30
0.0
 11
2854.7348718127859684
 21
144.8391509717012013
 31
0.0
  0
LINE
  5
6807
  8
0
 10
2854.7602655135870009
 20
144.807568574302195
 30
0.0
 11
2854.7385916893858848
 21
144.7987209557022084
 31
0.0
  0
ARC
  5
6808
  8
0
 10
2854.7325924258220766
 20
144.8038035030122899
 30
0.0
 40
0.005282735801494
 50
254.1762713374411078
 51
295.5614266552507274
  0
ARC
  5
6809
  8
0
 10
2854.7371701664478678
 20
144.8040261623241065
 30
0.0
 40
0.0054923532994335
 50
245.262331351983903
 51
284.9999708631627868
  0
LINE
  5
680A
  8
0
 10
2854.4264275267660196
 20
144.7987209557119002
 30
0.0
 11
2854.404753702565813
 21
144.8075685743118868
 31
0.0
  0
LINE
  5
680B
  8
0
 10
2854.430147403365936
 20
144.7990378244118972
 30
0.0
 11
2854.430147403365936
 21
144.839152974790494
 31
0.0
  0
LINE
  5
680C
  8
0
 10
2854.4555411041660591
 20
144.8075685743118868
 30
0.0
 11
2854.433867279964943
 21
144.7987209557119002
 31
0.0
  0
ARC
  5
680D
  8
0
 10
2854.4278680164011348
 20
144.8038035030218964
 30
0.0
 40
0.005282735801494
 50
254.1762713374411078
 51
295.5614266552507274
  0
ARC
  5
680E
  8
0
 10
2854.432445757026926
 20
144.8040261623337983
 30
0.0
 40
0.0054923532994335
 50
245.262331351983903
 51
284.9999708631627868
  0
ARC
  5
680F
  8
0
 10
2854.5548397828820271
 20
144.8348597256849928
 30
0.0
 40
0.0052432977011885
 50
254.0194507126005021
 51
295.7281472427458198
  0
LINE
  5
6810
  8
0
 10
2854.6089188223700148
 20
144.8298005443620866
 30
0.0
 11
2854.5826135353190693
 21
144.8405390681222116
 31
0.0
  0
LINE
  5
6811
  8
0
 10
2854.6126384843701089
 20
144.8301177184621054
 30
0.0
 11
2854.6332970096868848
 21
144.8385508750054953
 31
0.0
  0
ARC
  5
6812
  8
0
 10
2854.6103623599669845
 20
144.8348412159438112
 30
0.0
 40
0.0052432977011885
 50
254.0194507126005021
 51
295.7281472427458198
  0
LINE
  5
6813
  8
0
 10
2854.6549708338861819
 20
144.8298193595022099
 30
0.0
 11
2854.6332970096868848
 21
144.8386669781021965
 31
0.0
  0
LINE
  5
6814
  8
0
 10
2854.6586907104870079
 20
144.8301362282022069
 30
0.0
 11
2854.6586907104870079
 21
144.8529597857749991
 31
0.0
  0
LINE
  5
6815
  8
0
 10
2854.6840844112871309
 20
144.8386669781021965
 30
0.0
 11
2854.6624105870869244
 21
144.8298193595022099
 31
0.0
  0
ARC
  5
6816
  8
0
 10
2854.6564113235222067
 20
144.8349019068122061
 30
0.0
 40
0.005282735801494
 50
254.1762713374411078
 51
295.5614266552507274
  0
ARC
  5
6817
  8
0
 10
2854.6609890641479979
 20
144.8351245661241933
 30
0.0
 40
0.0054923532994335
 50
245.262331351983903
 51
284.9999708631627868
  0
LINE
  5
6818
  8
0
 10
2854.5014072458861847
 20
144.6354635634453132
 30
0.0
 11
2854.5014072458861847
 21
144.6437193616777961
 31
0.0
  0
LINE
  5
6819
  8
0
 10
2854.5112497655859443
 20
144.6437193617358048
 30
0.0
 11
2854.5112497655859443
 21
144.6354635634453132
 31
0.0
  0
ARC
  5
681A
  8
0
 10
2854.5088113852580136
 20
144.6371511683632036
 30
0.0
 40
0.007594029904665
 50
192.8399189644642036
 51
226.5188028029672864
  0
ARC
  5
681B
  8
0
 10
2854.5038383073679142
 20
144.6371577300807871
 30
0.0
 40
0.0076026254354129
 50
302.5140858685397234
 51
347.1241238527861128
  0
LINE
  5
681C
  8
0
 10
2854.5521946474868855
 20
144.6275360413033013
 30
0.0
 11
2854.5521946474868855
 21
144.6437193616777961
 31
0.0
  0
LINE
  5
681D
  8
0
 10
2854.5620371671861903
 20
144.6437193617358048
 30
0.0
 11
2854.5620371671861903
 21
144.6275360413033013
 31
0.0
  0
ARC
  5
681E
  8
0
 10
2854.559598786857805
 20
144.6292236462211918
 30
0.0
 40
0.007594029904665
 50
192.8399189644642036
 51
215.104555950758396
  0
ARC
  5
681F
  8
0
 10
2854.5546257089681603
 20
144.6292302079388037
 30
0.0
 40
0.0076026254354129
 50
321.2706177322413055
 51
347.1241238527861128
  0
LINE
  5
6820
  8
0
 10
2854.6029820489861777
 20
144.6281755155033011
 30
0.0
 11
2854.6029820489861777
 21
144.6437193617186097
 31
0.0
  0
LINE
  5
6821
  8
0
 10
2854.6128245686859373
 20
144.6437193616949912
 30
0.0
 11
2854.6128245686859373
 21
144.6281755155033011
 31
0.0
  0
ARC
  5
6822
  8
0
 10
2854.6103861883580066
 20
144.6298631204211915
 30
0.0
 40
0.007594029904665
 50
192.8399189644642036
 51
224.8767462673939974
  0
ARC
  5
6823
  8
0
 10
2854.6054131104679072
 20
144.6298696821388035
 30
0.0
 40
0.0076026254354129
 50
318.4282185713116746
 51
347.1241238527861128
  0
LINE
  5
6824
  8
0
 10
2854.6537694505868785
 20
144.6355662329033009
 30
0.0
 11
2854.6537694505868785
 21
144.6437193617186097
 31
0.0
  0
LINE
  5
6825
  8
0
 10
2854.6636119702861834
 20
144.6437193616949912
 30
0.0
 11
2854.6636119702861834
 21
144.6355662329033009
 31
0.0
  0
ARC
  5
6826
  8
0
 10
2854.661173589957798
 20
144.6372538378211914
 30
0.0
 40
0.007594029904665
 50
192.8399189644642036
 51
238.5917775843523998
  0
ARC
  5
6827
  8
0
 10
2854.6562005120681533
 20
144.6372603995386896
 30
0.0
 40
0.0076026254354129
 50
312.0146520065682125
 51
347.1241238527861128
  0
ARC
  5
6828
  8
0
 10
2854.3935310863848827
 20
144.6855086789717006
 30
0.0
 40
0.0077420209938184
 50
185.3956835463258983
 51
239.6110132836687114
  0
ARC
  5
6829
  8
0
 10
2854.3704631984492153
 20
144.7157367896749918
 30
0.0
 40
0.0176719764847813
 50
189.3775154866347066
 51
214.0486904763588996
  0
LINE
  5
682A
  8
0
 10
2854.3539663009660217
 20
144.7472071515119012
 30
0.0
 11
2854.3539663009660217
 21
144.7453717668118998
 31
0.0
  0
LINE
  5
682B
  8
0
 10
2854.3793600017647805
 20
144.716108747711786
 30
0.0
 11
2854.3793600017647805
 21
144.7142733630118983
 31
0.0
  0
LINE
  5
682C
  8
0
 10
2854.4047537025649035
 20
144.6850103440118005
 30
0.0
 11
2854.404753702565813
 21
144.6831749593119127
 31
0.0
  0
ARC
  5
682D
  8
0
 10
2854.4583908609752143
 20
144.6507700166636994
 30
0.0
 40
0.0058902300895174
 50
189.1510917637284024
 51
238.7259167410489908
  0
LINE
  5
682E
  8
0
 10
2854.4555411041660591
 20
144.6850103440119142
 30
0.0
 11
2854.4555411041660591
 21
144.6831749593119127
 31
0.0
  0
LINE
  5
682F
  8
0
 10
2854.4809348048647735
 20
144.6520765555119112
 30
0.0
 11
2854.4809348048647735
 21
144.6539119402119127
 31
0.0
  0
LINE
  5
6830
  8
0
 10
2854.425226143366217
 20
144.6611360644232889
 30
0.0
 11
2854.425226143366217
 21
144.6748177655680081
 31
0.0
  0
LINE
  5
6831
  8
0
 10
2854.4350686630650671
 20
144.6748177654455958
 30
0.0
 11
2854.4350686630650671
 21
144.6611360644232889
 31
0.0
  0
ARC
  5
6832
  8
0
 10
2854.4326302827371364
 20
144.6628236693412077
 30
0.0
 40
0.007594029904665
 50
192.8399189644642036
 51
219.9533049191090015
  0
ARC
  5
6833
  8
0
 10
2854.4276572048470371
 20
144.662830231058706
 30
0.0
 40
0.0076026254354129
 50
295.6785982746117725
 51
347.1241238527861128
  0
LINE
  5
6834
  8
0
 10
2854.6791631513870016
 20
144.6594010058034883
 30
0.0
 11
2854.6791631513870016
 21
144.6748177655184975
 31
0.0
  0
LINE
  5
6835
  8
0
 10
2854.6890056710872159
 20
144.6748177654951917
 30
0.0
 11
2854.6890056710872159
 21
144.6594010058034883
 31
0.0
  0
ARC
  5
6836
  8
0
 10
2854.6865672907588305
 20
144.6610886107214071
 30
0.0
 40
0.007594029904665
 50
192.8399189644642036
 51
250.9161519505373121
  0
ARC
  5
6837
  8
0
 10
2854.6815942128678216
 20
144.6610951724389054
 30
0.0
 40
0.0076026254354129
 50
289.119806389526218
 51
347.1241238527861128
  0
LINE
  5
6838
  8
0
 10
2854.7299219416568121
 20
144.657420112407209
 30
0.0
 11
2854.7299219416568121
 21
144.674829445102489
 31
0.0
  0
LINE
  5
6839
  8
0
 10
2854.7397644613570264
 20
144.6748060859110865
 30
0.0
 11
2854.7397644613570264
 21
144.6587071901028025
 31
0.0
  0
ARC
  5
683A
  8
0
 10
2854.7373260810281863
 20
144.6591077173250142
 30
0.0
 40
0.007594029904665
 50
192.8399189644642036
 51
215.9500526167695966
  0
LINE
  5
683B
  8
0
 10
2854.7791955581260481
 20
144.7116347900949052
 30
0.0
 11
2854.7791955581260481
 21
144.6824662190853132
 31
0.0
  0
ARC
  5
683C
  8
0
 10
2854.7717840999080181
 20
144.6841603857207872
 30
0.0
 40
0.0076026254354129
 50
333.8230131371961988
 51
347.1241238527861128
  0
LINE
  5
683D
  8
0
 10
2854.760265513565173
 20
144.6850103440119142
 30
0.0
 11
2854.760265513565173
 21
144.6831749593119127
 31
0.0
  0
LINE
  5
683E
  8
0
 10
2854.780737954587039
 20
144.7215978134032923
 30
0.0
 11
2854.780737954587039
 21
144.737014572977813
 31
0.0
  0
LINE
  5
683F
  8
0
 10
2854.7905804742867986
 20
144.7370145730357933
 30
0.0
 11
2854.7905804742867986
 21
144.7215978134032923
 31
0.0
  0
ARC
  5
6840
  8
0
 10
2854.7881566425171513
 20
144.7232984619325862
 30
0.0
 40
0.0076111192362235
 50
192.9113163244736029
 51
250.844754590559802
  0
ARC
  5
6841
  8
0
 10
2854.7831853894990672
 20
144.7232773003258046
 30
0.0
 40
0.0075833999853004
 50
289.0392508953821107
 51
347.2046793469493196
  0
LINE
  5
6842
  8
0
 10
2854.8315253011978712
 20
144.784011833736912
 30
0.0
 11
2854.8315253011978712
 21
144.8028605098234891
 31
0.0
  0
LINE
  5
6843
  8
0
 10
2854.8413678208980855
 20
144.7978679998090001
 30
0.0
 11
2854.8413678208980855
 21
144.784011833736912
 31
0.0
  0
ARC
  5
6844
  8
0
 10
2854.8389439891279835
 20
144.7857124822662058
 30
0.0
 40
0.0076111192362235
 50
192.9113163244736029
 51
250.844754590559802
  0
ARC
  5
6845
  8
0
 10
2854.8339727361108089
 20
144.7856913206593958
 30
0.0
 40
0.0075833999853004
 50
289.0392508953821107
 51
347.2046793469493196
  0
LINE
  5
6846
  8
0
 10
2854.6840844112871309
 20
144.6520765555032995
 30
0.0
 11
2854.6840844112662126
 21
144.6539119401959965
 31
0.0
  0
LINE
  5
6847
  8
0
 10
2854.6332970096659665
 20
144.6520765555119112
 30
0.0
 11
2854.633297009665057
 21
144.6539119402119127
 31
0.0
  0
LINE
  5
6848
  8
0
 10
2854.5825096080648109
 20
144.6520765555119112
 30
0.0
 11
2854.5825096080648109
 21
144.653911940211799
 31
0.0
  0
LINE
  5
6849
  8
0
 10
2854.5317222064650196
 20
144.6520765555119112
 30
0.0
 11
2854.5317222064650196
 21
144.6539119402119127
 31
0.0
  0
INSERT
  5
69AD
  8
0
 66
     1
  2
A$C29AE593B
 10
2854.607827563797855
 20
146.3164941930546945
 30
0.0
  0
SEQEND
  5
69AE
  8
0
  0
ENDSEC
  0
EOF
