  0
SECTION
  2
HEADER
  9
$ACADVER
  1
AC1009
  9
$INSBASE
 10
3483.7167415109229296
 20
204.4508879911797123
 30
0.0
  9
$EXTMIN
 10
3482.5356391487230212
 20
195.0550789598316896
 30
0.0
  9
$EXTMAX
 10
3484.897843873122838
 20
204.4508879911797123
 30
0.0
  9
$LIMMIN
 10
0.0
 20
0.0
  9
$LIMMAX
 10
11.6929133858000007
 20
8.2677165353999982
  9
$ORTHOMODE
 70
     0
  9
$REGENMODE
 70
     1
  9
$FILLMODE
 70
     1
  9
$QTEXTMODE
 70
     0
  9
$MIRRTEXT
 70
     0
  9
$DRAGMODE
 70
     2
  9
$LTSCALE
 40
0.6431102362
  9
$OSMODE
 70
  3839
  9
$ATTMODE
 70
     1
  9
$TEXTSIZE
 40
0.2
  9
$TRACEWID
 40
0.05
  9
$TEXTSTYLE
  7
STANDARD
  9
$CLAYER
  8
0
  9
$CELTYPE
  6
BYLAYER
  9
$CECOLOR
 62
   256
  9
$DIMSCALE
 40
1.0
  9
$DIMASZ
 40
0.1875
  9
$DIMEXO
 40
0.0625
  9
$DIMDLI
 40
0.4443307087
  9
$DIMRND
 40
0.0
  9
$DIMDLE
 40
0.0
  9
$DIMEXE
 40
0.125
  9
$DIMTP
 40
0.01
  9
$DIMTM
 40
0.01
  9
$DIMTXT
 40
2.0
  9
$DIMCEN
 40
0.1052362205
  9
$DIMTSZ
 40
0.0
  9
$DIMTOL
 70
     1
  9
$DIMLIM
 70
     0
  9
$DIMTIH
 70
     1
  9
$DIMTOH
 70
     1
  9
$DIMSE1
 70
     0
  9
$DIMSE2
 70
     0
  9
$DIMTAD
 70
     0
  9
$DIMZIN
 70
     0
  9
$DIMBLK
  1

  9
$DIMASO
 70
     1
  9
$DIMSHO
 70
     1
  9
$DIMPOST
  1
\X
  9
$DIMAPOST
  1

  9
$DIMALT
 70
     1
  9
$DIMALTD
 70
     2
  9
$DIMALTF
 40
25.3999999999999986
  9
$DIMLFAC
 40
1.0
  9
$DIMTOFL
 70
     0
  9
$DIMTVP
 40
0.0
  9
$DIMTIX
 70
     0
  9
$DIMSOXD
 70
     0
  9
$DIMSAH
 70
     0
  9
$DIMBLK1
  1

  9
$DIMBLK2
  1

  9
$DIMSTYLE
  2
STANDARD
  9
$DIMCLRD
 70
     0
  9
$DIMCLRE
 70
     0
  9
$DIMCLRT
 70
     0
  9
$DIMTFAC
 40
1.0
  9
$DIMGAP
 40
0.09
  9
$LUNITS
 70
     2
  9
$LUPREC
 70
     4
  9
$SKETCHINC
 40
0.1
  9
$FILLETRAD
 40
0.0
  9
$AUNITS
 70
     0
  9
$AUPREC
 70
     0
  9
$MENU
  1
.
  9
$ELEVATION
 40
0.0
  9
$PELEVATION
 40
0.0
  9
$THICKNESS
 40
0.0
  9
$LIMCHECK
 70
     0
  9
$BLIPMODE
 70
     0
  9
$CHAMFERA
 40
0.0
  9
$CHAMFERB
 40
0.0
  9
$SKPOLY
 70
     0
  9
$TDCREATE
 40
2458060.468368056230247
  9
$TDUPDATE
 40
2459054.5365740740671754
  9
$TDINDWG
 40
0.6900302082999999
  9
$TDUSRTIMER
 40
0.6900302082999999
  9
$USRTIMER
 70
     1
  9
$ANGBASE
 50
0.0
  9
$ANGDIR
 70
     0
  9
$PDMODE
 70
     0
  9
$PDSIZE
 40
0.3125
  9
$PLINEWID
 40
0.0
  9
$COORDS
 70
     1
  9
$SPLFRAME
 70
     0
  9
$SPLINETYPE
 70
     6
  9
$SPLINESEGS
 70
     8
  9
$ATTDIA
 70
     1
  9
$ATTREQ
 70
     1
  9
$HANDLING
 70
     1
  9
$HANDSEED
  5
9B99
  9
$SURFTAB1
 70
     6
  9
$SURFTAB2
 70
     6
  9
$SURFTYPE
 70
     6
  9
$SURFU
 70
     6
  9
$SURFV
 70
     6
  9
$UCSNAME
  2

  9
$UCSORG
 10
0.0
 20
0.0
 30
0.0
  9
$UCSXDIR
 10
1.0
 20
0.0
 30
0.0
  9
$UCSYDIR
 10
0.0
 20
1.0
 30
0.0
  9
$PUCSNAME
  2

  9
$PUCSORG
 10
0.0
 20
0.0
 30
0.0
  9
$PUCSXDIR
 10
1.0
 20
0.0
 30
0.0
  9
$PUCSYDIR
 10
0.0
 20
1.0
 30
0.0
  9
$USERI1
 70
     0
  9
$USERI2
 70
     0
  9
$USERI3
 70
     0
  9
$USERI4
 70
     0
  9
$USERI5
 70
     0
  9
$USERR1
 40
0.0
  9
$USERR2
 40
0.0
  9
$USERR3
 40
0.0
  9
$USERR4
 40
0.0
  9
$USERR5
 40
0.0
  9
$WORLDVIEW
 70
     1
  9
$SHADEDGE
 70
     3
  9
$SHADEDIF
 70
    70
  9
$TILEMODE
 70
     1
  9
$MAXACTVP
 70
    64
  9
$PLIMCHECK
 70
     0
  9
$PEXTMIN
 10
1.0000000000000000E+20
 20
1.0000000000000000E+20
 30
1.0000000000000000E+20
  9
$PEXTMAX
 10
-1.0000000000000000E+20
 20
-1.0000000000000000E+20
 30
-1.0000000000000000E+20
  9
$PLIMMIN
 10
0.0
 20
0.0
  9
$PLIMMAX
 10
12.0
 20
9.0
  9
$UNITMODE
 70
     0
  9
$VISRETAIN
 70
     1
  9
$PLINEGEN
 70
     0
  9
$PSLTSCALE
 70
     1
  0
ENDSEC
  0
SECTION
  2
TABLES
  0
TABLE
  2
VPORT
 70
     1
  0
VPORT
  2
*ACTIVE
 70
     0
 10
0.0
 20
0.0
 11
1.0
 21
1.0
 12
0.0
 22
0.0
 13
0.0
 23
0.0
 14
1.0
 24
1.0
 15
0.0
 25
0.0
 16
0.0
 26
0.0
 36
40.2210844282104389
 17
3483.716796875
 27
199.7529830932616903
 37
0.0
 40
9.6882144077283421
 41
3.314341846758349
 42
50.0
 43
0.0
 44
0.0
 50
0.0
 51
0.0
 71
     0
 72
   100
 73
     1
 74
     1
 75
     0
 76
     0
 77
     0
 78
     0
  0
ENDTAB
  0
TABLE
  2
LTYPE
 70
     2
  0
LTYPE
  2
CONTINUOUS
 70
     0
  3
Solid line
 72
    65
 73
     0
 40
0.0
  0
LTYPE
  2
PHANTOM2
 70
     0
  3
___ _ _ ___ _ _ ___ _ _ ___ _ _
 72
    65
 73
     6
 40
1.25
 49
0.625
 49
-0.125
 49
0.125
 49
-0.125
 49
0.125
 49
-0.125
  0
ENDTAB
  0
TABLE
  2
LAYER
 70
     2
  0
LAYER
  2
0
 70
     0
 62
   255
  6
CONTINUOUS
  0
LAYER
  2
DEFPOINTS
 70
     0
 62
     7
  6
CONTINUOUS
  0
ENDTAB
  0
TABLE
  2
STYLE
 70
     1
  0
STYLE
  2
STANDARD
 70
     0
 40
0.0
 41
0.8
 50
0.0
 71
     0
 42
0.2
  3
txt
  4

  0
ENDTAB
  0
TABLE
  2
VIEW
 70
     0
  0
ENDTAB
  0
TABLE
  2
UCS
 70
     0
  0
ENDTAB
  0
TABLE
  2
APPID
 70
     9
  0
APPID
  2
ACAD
 70
     0
  0
APPID
  2
ACAD_MLEADERVER
 70
     0
  0
APPID
  2
ACAD_EXEMPT_FROM_CAD_STANDARDS
 70
     0
  0
APPID
  2
ACAD_NAV_VCDISPLAY
 70
     0
  0
APPID
  2
ACAECLAYERSTANDARD
 70
     0
  0
APPID
  2
ACCMTRANSPARENCY
 70
     0
  0
APPID
  2
ACAD_DSTYLE_DIMJAG
 70
     0
  0
APPID
  2
ACAD_DSTYLE_DIMTALN
 70
     0
  0
APPID
  2
ACDBATTR
 70
     0
  0
ENDTAB
  0
TABLE
  2
DIMSTYLE
 70
     1
  0
DIMSTYLE
  2
STANDARD
 70
     0
  3

  4

  5

  6

  7

 40
1.0
 41
0.1875
 42
0.0625
 43
0.38
 44
0.125
 45
0.0
 46
0.0
 47
0.01
 48
0.01
140
0.15625
141
0.09
142
0.0
143
25.3999999999999986
144
1.0
145
0.0
146
1.0
147
0.09
 71
     1
 72
     0
 73
     1
 74
     1
 75
     0
 76
     0
 77
     0
 78
     4
170
     0
171
     2
172
     0
173
     0
174
     0
175
     0
176
     0
177
     0
178
     0
  0
ENDTAB
  0
ENDSEC
  0
SECTION
  2
BLOCKS
  0
BLOCK
  8
0
  2
$MODEL_SPACE
 70
     0
 10
0.0
 20
0.0
 30
0.0
  3
$MODEL_SPACE
  1

  0
ENDBLK
  5
21
  8
0
  0
BLOCK
 67
     1
  8
0
  2
$PAPER_SPACE
 70
     0
 10
0.0
 20
0.0
 30
0.0
  3
$PAPER_SPACE
  1

  0
ENDBLK
  5
1D
 67
     1
  8
0
  0
BLOCK
  8
0
  2
_FILLED
 70
     0
 10
0.0
 20
0.0
 30
0.0
  3
_FILLED
  1

  0
SOLID
  5
6F59
  8
0
  6
BYBLOCK
 62
     0
 10
0.0
 20
0.0
 30
0.0
 11
-1.0
 21
0.1666666667
 31
0.0
 12
-1.0
 22
-0.1666666667
 32
0.0
 13
-1.0
 23
-0.1666666667
 33
0.0
  0
ENDBLK
  5
6F5A
  8
0
  6
BYBLOCK
 62
     0
  0
ENDSEC
  0
SECTION
  2
ENTITIES
  0
ATTDEF
  5
3930
  8
DEFPOINTS
 10
3483.7170139519439545
 20
204.4495786568849951
 30
0.0
 40
0.001
  1
K-23888T-ND
  3

  2
MODELNUMBER
 70
     0
1001
ACDBATTR
1070
     0
1070
     1
  0
ATTDEF
  5
3931
  8
DEFPOINTS
 10
3483.7170139519439545
 20
204.4479119902183015
 30
0.0
 40
0.001
  1
COMPONENTS
  3

  2
TRADENAME
 70
     0
1001
ACDBATTR
1070
     0
1070
     1
  0
ATTDEF
  5
3932
  8
DEFPOINTS
 10
3483.7170139519439545
 20
204.4462453235516932
 30
0.0
 40
0.001
  1
BATHROOM SINK FAUCET
  3

  2
PRODUCT
 70
     0
1001
ACDBATTR
1070
     0
1070
     1
  0
LINE
  5
99F1
  8
0
 10
3482.5356391487230212
 20
204.4508879911797123
 30
0.0
 11
3482.5356391487230212
 21
204.3170297234796919
 31
0.0
  0
ARC
  5
99F2
  8
0
 10
3482.555324188144823
 20
204.3170297234796919
 30
0.0
 40
0.0196850394225914
 50
180.0
 51
256.3999998315267135
  0
LINE
  5
99F3
  8
0
 10
3482.5506954063230296
 20
204.2978966328797128
 30
0.0
 11
3483.0599018479551887
 21
204.1747066281780008
 31
0.0
  0
ARC
  5
99F4
  8
0
 10
3483.0622110603321744
 20
204.1842517679856996
 30
0.0
 40
0.009820496716288
 50
256.3999998315263724
 51
348.906614999602823
  0
LINE
  5
99F5
  8
0
 10
3483.059918255222783
 20
204.1747026949796862
 30
0.0
 11
3483.059918255222783
 21
204.1839352730879966
 31
0.0
  0
ARC
  5
99F6
  8
0
 10
3483.0620444271371525
 20
204.176115755676193
 30
0.0
 40
0.0081034227065617
 50
75.4208165597647024
 51
105.2112996100254065
  0
LINE
  5
99F7
  8
0
 10
3483.0640842025159145
 20
204.1839582537454021
 30
0.0
 11
3483.4771021979581747
 21
204.0990531700064139
 31
0.0
  0
ARC
  5
99F8
  8
0
 10
3483.7395908173170938
 20
205.5460284084851139
 30
0.0
 40
1.470590907106321
 50
259.7180682945015064
 51
269.1097309959886843
  0
LINE
  5
99F9
  8
0
 10
3483.0917415109229296
 20
204.1782726756053989
 30
0.0
 11
3483.0917415109229296
 21
195.0645130241796039
 31
0.0
  0
ARC
  5
99FA
  8
0
 10
3483.1011755752710997
 20
195.0645130241796039
 30
0.0
 40
0.0094340643479938
 50
179.9999999999984084
 51
272.4814422095561781
  0
LINE
  5
99FB
  8
0
 10
3484.897843873122838
 20
204.4508879911797123
 30
0.0
 11
3484.897843873122838
 21
204.3170297234796919
 31
0.0
  0
ARC
  5
99FC
  8
0
 10
3484.8781588337010362
 20
204.3170297234796919
 30
0.0
 40
0.0196850394225914
 50
283.6000001684732865
 51
0.0
  0
LINE
  5
99FD
  8
0
 10
3484.8827876155228296
 20
204.2978966328797128
 30
0.0
 11
3484.3735811738911252
 21
204.1747066281780008
 31
0.0
  0
ARC
  5
99FE
  8
0
 10
3484.3712719615127753
 20
204.1842517679856996
 30
0.0
 40
0.009820496716288
 50
191.0933850003970917
 51
283.6000001684736276
  0
LINE
  5
99FF
  8
0
 10
3484.3735647666230761
 20
204.1747026949796862
 30
0.0
 11
3484.3735647666230761
 21
204.1839352730879966
 31
0.0
  0
ARC
  5
9A00
  8
0
 10
3484.3714385947077972
 20
204.176115755676193
 30
0.0
 40
0.0081034227065617
 50
74.7887003899745508
 51
104.5791834402352976
  0
LINE
  5
9A01
  8
0
 10
3484.3693988193299447
 20
204.1839582537454021
 30
0.0
 11
3483.956380823886775
 21
204.0990531700064139
 31
0.0
  0
ARC
  5
9A02
  8
0
 10
3483.6938922045278559
 20
205.5460284084851139
 30
0.0
 40
1.470590907106321
 50
270.8902690040113157
 51
280.2819317054983799
  0
LINE
  5
9A03
  8
0
 10
3484.3417415109229296
 20
204.1782726756053989
 30
0.0
 11
3484.3417415109229296
 21
195.0645130241796039
 31
0.0
  0
ARC
  5
9A04
  8
0
 10
3484.3323074465752143
 20
195.0645130241796039
 30
0.0
 40
0.0094340643479938
 50
267.5185577904438219
 51
0.0000000000016284
  0
LINE
  5
9A05
  8
0
 10
3482.5356391487230212
 20
204.4508879911797123
 30
0.0
 11
3484.897843873122838
 21
204.4508879911797123
 31
0.0
  0
LINE
  5
9A06
  8
0
 10
3483.1015840306231439
 20
195.0550878061796141
 30
0.0
 11
3484.33189899122317
 21
195.0550878061796141
 31
0.0
  0
LINE
  5
9A08
  8
0
 10
3482.5506954063230296
 20
204.2978966328797128
 30
0.0
 11
3484.8827876155228296
 21
204.2978966328797128
 31
0.0
  0
ENDSEC
  0
EOF
