  0
SECTION
  2
HEADER
  9
$ACADVER
  1
AC1009
  9
$INSBASE
 10
233.9555592465237908
 20
-104.9839111368016944
 30
0.0
  9
$EXTMIN
 10
178.6228726076600992
 20
-126.7431271038091012
 30
0.0
  9
$EXTMAX
 10
245.3012662112930116
 20
-59.0832865731378192
 30
0.0
  9
$LIMMIN
 10
0.0
 20
0.0
  9
$LIMMAX
 10
11.6929133858000007
 20
8.2677165353999982
  9
$ORTHOMODE
 70
     0
  9
$REGENMODE
 70
     1
  9
$FILLMODE
 70
     1
  9
$QTEXTMODE
 70
     0
  9
$MIRRTEXT
 70
     0
  9
$DRAGMODE
 70
     2
  9
$LTSCALE
 40
0.6431102362
  9
$OSMODE
 70
  4095
  9
$ATTMODE
 70
     1
  9
$TEXTSIZE
 40
0.2
  9
$TRACEWID
 40
0.05
  9
$TEXTSTYLE
  7
STANDARD
  9
$CLAYER
  8
0
  9
$CELTYPE
  6
BYLAYER
  9
$CECOLOR
 62
   256
  9
$DIMSCALE
 40
1.0
  9
$DIMASZ
 40
0.1875
  9
$DIMEXO
 40
0.0625
  9
$DIMDLI
 40
0.4443307087
  9
$DIMRND
 40
0.0
  9
$DIMDLE
 40
0.0
  9
$DIMEXE
 40
0.125
  9
$DIMTP
 40
0.01
  9
$DIMTM
 40
0.01
  9
$DIMTXT
 40
1.0
  9
$DIMCEN
 40
0.1052362205
  9
$DIMTSZ
 40
0.0
  9
$DIMTOL
 70
     1
  9
$DIMLIM
 70
     0
  9
$DIMTIH
 70
     1
  9
$DIMTOH
 70
     1
  9
$DIMSE1
 70
     0
  9
$DIMSE2
 70
     0
  9
$DIMTAD
 70
     0
  9
$DIMZIN
 70
     0
  9
$DIMBLK
  1

  9
$DIMASO
 70
     1
  9
$DIMSHO
 70
     1
  9
$DIMPOST
  1
\X
  9
$DIMAPOST
  1

  9
$DIMALT
 70
     1
  9
$DIMALTD
 70
     2
  9
$DIMALTF
 40
25.3999999999999986
  9
$DIMLFAC
 40
1.0
  9
$DIMTOFL
 70
     0
  9
$DIMTVP
 40
0.0
  9
$DIMTIX
 70
     0
  9
$DIMSOXD
 70
     0
  9
$DIMSAH
 70
     0
  9
$DIMBLK1
  1

  9
$DIMBLK2
  1

  9
$DIMSTYLE
  2
STANDARD
  9
$DIMCLRD
 70
     0
  9
$DIMCLRE
 70
     0
  9
$DIMCLRT
 70
     0
  9
$DIMTFAC
 40
1.0
  9
$DIMGAP
 40
0.09
  9
$LUNITS
 70
     2
  9
$LUPREC
 70
     4
  9
$SKETCHINC
 40
0.1
  9
$FILLETRAD
 40
0.0
  9
$AUNITS
 70
     0
  9
$AUPREC
 70
     0
  9
$MENU
  1
.
  9
$ELEVATION
 40
0.0
  9
$PELEVATION
 40
0.0
  9
$THICKNESS
 40
0.0
  9
$LIMCHECK
 70
     0
  9
$BLIPMODE
 70
     0
  9
$CHAMFERA
 40
0.0
  9
$CHAMFERB
 40
0.0
  9
$SKPOLY
 70
     0
  9
$TDCREATE
 40
2458172.4620254631154239
  9
$TDUPDATE
 40
2459152.9764699079096317
  9
$TDINDWG
 40
0.1439642708
  9
$TDUSRTIMER
 40
0.1439642708
  9
$USRTIMER
 70
     1
  9
$ANGBASE
 50
0.0
  9
$ANGDIR
 70
     0
  9
$PDMODE
 70
     0
  9
$PDSIZE
 40
0.3125
  9
$PLINEWID
 40
0.0
  9
$COORDS
 70
     1
  9
$SPLFRAME
 70
     0
  9
$SPLINETYPE
 70
     6
  9
$SPLINESEGS
 70
     8
  9
$ATTDIA
 70
     1
  9
$ATTREQ
 70
     1
  9
$HANDLING
 70
     1
  9
$HANDSEED
  5
6E6D
  9
$SURFTAB1
 70
     6
  9
$SURFTAB2
 70
     6
  9
$SURFTYPE
 70
     6
  9
$SURFU
 70
     6
  9
$SURFV
 70
     6
  9
$UCSNAME
  2

  9
$UCSORG
 10
0.0
 20
0.0
 30
0.0
  9
$UCSXDIR
 10
1.0
 20
0.0
 30
0.0
  9
$UCSYDIR
 10
0.0
 20
1.0
 30
0.0
  9
$PUCSNAME
  2

  9
$PUCSORG
 10
0.0
 20
0.0
 30
0.0
  9
$PUCSXDIR
 10
1.0
 20
0.0
 30
0.0
  9
$PUCSYDIR
 10
0.0
 20
1.0
 30
0.0
  9
$USERI1
 70
     0
  9
$USERI2
 70
     0
  9
$USERI3
 70
     0
  9
$USERI4
 70
     0
  9
$USERI5
 70
     0
  9
$USERR1
 40
0.0
  9
$USERR2
 40
0.0
  9
$USERR3
 40
0.0
  9
$USERR4
 40
0.0
  9
$USERR5
 40
0.0
  9
$WORLDVIEW
 70
     1
  9
$SHADEDGE
 70
     3
  9
$SHADEDIF
 70
    70
  9
$TILEMODE
 70
     1
  9
$MAXACTVP
 70
    64
  9
$PLIMCHECK
 70
     0
  9
$PEXTMIN
 10
1.0000000000000000E+20
 20
1.0000000000000000E+20
 30
1.0000000000000000E+20
  9
$PEXTMAX
 10
-1.0000000000000000E+20
 20
-1.0000000000000000E+20
 30
-1.0000000000000000E+20
  9
$PLIMMIN
 10
0.0
 20
0.0
  9
$PLIMMAX
 10
12.0
 20
9.0
  9
$UNITMODE
 70
     0
  9
$VISRETAIN
 70
     1
  9
$PLINEGEN
 70
     0
  9
$PSLTSCALE
 70
     1
  0
ENDSEC
  0
SECTION
  2
TABLES
  0
TABLE
  2
VPORT
 70
     1
  0
VPORT
  2
*ACTIVE
 70
     0
 10
0.0
 20
0.0
 11
1.0
 21
1.0
 12
124.5806424280650049
 22
-97.3357468839971602
 13
0.0
 23
0.0
 14
1.0
 24
1.0
 15
0.0
 25
0.0
 16
0.0
 26
0.0
 36
30.6214257250603907
 17
124.6111586000725993
 27
5.3122741703778242
 37
0.0
 40
168.4351933643214068
 41
2.005224660397074
 42
50.0
 43
0.0
 44
0.0
 50
0.0
 51
0.0
 71
     0
 72
   100
 73
     1
 74
     1
 75
     0
 76
     0
 77
     0
 78
     0
  0
ENDTAB
  0
TABLE
  2
LTYPE
 70
     2
  0
LTYPE
  2
CONTINUOUS
 70
     0
  3
Solid line
 72
    65
 73
     0
 40
0.0
  0
LTYPE
  2
PHANTOM2
 70
     0
  3
___ _ _ ___ _ _ ___ _ _ ___ _ _
 72
    65
 73
     6
 40
1.25
 49
0.625
 49
-0.125
 49
0.125
 49
-0.125
 49
0.125
 49
-0.125
  0
ENDTAB
  0
TABLE
  2
LAYER
 70
     2
  0
LAYER
  2
0
 70
     0
 62
   255
  6
CONTINUOUS
  0
LAYER
  2
DEFPOINTS
 70
     0
 62
     7
  6
CONTINUOUS
  0
ENDTAB
  0
TABLE
  2
STYLE
 70
     1
  0
STYLE
  2
STANDARD
 70
     0
 40
0.0
 41
0.8
 50
0.0
 71
     0
 42
0.2
  3
txt
  4

  0
ENDTAB
  0
TABLE
  2
VIEW
 70
     0
  0
ENDTAB
  0
TABLE
  2
UCS
 70
     0
  0
ENDTAB
  0
TABLE
  2
APPID
 70
     9
  0
APPID
  2
ACAD
 70
     0
  0
APPID
  2
ACAD_MLEADERVER
 70
     0
  0
APPID
  2
ACAD_EXEMPT_FROM_CAD_STANDARDS
 70
     0
  0
APPID
  2
ACAD_DSTYLE_DIMJAG
 70
     0
  0
APPID
  2
ACAD_DSTYLE_DIMTALN
 70
     0
  0
APPID
  2
ACAD_NAV_VCDISPLAY
 70
     0
  0
APPID
  2
ACAECLAYERSTANDARD
 70
     0
  0
APPID
  2
ACCMTRANSPARENCY
 70
     0
  0
APPID
  2
ACDBATTR
 70
     0
  0
ENDTAB
  0
TABLE
  2
DIMSTYLE
 70
     1
  0
DIMSTYLE
  2
STANDARD
 70
     0
  3

  4

  5

  6

  7

 40
1.0
 41
0.1875
 42
0.0625
 43
0.38
 44
0.125
 45
0.0
 46
0.0
 47
0.01
 48
0.01
140
0.15625
141
0.09
142
0.0
143
25.3999999999999986
144
1.0
145
0.0
146
1.0
147
0.09
 71
     1
 72
     0
 73
     1
 74
     1
 75
     0
 76
     0
 77
     0
 78
     4
170
     0
171
     2
172
     0
173
     0
174
     0
175
     0
176
     0
177
     0
178
     0
  0
ENDTAB
  0
ENDSEC
  0
SECTION
  2
BLOCKS
  0
BLOCK
  8
0
  2
$MODEL_SPACE
 70
     0
 10
0.0
 20
0.0
 30
0.0
  3
$MODEL_SPACE
  1

  0
ENDBLK
  5
21
  8
0
  0
BLOCK
 67
     1
  8
0
  2
$PAPER_SPACE
 70
     0
 10
0.0
 20
0.0
 30
0.0
  3
$PAPER_SPACE
  1

  0
ENDBLK
  5
1D
 67
     1
  8
0
  0
BLOCK
  8
0
  2
_FILLED
 70
     0
 10
0.0
 20
0.0
 30
0.0
  3
_FILLED
  1

  0
SOLID
  5
69C2
  8
0
  6
BYBLOCK
 62
     0
 10
0.0
 20
0.0
 30
0.0
 11
-1.0
 21
0.1666666667
 31
0.0
 12
-1.0
 22
-0.1666666667
 32
0.0
 13
-1.0
 23
-0.1666666667
 33
0.0
  0
ENDBLK
  5
69C3
  8
0
  6
BYBLOCK
 62
     0
  0
BLOCK
  8
0
  2
_CLOSED
 70
     0
 10
0.0
 20
0.0
 30
0.0
  3
_CLOSED
  1

  0
LINE
  5
6CAA
  8
0
  6
BYBLOCK
 62
     0
 10
0.0
 20
0.0
 30
0.0
 11
-1.0
 21
0.1666666667
 31
0.0
  0
LINE
  5
6CAB
  8
0
  6
BYBLOCK
 62
     0
 10
-1.0
 20
0.1666666667
 30
0.0
 11
-1.0
 21
-0.1666666667
 31
0.0
  0
LINE
  5
6CAC
  8
0
  6
BYBLOCK
 62
     0
 10
-1.0
 20
-0.1666666667
 30
0.0
 11
0.0
 21
0.0
 31
0.0
  0
LINE
  5
6CAD
  8
0
  6
BYBLOCK
 62
     0
 10
-1.0
 20
0.0
 30
0.0
 11
0.0
 21
0.0
 31
0.0
  0
ENDBLK
  5
6CAE
  8
0
  6
BYBLOCK
 62
     0
  0
BLOCK
  8
0
  2
A$C38D08775
 70
     0
 10
0.0
 20
0.0
 30
0.0
  3
A$C38D08775
  1

  0
LINE
  5
6CB0
  8
0
 10
425.923656736116186
 20
183.1101232360749123
 30
0.0
 11
436.5121661393162071
 21
183.1101232360749123
 31
0.0
  0
LINE
  5
6CB1
  8
0
 10
426.3230263592162146
 20
210.2601232360748895
 30
0.0
 11
436.1127965162161786
 21
210.2601232360748895
 31
0.0
  0
LINE
  5
6CB2
  8
0
 10
424.6517923751163153
 20
211.8601232360749123
 30
0.0
 11
424.700471358616312
 21
211.8601232360749123
 31
0.0
  0
ARC
  5
6CB3
  8
0
 10
426.3402303224194156
 20
210.4802163490055023
 30
0.0
 40
0.2207644779156499
 50
228.0205054719920099
 51
265.5304633933346281
  0
ARC
  5
6CB4
  8
0
 10
425.9436162819873744
 20
183.3768868681040942
 30
0.0
 40
0.267509287399186
 50
174.7291347221377862
 51
265.7210402247214915
  0
ARC
  5
6CB5
  8
0
 10
213.9335931148270902
 20
213.9335929320504022
 30
0.0
 40
213.9335931238153989
 50
351.7948557725961791
 51
358.4401633743701154
  0
ARC
  5
6CB6
  8
0
 10
422.3164326585109052
 20
208.4583105869334076
 30
0.0
 40
5.4825463527810561
 50
356.3587906002754266
 51
19.1865664443770285
  0
ARC
  5
6CB7
  8
0
 10
424.6532976218862814
 20
212.0436291981741022
 30
0.0
 40
0.183512135549073
 50
222.2270176699099125
 51
269.5300296958399144
  0
ARC
  5
6CB8
  8
0
 10
404.0228505607630041
 20
190.384879144978413
 30
0.0
 40
29.8119122270274914
 50
41.9564673386036802
 51
46.084030594724581
  0
ARC
  5
6CB9
  8
0
 10
393.9550380461969894
 20
181.496512826266013
 30
0.0
 40
43.123834740231878
 50
44.8697987144893133
 51
52.7401191065165094
  0
ARC
  5
6CBA
  8
0
 10
420.1912150081807908
 20
216.0019635208635975
 30
0.0
 40
0.2233688488021303
 50
187.3654391523278093
 51
235.1437424412310122
  0
LINE
  5
6CBB
  8
0
 10
419.9696892491162998
 20
215.9733282159749024
 30
0.0
 11
419.8726888923162051
 21
217.4280486624749074
 31
0.0
  0
ARC
  5
6CBC
  8
0
 10
420.0731671591098007
 20
217.4419937610113891
 30
0.0
 40
0.2009626861627425
 50
89.4545859967920904
 51
183.9790366913233015
  0
LINE
  5
6CBD
  8
0
 10
420.0750801483162036
 20
217.6429473419748888
 30
0.0
 11
442.3607427271159054
 21
217.6429473419748888
 31
0.0
  0
LINE
  5
6CBE
  8
0
 10
442.3722675339120087
 20
215.8186696253750085
 30
0.0
 11
420.0635553415204981
 21
215.8186696253748948
 31
0.0
  0
LINE
  5
6CBF
  8
0
 10
437.7840305003161916
 20
211.8601232360749123
 30
0.0
 11
437.7353515168163085
 21
211.8601232360749123
 31
0.0
  0
ARC
  5
6CC0
  8
0
 10
436.0955925530130912
 20
210.4802163490055023
 30
0.0
 40
0.2207644779156499
 50
274.4695366066653719
 51
311.9794945280081038
  0
ARC
  5
6CC1
  8
0
 10
436.4922065934450188
 20
183.3768868681040942
 30
0.0
 40
0.267509287399186
 50
274.2789597752753252
 51
5.2708652778621561
  0
ARC
  5
6CC2
  8
0
 10
648.5022297606052462
 20
213.9335929320504022
 30
0.0
 40
213.9335931238153989
 50
181.559836625629913
 51
188.2051442274037072
  0
ARC
  5
6CC3
  8
0
 10
440.119390216921488
 20
208.4583105869334076
 30
0.0
 40
5.4825463527810561
 50
160.8134335556229075
 51
183.6412093997244881
  0
ARC
  5
6CC4
  8
0
 10
437.7825252535462823
 20
212.0436291981741022
 30
0.0
 40
0.183512135549073
 50
270.4699703041599719
 51
317.7729823300900875
  0
ARC
  5
6CC5
  8
0
 10
458.4129723146695028
 20
190.384879144978413
 30
0.0
 40
29.8119122270274914
 50
133.9159694052754048
 51
138.0435326613963127
  0
ARC
  5
6CC6
  8
0
 10
468.4807848292355743
 20
181.496512826266013
 30
0.0
 40
43.123834740231878
 50
127.2598808934834977
 51
135.130201285510708
  0
ARC
  5
6CC7
  8
0
 10
442.244607867251716
 20
216.0019635208635975
 30
0.0
 40
0.2233688488021303
 50
304.8562575587689025
 51
352.6345608476721054
  0
LINE
  5
6CC8
  8
0
 10
442.466133626316207
 20
215.9733282159749024
 30
0.0
 11
442.5631339831161881
 21
217.4280486624749074
 31
0.0
  0
ARC
  5
6CC9
  8
0
 10
442.3626557163227062
 20
217.4419937610113891
 30
0.0
 40
0.2009626861627425
 50
356.0209633086766985
 51
90.5454140032079238
  0
LINE
  5
6CCA
  8
0
 62
     1
 10
431.2179114377162819
 20
183.1101232360749123
 30
0.0
 11
383.6264864134662957
 21
141.0704051239644059
 31
0.0
  0
ENDBLK
  5
6CCC
  8
0
  0
ENDSEC
  0
SECTION
  2
ENTITIES
  0
ATTDEF
  5
6869
  8
DEFPOINTS
 10
233.9594205723122116
 20
-104.9797277522410042
 30
0.0
 40
0.001
  1
K-2362T-8V
  3

  2
MODELNUMBER
 70
     0
1001
ACDBATTR
1070
     0
1070
     1
  0
ATTDEF
  5
686A
  8
DEFPOINTS
 10
233.9594205723122116
 20
-104.9813944189075983
 30
0.0
 40
0.001
  1
CIMARRON
  3

  2
TRADENAME
 70
     0
1001
ACDBATTR
1070
     0
1070
     1
  0
ATTDEF
  5
686B
  8
DEFPOINTS
 10
233.9594205723122116
 20
-104.983061085574306
 30
0.0
 40
0.001
  1
BATHROOM SINK
  3

  2
PRODUCT
 70
     0
1001
ACDBATTR
1070
     0
1070
     1
  0
LINE
  5
6DCE
  8
0
 10
228.6613045449238086
 20
-104.9839111368016944
 30
0.0
 11
239.2498139481238866
 21
-104.9839111368016944
 31
0.0
  0
LINE
  5
6DCF
  8
0
 10
229.0606741680238088
 20
-77.8339111368017029
 30
0.0
 11
238.8504443250238012
 21
-77.8339111368017029
 31
0.0
  0
LINE
  5
6DD0
  8
0
 10
227.3894401839237958
 20
-76.2339111368016944
 30
0.0
 11
227.4381191674239062
 21
-76.2339111368016944
 31
0.0
  0
ARC
  5
6DD1
  8
0
 10
229.0778781312268961
 20
-77.6138180238711186
 30
0.0
 40
0.2207644779156499
 50
228.0205054719909015
 51
265.5304633933345144
  0
ARC
  5
6DD2
  8
0
 10
228.6812640907949969
 20
-104.7171475047724982
 30
0.0
 40
0.267509287399186
 50
174.7291347221377862
 51
265.7210402247216052
  0
ARC
  5
6DD3
  8
0
 10
16.6712409236347092
 20
-74.1604414408262187
 30
0.0
 40
213.9335931238153989
 50
351.7948557725947012
 51
358.4401633743701154
  0
ARC
  5
6DD4
  8
0
 10
225.0540804673184994
 20
-79.6357237859431564
 30
0.0
 40
5.4825463527810561
 50
356.358790600275313
 51
19.1865664443785704
  0
ARC
  5
6DD5
  8
0
 10
227.3909454306937903
 20
-76.0504051747025187
 30
0.0
 40
0.183512135549073
 50
222.2270176699099125
 51
269.5300296958399144
  0
ARC
  5
6DD6
  8
0
 10
206.7604983695705982
 20
-97.7091552278982363
 30
0.0
 40
29.8119122270274914
 50
41.9564673386036802
 51
46.084030594724581
  0
ARC
  5
6DD7
  8
0
 10
196.6926858550044983
 20
-106.5975215466104942
 30
0.0
 40
43.123834740231878
 50
44.8697987144893133
 51
52.7401191065165094
  0
ARC
  5
6DD8
  8
0
 10
222.9288628169882998
 20
-72.0920708520130802
 30
0.0
 40
0.2233688488021303
 50
187.365439152329202
 51
235.1437424412310122
  0
LINE
  5
6DD9
  8
0
 10
222.7073370579238087
 20
-72.1207061569017185
 30
0.0
 11
222.6103367011237992
 21
-70.6659857104017135
 31
0.0
  0
ARC
  5
6DDA
  8
0
 10
222.8108149679173096
 20
-70.6520406118651749
 30
0.0
 40
0.2009626861627425
 50
89.4545859967920904
 51
183.9790366913248931
  0
LINE
  5
6DDB
  8
0
 10
222.8127279571239114
 20
-70.4510870309017037
 30
0.0
 11
245.0983905359234996
 21
-70.4510870309017037
 31
0.0
  0
LINE
  5
6DDC
  8
0
 10
245.1099153427194892
 20
-72.2753647475016407
 30
0.0
 11
222.8012031503280923
 21
-72.2753647475016407
 31
0.0
  0
LINE
  5
6DDD
  8
0
 10
240.5216783091238142
 20
-76.2339111368016944
 30
0.0
 11
240.472999325623789
 21
-76.2339111368016944
 31
0.0
  0
ARC
  5
6DDE
  8
0
 10
238.8332403618207138
 20
-77.6138180238711186
 30
0.0
 40
0.2207644779156499
 50
274.4695366066654856
 51
311.979494528009127
  0
ARC
  5
6DDF
  8
0
 10
239.229854402252613
 20
-104.7171475047724982
 30
0.0
 40
0.267509287399186
 50
274.2789597752750979
 51
5.2708652778621561
  0
ARC
  5
6DE0
  8
0
 10
451.2398775694127835
 20
-74.1604414408262187
 30
0.0
 40
213.9335931238153989
 50
181.559836625629913
 51
188.2051442274052988
  0
ARC
  5
6DE1
  8
0
 10
242.8570380257291106
 20
-79.6357237859431564
 30
0.0
 40
5.4825463527810561
 50
160.8134335556214012
 51
183.6412093997246018
  0
ARC
  5
6DE2
  8
0
 10
240.5201730623537912
 20
-76.0504051747025187
 30
0.0
 40
0.183512135549073
 50
270.4699703041599719
 51
317.7729823300900875
  0
ARC
  5
6DE3
  8
0
 10
261.150620123477097
 20
-97.7091552278982363
 30
0.0
 40
29.8119122270274914
 50
133.9159694052754048
 51
138.0435326613963127
  0
ARC
  5
6DE4
  8
0
 10
271.2184326380432253
 20
-106.5975215466104942
 30
0.0
 40
43.123834740231878
 50
127.2598808934834977
 51
135.130201285510708
  0
ARC
  5
6DE5
  8
0
 10
244.9822556760591965
 20
-72.0920708520130802
 30
0.0
 40
0.2233688488021303
 50
304.8562575587689025
 51
352.6345608476706843
  0
LINE
  5
6DE6
  8
0
 10
245.2037814351238012
 20
-72.1207061569017185
 30
0.0
 11
245.3007817919238107
 21
-70.6659857104017135
 31
0.0
  0
ARC
  5
6DE7
  8
0
 10
245.1003035251301867
 20
-70.6520406118651749
 30
0.0
 40
0.2009626861627425
 50
356.0209633086751069
 51
90.5454140032079238
  0
ENDSEC
  0
EOF
