  0
SECTION
  2
HEADER
  9
$ACADVER
  1
AC1009
  9
$INSBASE
 10
3563.9030317764832034
 20
200.2877159912181924
 30
0.0
  9
$EXTMIN
 10
3554.0973509654368172
 20
192.6269795036683092
 30
0.0
  9
$EXTMAX
 10
3573.7087227306187742
 20
207.948787655802505
 30
0.0
  9
$LIMMIN
 10
0.0
 20
0.0
  9
$LIMMAX
 10
11.6929133858000007
 20
8.2677165353999982
  9
$ORTHOMODE
 70
     0
  9
$REGENMODE
 70
     1
  9
$FILLMODE
 70
     1
  9
$QTEXTMODE
 70
     0
  9
$MIRRTEXT
 70
     0
  9
$DRAGMODE
 70
     2
  9
$LTSCALE
 40
0.6431102362
  9
$OSMODE
 70
  3839
  9
$ATTMODE
 70
     1
  9
$TEXTSIZE
 40
0.2
  9
$TRACEWID
 40
0.05
  9
$TEXTSTYLE
  7
STANDARD
  9
$CLAYER
  8
0
  9
$CELTYPE
  6
BYLAYER
  9
$CECOLOR
 62
   256
  9
$DIMSCALE
 40
1.0
  9
$DIMASZ
 40
0.1875
  9
$DIMEXO
 40
0.0625
  9
$DIMDLI
 40
0.4443307087
  9
$DIMRND
 40
0.0
  9
$DIMDLE
 40
0.0
  9
$DIMEXE
 40
0.125
  9
$DIMTP
 40
0.01
  9
$DIMTM
 40
0.01
  9
$DIMTXT
 40
2.0
  9
$DIMCEN
 40
0.1052362205
  9
$DIMTSZ
 40
0.0
  9
$DIMTOL
 70
     1
  9
$DIMLIM
 70
     0
  9
$DIMTIH
 70
     1
  9
$DIMTOH
 70
     1
  9
$DIMSE1
 70
     0
  9
$DIMSE2
 70
     0
  9
$DIMTAD
 70
     0
  9
$DIMZIN
 70
     0
  9
$DIMBLK
  1

  9
$DIMASO
 70
     1
  9
$DIMSHO
 70
     1
  9
$DIMPOST
  1
\X
  9
$DIMAPOST
  1

  9
$DIMALT
 70
     1
  9
$DIMALTD
 70
     2
  9
$DIMALTF
 40
25.3999999999999986
  9
$DIMLFAC
 40
1.0
  9
$DIMTOFL
 70
     0
  9
$DIMTVP
 40
0.0
  9
$DIMTIX
 70
     0
  9
$DIMSOXD
 70
     0
  9
$DIMSAH
 70
     0
  9
$DIMBLK1
  1

  9
$DIMBLK2
  1

  9
$DIMSTYLE
  2
STANDARD
  9
$DIMCLRD
 70
     0
  9
$DIMCLRE
 70
     0
  9
$DIMCLRT
 70
     0
  9
$DIMTFAC
 40
1.0
  9
$DIMGAP
 40
0.09
  9
$LUNITS
 70
     2
  9
$LUPREC
 70
     4
  9
$SKETCHINC
 40
0.1
  9
$FILLETRAD
 40
0.0
  9
$AUNITS
 70
     0
  9
$AUPREC
 70
     0
  9
$MENU
  1
.
  9
$ELEVATION
 40
0.0
  9
$PELEVATION
 40
0.0
  9
$THICKNESS
 40
0.0
  9
$LIMCHECK
 70
     0
  9
$BLIPMODE
 70
     0
  9
$CHAMFERA
 40
0.0
  9
$CHAMFERB
 40
0.0
  9
$SKPOLY
 70
     0
  9
$TDCREATE
 40
2458060.468368056230247
  9
$TDUPDATE
 40
2459016.6897916668094695
  9
$TDINDWG
 40
0.5169862269
  9
$TDUSRTIMER
 40
0.5169862269
  9
$USRTIMER
 70
     1
  9
$ANGBASE
 50
0.0
  9
$ANGDIR
 70
     0
  9
$PDMODE
 70
     0
  9
$PDSIZE
 40
0.3125
  9
$PLINEWID
 40
0.0
  9
$COORDS
 70
     1
  9
$SPLFRAME
 70
     0
  9
$SPLINETYPE
 70
     6
  9
$SPLINESEGS
 70
     8
  9
$ATTDIA
 70
     1
  9
$ATTREQ
 70
     1
  9
$HANDLING
 70
     1
  9
$HANDSEED
  5
8E34
  9
$SURFTAB1
 70
     6
  9
$SURFTAB2
 70
     6
  9
$SURFTYPE
 70
     6
  9
$SURFU
 70
     6
  9
$SURFV
 70
     6
  9
$UCSNAME
  2

  9
$UCSORG
 10
0.0
 20
0.0
 30
0.0
  9
$UCSXDIR
 10
1.0
 20
0.0
 30
0.0
  9
$UCSYDIR
 10
0.0
 20
1.0
 30
0.0
  9
$PUCSNAME
  2

  9
$PUCSORG
 10
0.0
 20
0.0
 30
0.0
  9
$PUCSXDIR
 10
1.0
 20
0.0
 30
0.0
  9
$PUCSYDIR
 10
0.0
 20
1.0
 30
0.0
  9
$USERI1
 70
     0
  9
$USERI2
 70
     0
  9
$USERI3
 70
     0
  9
$USERI4
 70
     0
  9
$USERI5
 70
     0
  9
$USERR1
 40
0.0
  9
$USERR2
 40
0.0
  9
$USERR3
 40
0.0
  9
$USERR4
 40
0.0
  9
$USERR5
 40
0.0
  9
$WORLDVIEW
 70
     1
  9
$SHADEDGE
 70
     3
  9
$SHADEDIF
 70
    70
  9
$TILEMODE
 70
     1
  9
$MAXACTVP
 70
    64
  9
$PLIMCHECK
 70
     0
  9
$PEXTMIN
 10
1.0000000000000000E+20
 20
1.0000000000000000E+20
 30
1.0000000000000000E+20
  9
$PEXTMAX
 10
-1.0000000000000000E+20
 20
-1.0000000000000000E+20
 30
-1.0000000000000000E+20
  9
$PLIMMIN
 10
0.0
 20
0.0
  9
$PLIMMAX
 10
12.0
 20
9.0
  9
$UNITMODE
 70
     0
  9
$VISRETAIN
 70
     1
  9
$PLINEGEN
 70
     0
  9
$PSLTSCALE
 70
     1
  0
ENDSEC
  0
SECTION
  2
TABLES
  0
TABLE
  2
VPORT
 70
     1
  0
VPORT
  2
*ACTIVE
 70
     0
 10
0.0
 20
0.0
 11
1.0
 21
1.0
 12
0.0
 22
1.7397409206916821
 13
0.0
 23
0.0
 14
1.0
 24
1.0
 15
0.0
 25
0.0
 16
0.0
 26
0.0
 36
85.7066374157718087
 17
3563.903076171875
 27
200.2877197265625
 37
0.0
 40
28.3699652803132594
 41
2.3528591352859132
 42
50.0
 43
0.0
 44
0.0
 50
0.0
 51
0.0
 71
     0
 72
   100
 73
     1
 74
     1
 75
     0
 76
     0
 77
     0
 78
     0
  0
ENDTAB
  0
TABLE
  2
LTYPE
 70
     2
  0
LTYPE
  2
CONTINUOUS
 70
     0
  3
Solid line
 72
    65
 73
     0
 40
0.0
  0
LTYPE
  2
PHANTOM2
 70
     0
  3
___ _ _ ___ _ _ ___ _ _ ___ _ _
 72
    65
 73
     6
 40
1.25
 49
0.625
 49
-0.125
 49
0.125
 49
-0.125
 49
0.125
 49
-0.125
  0
ENDTAB
  0
TABLE
  2
LAYER
 70
     2
  0
LAYER
  2
0
 70
     0
 62
   255
  6
CONTINUOUS
  0
LAYER
  2
DEFPOINTS
 70
     0
 62
     7
  6
CONTINUOUS
  0
ENDTAB
  0
TABLE
  2
STYLE
 70
     1
  0
STYLE
  2
STANDARD
 70
     0
 40
0.0
 41
0.8
 50
0.0
 71
     0
 42
0.2
  3
txt
  4

  0
ENDTAB
  0
TABLE
  2
VIEW
 70
     0
  0
ENDTAB
  0
TABLE
  2
UCS
 70
     0
  0
ENDTAB
  0
TABLE
  2
APPID
 70
     9
  0
APPID
  2
ACAD
 70
     0
  0
APPID
  2
ACAD_MLEADERVER
 70
     0
  0
APPID
  2
ACAD_EXEMPT_FROM_CAD_STANDARDS
 70
     0
  0
APPID
  2
ACAD_NAV_VCDISPLAY
 70
     0
  0
APPID
  2
ACAECLAYERSTANDARD
 70
     0
  0
APPID
  2
ACCMTRANSPARENCY
 70
     0
  0
APPID
  2
ACAD_DSTYLE_DIMJAG
 70
     0
  0
APPID
  2
ACAD_DSTYLE_DIMTALN
 70
     0
  0
APPID
  2
ACDBATTR
 70
     0
  0
ENDTAB
  0
TABLE
  2
DIMSTYLE
 70
     1
  0
DIMSTYLE
  2
STANDARD
 70
     0
  3

  4

  5

  6

  7

 40
1.0
 41
0.1875
 42
0.0625
 43
0.38
 44
0.125
 45
0.0
 46
0.0
 47
0.01
 48
0.01
140
0.15625
141
0.09
142
0.0
143
25.3999999999999986
144
1.0
145
0.0
146
1.0
147
0.09
 71
     1
 72
     0
 73
     1
 74
     1
 75
     0
 76
     0
 77
     0
 78
     4
170
     0
171
     2
172
     0
173
     0
174
     0
175
     0
176
     0
177
     0
178
     0
  0
ENDTAB
  0
ENDSEC
  0
SECTION
  2
BLOCKS
  0
BLOCK
  8
0
  2
$MODEL_SPACE
 70
     0
 10
0.0
 20
0.0
 30
0.0
  3
$MODEL_SPACE
  1

  0
ENDBLK
  5
21
  8
0
  0
BLOCK
 67
     1
  8
0
  2
$PAPER_SPACE
 70
     0
 10
0.0
 20
0.0
 30
0.0
  3
$PAPER_SPACE
  1

  0
ENDBLK
  5
1D
 67
     1
  8
0
  0
BLOCK
  8
0
  2
_FILLED
 70
     0
 10
0.0
 20
0.0
 30
0.0
  3
_FILLED
  1

  0
SOLID
  5
6F59
  8
0
  6
BYBLOCK
 62
     0
 10
0.0
 20
0.0
 30
0.0
 11
-1.0
 21
0.1666666667
 31
0.0
 12
-1.0
 22
-0.1666666667
 32
0.0
 13
-1.0
 23
-0.1666666667
 33
0.0
  0
ENDBLK
  5
6F5A
  8
0
  6
BYBLOCK
 62
     0
  0
ENDSEC
  0
SECTION
  2
ENTITIES
  0
ATTDEF
  5
3930
  8
DEFPOINTS
 10
3563.8915926949212007
 20
200.291410403887113
 30
0.0
 40
0.001
  1
K-2355T
  3

  2
MODELNUMBER
 70
     0
1001
ACDBATTR
1070
     0
1070
     1
  0
ATTDEF
  5
3931
  8
DEFPOINTS
 10
3563.8915926949212007
 20
200.2897437372205047
 30
0.0
 40
0.001
  1
ARCHER
  3

  2
TRADENAME
 70
     0
1001
ACDBATTR
1070
     0
1070
     1
  0
ATTDEF
  5
3932
  8
DEFPOINTS
 10
3563.8915926949212007
 20
200.2880770705538112
 30
0.0
 40
0.001
  1
BATHROOM SINK
  3

  2
PRODUCT
 70
     0
1001
ACDBATTR
1070
     0
1070
     1
  0
ARC
  5
8CEA
  8
0
 10
3563.9030350983330209
 20
237.5577774905684123
 30
0.0
 40
44.9307979869002594
 50
257.5171543650902777
 51
269.9999957639872719
  0
LINE
  5
8CEB
  8
0
 10
3563.7962609939331742
 20
193.178862980368109
 30
0.0
 11
3563.7962609939331742
 21
193.3403214152681073
 31
0.0
  0
ARC
  5
8CEC
  8
0
 10
3563.9030317764331812
 20
193.3403214152681073
 30
0.0
 40
0.1067707824999999
 50
359.9999999999968168
 51
179.9999999999984084
  0
LINE
  5
8CED
  8
0
 10
3564.0098025589331883
 20
193.3403214152681073
 30
0.0
 11
3564.0098025589331883
 21
193.178862980368109
 31
0.0
  0
ARC
  5
8CEE
  8
0
 10
3563.9030317764331812
 20
193.178862980368109
 30
0.0
 40
0.1067707824999946
 50
180.0000000000032117
 51
359.9999999999968168
  0
ARC
  5
8CEF
  8
0
 10
3563.8576579177019994
 20
195.2806330923357905
 30
0.0
 40
0.8791518527170881
 50
244.9341864619246962
 51
272.0354709920757159
  0
ARC
  5
8CF0
  8
0
 10
3563.5032022362311181
 20
194.5200977284818009
 30
0.0
 40
0.0400900769626036
 50
123.2299549621153005
 51
243.3132741216741124
  0
ARC
  5
8CF1
  8
0
 10
3563.8484848173411592
 20
193.7774278381153863
 30
0.0
 40
0.8587008841885628
 50
86.3579678764555041
 51
115.3206217286688968
  0
ARC
  5
8CF2
  8
0
 10
3563.9173003105338466
 20
193.2636293502353908
 30
0.0
 40
1.370839396854959
 50
77.953889847829501
 51
90.5963802529351625
  0
ARC
  5
8CF3
  8
0
 10
3564.0583331296011238
 20
194.0655402128905109
 30
0.0
 40
0.5579300259730327
 50
62.4071673206843585
 51
74.9301583673495344
  0
ARC
  5
8CF4
  8
0
 10
3564.3002037385549556
 20
194.5205115559699891
 30
0.0
 40
0.0428292005680112
 50
292.2927194759737972
 51
67.2619157033609838
  0
ARC
  5
8CF5
  8
0
 10
3563.9283034142849829
 20
195.3869823139671951
 30
0.0
 40
0.9857348674582416
 50
267.7081266113972902
 51
293.1889220997418875
  0
ARC
  5
8CF6
  8
0
 10
3554.2172216083558851
 20
193.806157777145188
 30
0.0
 40
0.1198706429193104
 50
180.0000000000065086
 51
257.5428478505052112
  0
LINE
  5
8CF7
  8
0
 10
3554.0973509654368172
 20
193.806157777145188
 30
0.0
 11
3554.0973510203189107
 21
207.7504561382442887
 31
0.0
  0
ARC
  5
8CF8
  8
0
 10
3554.2174874524907864
 20
207.7503228581711028
 30
0.0
 40
0.1201365061029327
 50
91.0133035239312562
 51
179.936435747109698
  0
ARC
  5
8CF9
  8
0
 10
3563.3082680996180898
 20
-319.7483804311892754
 30
0.0
 40
527.6971680869917236
 50
89.9354223259597347
 51
90.9873293026920038
  0
ARC
  5
8CFA
  8
0
 10
3563.9030143289219268
 20
-393.6411888798875225
 30
0.0
 40
600.4398048677555835
 50
89.9999983351049053
 51
90.8242194600831994
  0
ARC
  5
8CFB
  8
0
 10
3555.2552707095078404
 20
206.5831780830843911
 30
0.0
 40
0.1536717790830149
 50
86.0787936077922495
 51
184.7698673232848989
  0
LINE
  5
8CFC
  8
0
 10
3555.1021311374688594
 20
206.5703996965681881
 30
0.0
 11
3555.1021315048328688
 21
194.8063408834129007
 31
0.0
  0
ARC
  5
8CFD
  8
0
 10
3555.253686211151944
 20
194.7933599334872952
 30
0.0
 40
0.1521096120192345
 50
175.104455417327614
 51
262.8256281493905817
  0
ARC
  5
8CFE
  8
0
 10
3563.9081005102198105
 20
237.6628256961407999
 30
0.0
 40
43.8860062028822924
 50
258.6013053025150725
 51
269.993382467987999
  0
ARC
  5
8CFF
  8
0
 10
3563.903438058168831
 20
237.5164534486794992
 30
0.0
 40
43.1873910155080765
 50
259.2647490695044894
 51
269.9994609948598168
  0
ARC
  5
8D00
  8
0
 10
3555.9671643361239148
 20
195.3837849340779087
 30
0.0
 40
0.3178867407077543
 50
192.9619277084838984
 51
250.0831009338282058
  0
LINE
  5
8D01
  8
0
 10
3555.6573775636102255
 20
195.3124818100706932
 30
0.0
 11
3555.6573799822908768
 21
205.9584315196916009
 31
0.0
  0
ARC
  5
8D02
  8
0
 10
3555.920266562886809
 20
205.9272231622991001
 30
0.0
 40
0.2647325363993565
 50
96.0715029055138956
 51
173.2298654409254084
  0
ARC
  5
8D03
  8
0
 10
3564.059336103401165
 20
-357.9919963037933144
 30
0.0
 40
564.2415769337144411
 50
90.015871886678525
 51
90.8293521994021376
  0
ARC
  5
8D04
  8
0
 10
3563.927002817734774
 20
234.0212007815352138
 30
0.0
 40
38.824455205729393
 50
259.830756873025905
 51
269.9646243694950272
  0
ARC
  5
8D05
  8
0
 10
3557.1592679766808942
 20
196.0746791879251987
 30
0.0
 40
0.281779430351867
 50
191.7110927556944944
 51
252.0221945145111988
  0
ARC
  5
8D06
  8
0
 10
3594.0420667431990296
 20
200.3970219587455972
 30
0.0
 40
37.4159092696600126
 50
173.1277791854705015
 51
186.7218882484374944
  0
ARC
  5
8D07
  8
0
 10
3557.1829176049877788
 20
204.7818609569077068
 30
0.0
 40
0.3023395931934101
 50
105.1367765741801037
 51
162.2484657530156937
  0
ARC
  5
8D08
  8
0
 10
3563.8697446409541953
 20
160.2552386767075063
 30
0.0
 40
45.3262746168213582
 50
89.9579225831888465
 51
98.5845249090370856
  0
ARC
  5
8D09
  8
0
 10
3564.0267436039662243
 20
222.9899307674110105
 30
0.0
 40
25.0919594544838596
 50
261.811217492635592
 51
269.7175113278639174
  0
ARC
  5
8D0A
  8
0
 10
3611.61942576418096
 20
200.3773796507668123
 30
0.0
 40
51.2149518552215426
 50
177.4731951746497884
 51
182.4883645865974984
  0
ARC
  5
8D0B
  8
0
 10
3564.010917170436187
 20
177.6658001136538019
 30
0.0
 40
25.2215133859423304
 50
90.2450842857985549
 51
98.1066657317052204
  0
CIRCLE
  5
8D0C
  8
0
 10
3563.9030317764331812
 20
200.3927161164681934
 30
0.0
 40
0.9116116524
  0
CIRCLE
  5
8D0D
  8
0
 10
3563.9030317353440296
 20
200.3925967215311061
 30
0.0
 40
1.4247478266064659
  0
ARC
  5
8D0E
  8
0
 10
3563.9030284546329312
 20
237.5577774905684123
 30
0.0
 40
44.9307979869002594
 50
270.0000042360127281
 51
282.4828456349097223
  0
ARC
  5
8D0F
  8
0
 10
3573.588829009373967
 20
193.806178591732305
 30
0.0
 40
0.1198937580099627
 50
282.4610425426523079
 51
359.9551303161110809
  0
LINE
  5
8D10
  8
0
 10
3573.7087227306187742
 20
193.8060847000963065
 30
0.0
 11
3573.7087227306187742
 21
207.7504561382442887
 31
0.0
  0
ARC
  5
8D11
  8
0
 10
3573.5885685084022043
 20
207.7503051789441884
 30
0.0
 40
0.1201543170479913
 50
0.0719852042205044
 51
88.9832258375680567
  0
ARC
  5
8D12
  8
0
 10
3564.4977954533469529
 20
-319.7483804311892754
 30
0.0
 40
527.6971680869917236
 50
89.0126706973079678
 51
90.0645776740402937
  0
ARC
  5
8D13
  8
0
 10
3563.9030492240449348
 20
-393.6411888798875225
 30
0.0
 40
600.4398048677555835
 50
89.1757805399168149
 51
90.0000016648950805
  0
ARC
  5
8D14
  8
0
 10
3572.5507928434581117
 20
206.5831780830843911
 30
0.0
 40
0.1536717790830149
 50
355.2301326767150726
 51
93.9212063922077647
  0
LINE
  5
8D15
  8
0
 10
3572.7039324154980022
 20
206.5703996965681881
 30
0.0
 11
3572.7039320481330833
 21
194.8063408834129007
 31
0.0
  0
ARC
  5
8D16
  8
0
 10
3572.5523773418130986
 20
194.7933599334872952
 30
0.0
 40
0.1521096120192345
 50
277.1743718506091909
 51
4.8955445826723434
  0
ARC
  5
8D17
  8
0
 10
3563.8979630427470511
 20
237.6628256961407999
 30
0.0
 40
43.8860062028822924
 50
270.0066175320118873
 51
281.3986946974848138
  0
ARC
  5
8D18
  8
0
 10
3563.9026254947962116
 20
237.5164534486794992
 30
0.0
 40
43.1873910155080765
 50
270.0005390051401832
 51
280.7352509304955106
  0
ARC
  5
8D19
  8
0
 10
3571.8388992168429468
 20
195.3837849340779087
 30
0.0
 40
0.3178867407077543
 50
289.9168990661717089
 51
347.0380722915160732
  0
LINE
  5
8D1A
  8
0
 10
3572.1486859893570909
 20
195.3124818100706932
 30
0.0
 11
3572.1486835706750753
 21
205.9584315196916009
 31
0.0
  0
ARC
  5
8D1B
  8
0
 10
3571.8857969900791431
 20
205.9272231622991001
 30
0.0
 40
0.2647325363993565
 50
6.7701345590745436
 51
83.9284970944861044
  0
ARC
  5
8D1C
  8
0
 10
3563.7467274495647871
 20
-357.9919963037933144
 30
0.0
 40
564.2415769337144411
 50
89.1706478005978767
 51
89.984128113321475
  0
ARC
  5
8D1D
  8
0
 10
3563.8790607352311781
 20
234.0212007815352138
 30
0.0
 40
38.824455205729393
 50
270.0353756305049728
 51
280.1692431269739814
  0
ARC
  5
8D1E
  8
0
 10
3570.6467955762859674
 20
196.0746791879251987
 30
0.0
 40
0.281779430351867
 50
287.9778054854887728
 51
348.2889072443053919
  0
ARC
  5
8D1F
  8
0
 10
3533.7639968097669225
 20
200.3970219587455972
 30
0.0
 40
37.4159092696600126
 50
353.2781117515625056
 51
6.8722208145294772
  0
ARC
  5
8D20
  8
0
 10
3570.6231459479781734
 20
204.7818609569077068
 30
0.0
 40
0.3023395931934101
 50
17.7515342469842388
 51
74.8632234258198395
  0
ARC
  5
8D21
  8
0
 10
3563.9363189120122115
 20
160.2552386767075063
 30
0.0
 40
45.3262746168213582
 50
81.4154750909629286
 51
90.0420774168111535
  0
ARC
  5
8D22
  8
0
 10
3563.7793199489988183
 20
222.9899307674110105
 30
0.0
 40
25.0919594544838596
 50
270.2824886721360826
 51
278.1887825073645217
  0
ARC
  5
8D23
  8
0
 10
3516.1866377887859016
 20
200.3773796507668123
 30
0.0
 40
51.2149518552215426
 50
357.5116354134024732
 51
2.5268048253502111
  0
ARC
  5
8D24
  8
0
 10
3563.7951463825302199
 20
177.6658001136538019
 30
0.0
 40
25.2215133859423304
 50
81.8933342682947654
 51
89.7549157142014451
  0
ENDSEC
  0
EOF
