  0
SECTION
  2
HEADER
  9
$ACADVER
  1
AC1009
  9
$INSBASE
 10
5654.5948086784537736
 20
307.0310494692482735
 30
0.0
  9
$EXTMIN
 10
5643.3562117543506247
 20
299.2966937401608902
 30
-0.0000000000000058
  9
$EXTMAX
 10
5661.0637652136110773
 20
307.0504937201603752
 30
0.0000000000000104
  9
$LIMMIN
 10
0.0
 20
0.0
  9
$LIMMAX
 10
11.6929133858000007
 20
8.2677165353999982
  9
$ORTHOMODE
 70
     0
  9
$REGENMODE
 70
     1
  9
$FILLMODE
 70
     1
  9
$QTEXTMODE
 70
     0
  9
$MIRRTEXT
 70
     0
  9
$DRAGMODE
 70
     2
  9
$LTSCALE
 40
0.6431102362
  9
$OSMODE
 70
  4095
  9
$ATTMODE
 70
     1
  9
$TEXTSIZE
 40
0.2
  9
$TRACEWID
 40
0.05
  9
$TEXTSTYLE
  7
STANDARD
  9
$CLAYER
  8
0
  9
$CELTYPE
  6
BYLAYER
  9
$CECOLOR
 62
   256
  9
$DIMSCALE
 40
1.0
  9
$DIMASZ
 40
0.1875
  9
$DIMEXO
 40
0.0625
  9
$DIMDLI
 40
0.4443307087
  9
$DIMRND
 40
0.0
  9
$DIMDLE
 40
0.0
  9
$DIMEXE
 40
0.125
  9
$DIMTP
 40
0.01
  9
$DIMTM
 40
0.01
  9
$DIMTXT
 40
2.0
  9
$DIMCEN
 40
0.1052362205
  9
$DIMTSZ
 40
0.0
  9
$DIMTOL
 70
     1
  9
$DIMLIM
 70
     0
  9
$DIMTIH
 70
     1
  9
$DIMTOH
 70
     1
  9
$DIMSE1
 70
     0
  9
$DIMSE2
 70
     0
  9
$DIMTAD
 70
     0
  9
$DIMZIN
 70
     0
  9
$DIMBLK
  1

  9
$DIMASO
 70
     1
  9
$DIMSHO
 70
     1
  9
$DIMPOST
  1
\X
  9
$DIMAPOST
  1

  9
$DIMALT
 70
     1
  9
$DIMALTD
 70
     2
  9
$DIMALTF
 40
25.3999999999999986
  9
$DIMLFAC
 40
1.0
  9
$DIMTOFL
 70
     0
  9
$DIMTVP
 40
0.0
  9
$DIMTIX
 70
     0
  9
$DIMSOXD
 70
     0
  9
$DIMSAH
 70
     0
  9
$DIMBLK1
  1

  9
$DIMBLK2
  1

  9
$DIMSTYLE
  2
STANDARD
  9
$DIMCLRD
 70
     0
  9
$DIMCLRE
 70
     0
  9
$DIMCLRT
 70
     0
  9
$DIMTFAC
 40
1.0
  9
$DIMGAP
 40
0.09
  9
$LUNITS
 70
     2
  9
$LUPREC
 70
     4
  9
$SKETCHINC
 40
0.1
  9
$FILLETRAD
 40
0.0
  9
$AUNITS
 70
     0
  9
$AUPREC
 70
     0
  9
$MENU
  1
.
  9
$ELEVATION
 40
0.0
  9
$PELEVATION
 40
0.0
  9
$THICKNESS
 40
0.0
  9
$LIMCHECK
 70
     0
  9
$BLIPMODE
 70
     0
  9
$CHAMFERA
 40
0.0
  9
$CHAMFERB
 40
0.0
  9
$SKPOLY
 70
     0
  9
$TDCREATE
 40
2458060.468368056230247
  9
$TDUPDATE
 40
2460185.5624305559322238
  9
$TDINDWG
 40
0.6164306713
  9
$TDUSRTIMER
 40
0.6164306713
  9
$USRTIMER
 70
     1
  9
$ANGBASE
 50
0.0
  9
$ANGDIR
 70
     0
  9
$PDMODE
 70
     0
  9
$PDSIZE
 40
0.3125
  9
$PLINEWID
 40
0.0
  9
$COORDS
 70
     1
  9
$SPLFRAME
 70
     0
  9
$SPLINETYPE
 70
     6
  9
$SPLINESEGS
 70
     8
  9
$ATTDIA
 70
     1
  9
$ATTREQ
 70
     1
  9
$HANDLING
 70
     1
  9
$HANDSEED
  5
28C2D
  9
$SURFTAB1
 70
     6
  9
$SURFTAB2
 70
     6
  9
$SURFTYPE
 70
     6
  9
$SURFU
 70
     6
  9
$SURFV
 70
     6
  9
$UCSNAME
  2

  9
$UCSORG
 10
0.0
 20
0.0
 30
0.0
  9
$UCSXDIR
 10
1.0
 20
0.0
 30
0.0
  9
$UCSYDIR
 10
0.0
 20
1.0
 30
0.0
  9
$PUCSNAME
  2

  9
$PUCSORG
 10
0.0
 20
0.0
 30
0.0
  9
$PUCSXDIR
 10
1.0
 20
0.0
 30
0.0
  9
$PUCSYDIR
 10
0.0
 20
1.0
 30
0.0
  9
$USERI1
 70
     0
  9
$USERI2
 70
     0
  9
$USERI3
 70
     0
  9
$USERI4
 70
     0
  9
$USERI5
 70
     0
  9
$USERR1
 40
0.0
  9
$USERR2
 40
0.0
  9
$USERR3
 40
0.0
  9
$USERR4
 40
0.0
  9
$USERR5
 40
0.0
  9
$WORLDVIEW
 70
     1
  9
$SHADEDGE
 70
     3
  9
$SHADEDIF
 70
    70
  9
$TILEMODE
 70
     1
  9
$MAXACTVP
 70
    64
  9
$PLIMCHECK
 70
     0
  9
$PEXTMIN
 10
1.0000000000000000E+20
 20
1.0000000000000000E+20
 30
1.0000000000000000E+20
  9
$PEXTMAX
 10
-1.0000000000000000E+20
 20
-1.0000000000000000E+20
 30
-1.0000000000000000E+20
  9
$PLIMMIN
 10
0.0
 20
0.0
  9
$PLIMMAX
 10
12.0
 20
9.0
  9
$UNITMODE
 70
     0
  9
$VISRETAIN
 70
     1
  9
$PLINEGEN
 70
     0
  9
$PSLTSCALE
 70
     1
  0
ENDSEC
  0
SECTION
  2
TABLES
  0
TABLE
  2
VPORT
 70
     1
  0
VPORT
  2
*ACTIVE
 70
     0
 10
0.0
 20
0.0
 11
1.0
 21
1.0
 12
1740.8446320386678963
 22
170.5939886276215987
 13
0.0
 23
0.0
 14
1.0
 24
1.0
 15
0.0
 25
0.0
 16
0.0
 26
0.0
 36
60.4960186965801583
 17
3911.3653564453120453
 27
132.5796051025390057
 37
0.0
 40
7.8205471821228789
 41
2.7227011494252871
 42
50.0
 43
0.0
 44
0.0
 50
0.0
 51
0.0
 71
     0
 72
   100
 73
     1
 74
     1
 75
     0
 76
     0
 77
     0
 78
     0
  0
ENDTAB
  0
TABLE
  2
LTYPE
 70
     2
  0
LTYPE
  2
CONTINUOUS
 70
     0
  3
Solid line
 72
    65
 73
     0
 40
0.0
  0
LTYPE
  2
PHANTOM2
 70
     0
  3
___ _ _ ___ _ _ ___ _ _ ___ _ _
 72
    65
 73
     6
 40
1.25
 49
0.625
 49
-0.125
 49
0.125
 49
-0.125
 49
0.125
 49
-0.125
  0
ENDTAB
  0
TABLE
  2
LAYER
 70
     2
  0
LAYER
  2
0
 70
     0
 62
   255
  6
CONTINUOUS
  0
LAYER
  2
DEFPOINTS
 70
     0
 62
     7
  6
CONTINUOUS
  0
ENDTAB
  0
TABLE
  2
STYLE
 70
     1
  0
STYLE
  2
STANDARD
 70
     0
 40
0.0
 41
0.8
 50
0.0
 71
     0
 42
0.2
  3
txt
  4

  0
ENDTAB
  0
TABLE
  2
VIEW
 70
     0
  0
ENDTAB
  0
TABLE
  2
UCS
 70
     0
  0
ENDTAB
  0
TABLE
  2
APPID
 70
    11
  0
APPID
  2
ACAD
 70
     0
  0
APPID
  2
ACAD_MLEADERVER
 70
     0
  0
APPID
  2
ACAD_EXEMPT_FROM_CAD_STANDARDS
 70
     0
  0
APPID
  2
ACAD_NAV_VCDISPLAY
 70
     0
  0
APPID
  2
ACAECLAYERSTANDARD
 70
     0
  0
APPID
  2
ACCMTRANSPARENCY
 70
     0
  0
APPID
  2
ACAD_DSTYLE_DIMJAG
 70
     0
  0
APPID
  2
ACAD_DSTYLE_DIMTALN
 70
     0
  0
APPID
  2
ACDBATTR
 70
     0
  0
APPID
  2
ACADANNOTATIVE
 70
     0
  0
APPID
  2
DCO15
 70
     0
  0
ENDTAB
  0
TABLE
  2
DIMSTYLE
 70
     1
  0
DIMSTYLE
  2
STANDARD
 70
     0
  3

  4

  5

  6

  7

 40
1.0
 41
0.1875
 42
0.0625
 43
0.38
 44
0.125
 45
0.0
 46
0.0
 47
0.01
 48
0.01
140
0.15625
141
0.09
142
0.0
143
25.3999999999999986
144
1.0
145
0.0
146
1.0
147
0.09
 71
     1
 72
     0
 73
     1
 74
     1
 75
     0
 76
     0
 77
     0
 78
     4
170
     0
171
     2
172
     0
173
     0
174
     0
175
     0
176
     0
177
     0
178
     0
  0
ENDTAB
  0
ENDSEC
  0
SECTION
  2
BLOCKS
  0
BLOCK
  8
0
  2
$MODEL_SPACE
 70
     0
 10
0.0
 20
0.0
 30
0.0
  3
$MODEL_SPACE
  1

  0
ENDBLK
  5
21
  8
0
  0
BLOCK
 67
     1
  8
0
  2
$PAPER_SPACE
 70
     0
 10
0.0
 20
0.0
 30
0.0
  3
$PAPER_SPACE
  1

  0
ENDBLK
  5
1D
 67
     1
  8
0
  0
BLOCK
  8
0
  2
_FILLED
 70
     0
 10
0.0
 20
0.0
 30
0.0
  3
_FILLED
  1

  0
SOLID
  5
257AF
  8
0
  6
BYBLOCK
 62
     0
 10
0.0
 20
0.0
 30
0.0
 11
-1.0
 21
0.1666666667
 31
0.0
 12
-1.0
 22
-0.1666666667
 32
0.0
 13
-1.0
 23
-0.1666666667
 33
0.0
  0
ENDBLK
  5
257B0
  8
0
  6
BYBLOCK
 62
     0
  0
ENDSEC
  0
SECTION
  2
ENTITIES
  0
ATTDEF
  5
256E4
  8
DEFPOINTS
 10
5654.5847806020783537
 20
307.0351044574989032
 30
0.0
 40
0.001
  1
K-23523T-9
  3

  2
MODELNUMBER
 70
     0
1001
ACDBATTR
1070
     0
1070
     1
  0
ATTDEF
  5
256E5
  8
DEFPOINTS
 10
5654.5846547924211336
 20
307.0334376171197732
 30
0.0
 40
0.001
  1
PARALLEL
  3

  2
TRADENAME
 70
     0
1001
ACDBATTR
1070
     0
1070
     1
  0
ATTDEF
  5
256E6
  8
DEFPOINTS
 10
5654.5847806020783537
 20
307.0317711241655729
 30
0.0
 40
0.001
  1
BATH SHOWER FAUCET
  3

  2
PRODUCT
 70
     0
1001
ACDBATTR
1070
     0
1070
     1
  0
LINE
  5
2861C
  8
0
 10
5644.6722335869289964
 20
307.0310494692482735
 30
0.0
 11
5646.6801076030324111
 21
307.0310494692482735
 31
0.0
  0
LINE
  5
2861D
  8
0
 10
5650.373195001876411
 20
307.0310494692482735
 30
0.0
 11
5652.9108372266246079
 21
307.0310494692482735
 31
0.0
  0
LINE
  5
2861E
  8
0
 10
5656.2788069712378274
 20
307.0310494692482735
 30
0.0
 11
5658.8164198770327857
 21
307.0310494692482735
 31
0.0
  0
LINE
  5
2861F
  8
0
 10
5648.5039109262506827
 20
304.7325574669553134
 30
0.0
 11
5650.4429891205008971
 21
304.74947917128992
 31
0.0
  0
LINE
  5
28620
  8
0
 10
5648.5039109262606871
 20
302.6012233025472824
 30
0.0
 11
5650.4429891185700399
 21
302.5843012234810772
 31
0.0
  0
ARC
  5
28621
  8
0
 10
5131.0980283046246768
 20
312.0440995912272797
 30
0.0
 40
517.4191329241324411
 50
359.1547540106520842
 51
359.186283662929327
  0
ARC
  5
28622
  8
0
 10
5652.3948667728973305
 20
304.2676310068929979
 30
0.0
 40
3.9366281232336688
 50
177.9093601002211926
 51
180.6090760893085019
  0
ARC
  5
28623
  8
0
 10
5703.1186343092649622
 20
303.9658591188202763
 30
0.0
 40
54.6607912373186693
 50
179.7275441784192083
 51
179.9067498906871094
  0
ARC
  5
28624
  8
0
 10
5703.4598398674088457
 20
303.5694836274565773
 30
0.0
 40
55.0027996144059586
 50
180.3232232084156124
 51
180.967661777077609
  0
ARC
  5
28625
  8
0
 10
5648.5042544906491457
 20
304.6931888873472758
 30
0.0
 40
0.0393700786999753
 50
90.5000000154949475
 51
175.9857841443815971
  0
ARC
  5
28626
  8
0
 10
5648.5042544906491457
 20
302.6405918821473051
 30
0.0
 40
0.0393700787000011
 50
180.0000000000098055
 51
269.4999999845049956
  0
LINE
  5
28627
  8
0
 10
5650.4530763839238716
 20
304.0061216491284881
 30
0.0
 11
5648.4579154653938531
 21
304.0061342222609255
 31
0.0
  0
LINE
  5
28628
  8
0
 10
5650.4530763839238716
 20
303.327659120215003
 30
0.0
 11
5648.4579154653938531
 21
303.3276806634485752
 31
0.0
  0
LINE
  5
28629
  8
0
 10
5650.4530763839238716
 20
304.4759455028474235
 30
0.0
 11
5650.5003204784179616
 21
304.4759455028474235
 31
0.0
  0
LINE
  5
2862A
  8
0
 10
5650.4530763839238716
 20
302.8578352666473847
 30
0.0
 11
5650.5003204784179616
 21
302.8578352666473847
 31
0.0
  0
LINE
  5
2862B
  8
0
 10
5650.5298204784203335
 20
304.7495534062483102
 30
0.0
 11
5650.7660651835230965
 21
304.7495534062483102
 31
0.0
  0
ARC
  5
2862C
  8
0
 10
5650.7656719809829156
 20
304.9467967366798007
 30
0.0
 40
0.1972437223536502
 50
270.1142183927303222
 51
359.8858593138110109
  0
LINE
  5
2862D
  8
0
 10
5650.9629153119467446
 20
304.9464038016470226
 30
0.0
 11
5650.9629173159510174
 21
305.3204195480482781
 31
0.0
  0
ARC
  5
2862E
  8
0
 10
5651.0022754563988201
 20
305.320426216815008
 30
0.0
 40
0.0393581410139901
 50
150.0011765368753913
 51
180.0097080852538056
  0
ARC
  5
2862F
  8
0
 10
5651.7917179193409538
 20
305.7404789355559842
 30
0.0
 40
1.1478105594195001
 50
223.7741319055724034
 51
262.5074204668948141
  0
ARC
  5
28630
  8
0
 10
5650.8152811117497549
 20
306.558608524347278
 30
0.0
 40
0.0787401575000075
 50
0.0000000000065138
 51
90.0
  0
ARC
  5
28631
  8
0
 10
5650.9235488281801736
 20
305.8007345084765802
 30
0.0
 40
0.0295275589292938
 50
179.9999996687548958
 51
270.0000001372062002
  0
ARC
  5
28632
  8
0
 10
5652.4688244188500903
 20
306.558608524347278
 30
0.0
 40
0.0787401575000075
 50
90.0
 51
179.9999999999934914
  0
ARC
  5
28633
  8
0
 10
5652.3605567024224001
 20
305.8007345084765802
 30
0.0
 40
0.0295275589292938
 50
269.9999998627937998
 51
0.0000003312450503
  0
LINE
  5
28634
  8
0
 10
5650.383095001876427
 20
306.6373486818466745
 30
0.0
 11
5652.9009372266245919
 21
306.6373486818472998
 31
0.0
  0
LINE
  5
28635
  8
0
 10
5650.8940212692514251
 20
306.558608524347278
 30
0.0
 11
5650.8940212692514251
 21
305.800734508647281
 31
0.0
  0
LINE
  5
28636
  8
0
 10
5652.3900842613502391
 20
306.558608524347278
 30
0.0
 11
5652.3900842613502391
 21
305.800734508647281
 31
0.0
  0
LINE
  5
28637
  8
0
 10
5650.9235488282502047
 20
305.771206949547377
 30
0.0
 11
5652.3605567024224001
 21
305.771206949547377
 31
0.0
  0
LINE
  5
28638
  8
0
 10
5651.0515015841501736
 20
305.771206949547377
 30
0.0
 11
5651.0515015841501736
 21
305.4365612802474175
 31
0.0
  0
LINE
  5
28639
  8
0
 10
5651.0515015841501736
 20
305.4365612802474175
 30
0.0
 11
5652.2326039463514462
 21
305.4365612802474175
 31
0.0
  0
LINE
  5
2863A
  8
0
 10
5652.2326039463514462
 20
305.4365612802474175
 30
0.0
 11
5652.2326039463514462
 21
305.771206949547377
 31
0.0
  0
LINE
  5
2863B
  8
0
 10
5651.2188244188500903
 20
305.4365612802474175
 30
0.0
 11
5651.2188244188500903
 21
305.3834116739473075
 31
0.0
  0
LINE
  5
2863C
  8
0
 10
5651.2188244188500903
 20
305.3834116739473075
 30
0.0
 11
5651.2286669385503046
 21
305.3735691542473205
 31
0.0
  0
LINE
  5
2863D
  8
0
 10
5651.2286669385503046
 20
305.3735691542473205
 30
0.0
 11
5652.0554385920504501
 21
305.3735691542473205
 31
0.0
  0
LINE
  5
2863E
  8
0
 10
5652.0554385920504501
 20
305.3735691542473205
 30
0.0
 11
5652.0652811117506644
 21
305.3834116739473075
 31
0.0
  0
LINE
  5
2863F
  8
0
 10
5652.0652811117506644
 20
305.3834116739473075
 30
0.0
 11
5652.0652811117506644
 21
305.4365612802474175
 31
0.0
  0
LINE
  5
28640
  8
0
 10
5651.2286669385503046
 20
305.3735691542473205
 30
0.0
 11
5651.2286669385503046
 21
305.3578211227473957
 31
0.0
  0
LINE
  5
28641
  8
0
 10
5651.2818165448506988
 20
305.3578211227473957
 30
0.0
 11
5651.2818165448506988
 21
305.3401045873472981
 31
0.0
  0
LINE
  5
28642
  8
0
 10
5652.0022889857500559
 20
305.3401045873472981
 30
0.0
 11
5652.0022889857500559
 21
305.3578211227473957
 31
0.0
  0
LINE
  5
28643
  8
0
 10
5651.2286669385503046
 20
305.3578211227473957
 30
0.0
 11
5652.0554385920504501
 21
305.3578211227473957
 31
0.0
  0
LINE
  5
28644
  8
0
 10
5652.0554385920504501
 20
305.3578211227473957
 30
0.0
 11
5652.0554385920504501
 21
305.3735691542473205
 31
0.0
  0
LINE
  5
28645
  8
0
 10
5650.9681899023453298
 20
305.3401045873982866
 30
0.0
 11
5652.1993612842470611
 21
305.3401045873483213
 31
0.0
  0
ARC
  5
28646
  8
0
 10
5652.2664783928939869
 20
305.2391997941601858
 30
0.0
 40
0.1211878028574913
 50
95.6986746376994262
 51
123.6299772099796996
  0
LINE
  5
28647
  8
0
 10
5660.6857028202502988
 20
304.7325574669553134
 30
0.0
 11
5658.7467736707767472
 21
304.7494778706246734
 31
0.0
  0
LINE
  5
28648
  8
0
 10
5660.6857028202412039
 20
302.6012233025472824
 30
0.0
 11
5658.7467736727076044
 21
302.5843025241750865
 31
0.0
  0
ARC
  5
28649
  8
0
 10
6178.0915854418763047
 20
312.0440995912272797
 30
0.0
 40
517.4191329241324411
 50
180.8137163370707015
 51
180.8452459893478022
  0
ARC
  5
2864A
  8
0
 10
5493.0017733701688485
 20
300.2196766504800962
 30
0.0
 40
167.7793476357655038
 50
1.368194944941943
 51
1.431546481182518
  0
ARC
  5
2864B
  8
0
 10
5669.892571952277649
 20
304.2381987976560254
 30
0.0
 40
9.1592935658210415
 50
180.0776609839458047
 51
181.4519093911501102
  0
ARC
  5
2864C
  8
0
 10
5619.9008393343028729
 20
303.6669011651615051
 30
0.0
 40
40.8367886285959827
 50
358.5598920898801794
 51
359.5246605623481742
  0
ARC
  5
2864D
  8
0
 10
5619.9008393343028729
 20
303.6669011651615051
 30
0.0
 40
40.8367886285959827
 50
0.4753394376517493
 51
0.4759464746208203
  0
ARC
  5
2864E
  8
0
 10
5660.6853592558500168
 20
304.6931888873472758
 30
0.0
 40
0.0393700786999753
 50
4.0142158556184242
 51
89.4999999845050667
  0
ARC
  5
2864F
  8
0
 10
5660.6853592558500168
 20
302.6405918821473051
 30
0.0
 40
0.0393700787000011
 50
270.5000000154948907
 51
359.9999999999869829
  0
LINE
  5
28650
  8
0
 10
5658.7366864073537727
 20
304.006121649147417
 30
0.0
 11
5660.7362190308349454
 21
304.0061216491473033
 31
0.0
  0
LINE
  5
28651
  8
0
 10
5658.7366864073537727
 20
303.3276591218220801
 30
0.0
 11
5660.7362190308349454
 21
303.3276806811746837
 31
0.0
  0
LINE
  5
28652
  8
0
 10
5658.7366864073537727
 20
304.4759455028474235
 30
0.0
 11
5658.6892968563261093
 21
304.4759455028474235
 31
0.0
  0
LINE
  5
28653
  8
0
 10
5658.7366864073537727
 20
302.8578352666473279
 30
0.0
 11
5658.6892968563261093
 21
302.8578352666473847
 31
0.0
  0
LINE
  5
28654
  8
0
 10
5658.6597968546284392
 20
304.7495534063501168
 30
0.0
 11
5658.4235452348475519
 21
304.7495533927482825
 31
0.0
  0
ARC
  5
28655
  8
0
 10
5658.4222946919053356
 20
304.9451534011640774
 30
0.0
 40
0.1956040059659353
 50
179.630795782701
 51
270.3663080441288002
  0
LINE
  5
28656
  8
0
 10
5658.2266947469497609
 20
304.9464138312459909
 30
0.0
 11
5658.2267009049819535
 21
305.3203844700830132
 31
0.0
  0
ARC
  5
28657
  8
0
 10
5658.1872391071192396
 20
305.3203844700830132
 30
0.0
 40
0.0394617978639609
 50
359.9999999999772058
 51
29.9819257834274815
  0
ARC
  5
28658
  8
0
 10
5657.40036169605537
 20
305.72596792343478
 30
0.0
 40
1.136015358017006
 50
277.4450387165480265
 51
316.6685351815199851
  0
ARC
  5
28659
  8
0
 10
5658.3743326347503171
 20
306.558608524347278
 30
0.0
 40
0.0787401575000075
 50
90.0
 51
179.9999999999934914
  0
ARC
  5
2865A
  8
0
 10
5658.2660649183208079
 20
305.8007345084765802
 30
0.0
 40
0.0295275589292938
 50
269.9999998627937998
 51
0.0000003312450503
  0
ARC
  5
2865B
  8
0
 10
5656.7207893276508912
 20
306.558608524347278
 30
0.0
 40
0.0787401575000075
 50
0.0000000000065138
 51
90.0
  0
ARC
  5
2865C
  8
0
 10
5656.8290570440785814
 20
305.8007345084765802
 30
0.0
 40
0.0295275589292938
 50
179.9999996687548958
 51
270.0000001372062002
  0
LINE
  5
2865D
  8
0
 10
5658.8065198770327697
 20
306.6373486818466745
 30
0.0
 11
5656.2887069712378434
 21
306.6373486818472998
 31
0.0
  0
LINE
  5
2865E
  8
0
 10
5658.2955924772513754
 20
306.558608524347278
 30
0.0
 11
5658.2955924772513754
 21
305.800734508647281
 31
0.0
  0
LINE
  5
2865F
  8
0
 10
5656.7995294851507424
 20
306.558608524347278
 30
0.0
 11
5656.7995294851507424
 21
305.800734508647281
 31
0.0
  0
LINE
  5
28660
  8
0
 10
5658.2660649182507768
 20
305.771206949547377
 30
0.0
 11
5656.8290570440785814
 21
305.771206949547377
 31
0.0
  0
LINE
  5
28661
  8
0
 10
5658.1381121623508079
 20
305.771206949547377
 30
0.0
 11
5658.1381121623508079
 21
305.4365612802474175
 31
0.0
  0
LINE
  5
28662
  8
0
 10
5658.1381121623508079
 20
305.4365612802474175
 30
0.0
 11
5656.9570098001513543
 21
305.4365612802474175
 31
0.0
  0
LINE
  5
28663
  8
0
 10
5656.9570098001513543
 20
305.4365612802474175
 30
0.0
 11
5656.9570098001513543
 21
305.771206949547377
 31
0.0
  0
LINE
  5
28664
  8
0
 10
5657.9707893276508912
 20
305.4365612802474175
 30
0.0
 11
5657.9707893276508912
 21
305.3834116739473075
 31
0.0
  0
LINE
  5
28665
  8
0
 10
5657.9707893276508912
 20
305.3834116739473075
 30
0.0
 11
5657.9609468079506769
 21
305.3735691542473205
 31
0.0
  0
LINE
  5
28666
  8
0
 10
5657.9609468079506769
 20
305.3735691542473205
 30
0.0
 11
5657.1341751544514409
 21
305.3735691542473205
 31
0.0
  0
LINE
  5
28667
  8
0
 10
5657.1341751544514409
 20
305.3735691542473205
 30
0.0
 11
5657.1243326347512266
 21
305.3834116739473075
 31
0.0
  0
LINE
  5
28668
  8
0
 10
5657.1243326347512266
 20
305.3834116739473075
 30
0.0
 11
5657.1243326347512266
 21
305.4365612802474175
 31
0.0
  0
LINE
  5
28669
  8
0
 10
5657.9609468079506769
 20
305.3735691542473205
 30
0.0
 11
5657.9609468079506769
 21
305.3578211227473957
 31
0.0
  0
LINE
  5
2866A
  8
0
 10
5657.9609468079506769
 20
305.3578211227473957
 30
0.0
 11
5657.1341751544514409
 21
305.3578211227473957
 31
0.0
  0
LINE
  5
2866B
  8
0
 10
5657.9077972016511922
 20
305.3578211227473957
 30
0.0
 11
5657.9077972016511922
 21
305.3401045873472981
 31
0.0
  0
LINE
  5
2866C
  8
0
 10
5657.1873247607518351
 20
305.3401045873472981
 30
0.0
 11
5657.1873247607518351
 21
305.3578211227473957
 31
0.0
  0
LINE
  5
2866D
  8
0
 10
5657.1341751544514409
 20
305.3578211227473957
 30
0.0
 11
5657.1341751544514409
 21
305.3735691542473205
 31
0.0
  0
LINE
  5
2866E
  8
0
 10
5658.2213947040472704
 20
305.3401045873483213
 30
0.0
 11
5656.990248867147784
 21
305.3401045873483213
 31
0.0
  0
ARC
  5
2866F
  8
0
 10
5656.9213097494921385
 20
305.2334628533333785
 30
0.0
 40
0.1269844926626739
 50
57.1191366859786669
 51
84.1659498194826341
  0
LINE
  5
28670
  8
0
 10
5652.2544448400931287
 20
305.359788670796604
 30
0.0
 11
5656.9342174082512429
 21
305.3597896267482952
 31
0.0
  0
LINE
  5
28671
  8
0
 10
5651.6420459618839232
 20
304.6024686607933063
 30
0.0
 11
5657.5475609809482194
 21
304.5995296143482847
 31
0.0
  0
LINE
  5
28672
  8
0
 10
5650.5003204784179616
 20
304.0059168289473064
 30
0.0
 11
5658.6892968563261093
 21
304.0059168289474201
 31
0.0
  0
LINE
  5
28673
  8
0
 10
5654.1459861780476785
 20
301.264923485048314
 30
0.0
 11
5658.3892968563268369
 21
301.264923485048314
 31
0.0
  0
ARC
  5
28674
  8
0
 10
5645.2021116899450135
 20
304.5571414522354985
 30
0.0
 40
0.0466898718142227
 50
90.5286130106356808
 51
150.0435366451218044
  0
LINE
  5
28675
  8
0
 10
5646.6801076030324111
 20
307.0310494692482735
 30
0.0
 11
5646.6757996643418664
 21
306.7844584364232787
 31
0.0
  0
ARC
  5
28676
  8
0
 10
5646.6458042412932627
 20
306.7849824556546992
 30
0.0
 40
0.03
 50
270.5746982795311055
 51
358.9991460896656008
  0
LINE
  5
28677
  8
0
 10
5644.6722335869289964
 20
307.0310494692482735
 30
0.0
 11
5644.6765341579521191
 21
306.784459332050119
 31
0.0
  0
ARC
  5
28678
  8
0
 10
5644.7065295966058329
 20
306.7849824572480202
 30
0.0
 40
0.03
 50
180.9991461720393886
 51
269.4253000309187769
  0
LINE
  5
28679
  8
0
 10
5645.0560882634981681
 20
304.9759313589482872
 30
0.0
 11
5646.2962457436969999
 21
304.9759313589482872
 31
0.0
  0
LINE
  5
2867A
  8
0
 10
5646.3257733026975984
 20
304.9464037997482819
 30
0.0
 11
5646.3257733026975984
 21
304.6708132488482761
 31
0.0
  0
LINE
  5
2867B
  8
0
 10
5645.0265607042983902
 20
304.9464037999483139
 30
0.0
 11
5645.0265607043484124
 21
304.4856632487138768
 31
0.0
  0
ARC
  5
2867C
  8
0
 10
5644.9439048234653455
 20
306.6933652695519754
 30
0.0
 40
0.0592316520240221
 50
4.3759774819960198
 51
89.444085971157989
  0
ARC
  5
2867D
  8
0
 10
5646.4084290377240904
 20
306.6933653644941273
 30
0.0
 40
0.0592315613647934
 50
90.5606924088173031
 51
175.6230806127360893
  0
ARC
  5
2867E
  8
0
 10
5645.0558726773551825
 20
305.3703989046215952
 30
0.0
 40
0.0300020571379322
 50
173.3230883917073015
 51
269.0302136512826223
  0
ARC
  5
2867F
  8
0
 10
5646.2964612324567497
 20
305.3703991369242203
 30
0.0
 40
0.0300022910525094
 50
270.9699644818738875
 51
6.6787776864428174
  0
LINE
  5
28680
  8
0
 10
5644.6764357935562657
 20
306.7901273035324721
 30
0.0
 11
5646.6758981680522993
 21
306.7901273045450239
 31
0.0
  0
LINE
  5
28681
  8
0
 10
5644.7062286894506542
 20
306.754983966371185
 30
0.0
 11
5644.944479511337704
 21
306.7525941335910034
 31
0.0
  0
LINE
  5
28682
  8
0
 10
5646.4078494112072804
 20
306.7525940897195937
 30
0.0
 11
5646.6461051475625936
 21
306.7549839647691101
 31
0.0
  0
LINE
  5
28683
  8
0
 10
5646.3493702206897069
 20
306.6978857618619827
 30
0.0
 11
5646.326259921835117
 21
305.3738884885249263
 31
0.0
  0
LINE
  5
28684
  8
0
 10
5645.00296377698578
 20
306.6978863178550228
 30
0.0
 11
5645.0260741066640549
 21
305.373887259142009
 31
0.0
  0
ARC
  5
28685
  8
0
 10
5645.3593295124619544
 20
327.8709352898692941
 30
0.0
 40
22.5325844798924599
 50
269.2270563371096728
 51
270.2019425640576742
  0
ARC
  5
28686
  8
0
 10
5645.7948770791863353
 20
-1714.6602925567599414
 30
0.0
 40
2019.9988147158499032
 50
89.9966328761423853
 51
90.0101013717757041
  0
ARC
  5
28687
  8
0
 10
5645.9826484716186314
 20
330.314041553494576
 30
0.0
 40
24.9756183651628909
 50
269.8415684030620127
 51
270.7210921342017969
  0
LINE
  5
28688
  8
0
 10
5645.4387468535478547
 20
305.3384907658186194
 30
0.0
 11
5645.4793166097970243
 21
305.3105770282483036
 31
0.0
  0
LINE
  5
28689
  8
0
 10
5645.4793166097970243
 20
305.3105770282483036
 30
0.0
 11
5645.8730173971471231
 21
305.3105770282483036
 31
0.0
  0
LINE
  5
2868A
  8
0
 10
5645.8730173971471231
 20
305.3105770282483036
 30
0.0
 11
5645.9135871515691179
 21
305.3385186709483037
 31
0.0
  0
LINE
  5
2868B
  8
0
 10
5645.4871906255975773
 20
305.3105770282483036
 30
0.0
 11
5645.4871906255975773
 21
304.9759313589482872
 31
0.0
  0
LINE
  5
2868C
  8
0
 10
5645.8651433814975462
 20
305.3105770282483036
 30
0.0
 11
5645.8651433814975462
 21
304.9759313589482872
 31
0.0
  0
ARC
  5
2868D
  8
0
 10
5645.0560882632262292
 20
304.9464038000190271
 30
0.0
 40
0.0295275589292929
 50
89.9999994746769829
 51
180.0000000737065875
  0
ARC
  5
2868E
  8
0
 10
5646.2962457439389254
 20
304.9464038001897279
 30
0.0
 40
0.0295275587585735
 50
359.9999991434352182
 51
90.0000004684707449
  0
ARC
  5
2868F
  8
0
 10
5646.2962457437679404
 20
304.6708132485775877
 30
0.0
 40
0.0295275589292885
 50
269.9999998627937998
 51
0.0000003312580779
  0
LINE
  5
28690
  8
0
 10
5645.941709048364828
 20
304.6412856897483152
 30
0.0
 11
5646.2962457436969999
 21
304.6412856897483152
 31
0.0
  0
ARC
  5
28691
  8
0
 10
5645.7258264937790955
 20
291.1959803255867882
 30
0.0
 40
13.4180901651381106
 50
91.3672035078876519
 51
92.2386919996573482
  0
ARC
  5
28692
  8
0
 10
5645.7008081618705546
 20
293.3634027878111965
 30
0.0
 40
11.2507194980543996
 50
88.7510946275265269
 51
91.5031940172003573
  0
ARC
  5
28693
  8
0
 10
5646.1724481051605835
 20
312.2321578461359195
 30
0.0
 40
7.6240711471456528
 50
268.2981645442113745
 51
269.8025113144452121
  0
ARC
  5
28694
  8
0
 10
5645.6759910625069097
 20
304.2678247388205932
 30
0.0
 40
0.4583438991371047
 50
54.5680961160952904
 51
131.8277739124569052
  0
ARC
  5
28695
  8
0
 10
5645.7094580407319881
 20
304.3119998491474121
 30
0.0
 40
0.4029512319953225
 50
47.8010381928101467
 51
54.8040202559543133
  0
ARC
  5
28696
  8
0
 10
5644.7535339829846635
 20
305.0184502377429112
 30
0.0
 40
0.5986698307198807
 50
297.1328731746323228
 51
312.9782184975077826
  0
ARC
  5
28697
  8
0
 10
5644.4772486865040264
 20
305.6354385348531082
 30
0.0
 40
1.2742554302311051
 50
282.3876486703039745
 51
295.5364175402090154
  0
ARC
  5
28698
  8
0
 10
5645.5005554951503655
 20
301.0915177241997753
 30
0.0
 40
3.3834911183413201
 50
102.8059055319711064
 51
110.6743712859660036
  0
ARC
  5
28699
  8
0
 10
5644.8240552133629535
 20
302.759473050391307
 30
0.0
 40
1.5847183771598039
 50
109.0814298089745051
 51
136.0197130723456951
  0
ARC
  5
2869A
  8
0
 10
5644.1562010331781494
 20
303.4340764666783912
 30
0.0
 40
0.636061850864662
 50
137.9716609761671862
 51
166.2102094246309036
  0
ARC
  5
2869B
  8
0
 10
5644.0660823684993375
 20
303.4718760840992218
 30
0.0
 40
0.5397456629924763
 50
167.8270737527575989
 51
187.2670516336432058
  0
ARC
  5
2869C
  8
0
 10
5644.3439554661763395
 20
303.6589729549813796
 30
0.0
 40
0.8524342507909135
 50
197.4323300375970121
 51
242.9887602154198021
  0
ARC
  5
2869D
  8
0
 10
5645.5667308291558584
 20
306.0219326072170816
 30
0.0
 40
3.5130157823227779
 50
242.7242560277869075
 51
271.7797192259454846
  0
ARC
  5
2869E
  8
0
 10
5645.7989718914959667
 20
305.8348147057745905
 30
0.0
 40
3.326483148438458
 50
267.8785797844910235
 51
301.2615685568046047
  0
ARC
  5
2869F
  8
0
 10
5647.1684118771136127
 20
303.5550206792606218
 30
0.0
 40
0.6671505831855224
 50
302.3336571247511984
 51
355.1910798339782218
  0
ARC
  5
286A0
  8
0
 10
5646.144342541279002
 20
304.5591943088169842
 30
0.0
 40
0.0489717623625045
 50
37.0465227849125327
 51
87.8622441528809333
  0
ARC
  5
286A1
  8
0
 10
5646.3989369805431124
 20
304.7866313564264829
 30
0.0
 40
0.2926110450076177
 50
222.5659530203591032
 51
231.2468839080270868
  0
ARC
  5
286A2
  8
0
 10
5646.5066931127457792
 20
304.9213338697422273
 30
0.0
 40
0.465110609752036
 50
231.2820552699483017
 51
237.6079929810973113
  0
ARC
  5
286A3
  8
0
 10
5646.6427127837578155
 20
305.1385144673005811
 30
0.0
 40
0.7213669871851193
 50
237.7263569457622054
 51
244.1059530031197085
  0
ARC
  5
286A4
  8
0
 10
5646.7518645459449544
 20
305.3674688243766013
 30
0.0
 40
0.9750041813476162
 50
244.2113182719130009
 51
251.2642766899662092
  0
ARC
  5
286A5
  8
0
 10
5647.0551874387929274
 20
306.3401986770887788
 30
0.0
 40
1.993776835343517
 50
251.9883141951466996
 51
256.782602498004394
  0
ARC
  5
286A6
  8
0
 10
5645.936562310975205
 20
301.2926721663163789
 30
0.0
 40
3.1764752834396481
 50
68.2082614051704468
 51
77.9570537306250628
  0
ARC
  5
286A7
  8
0
 10
5646.5688475969227511
 20
302.7940312710155126
 30
0.0
 40
1.5479643224962421
 50
45.5421335406700791
 51
69.3093477324050724
  0
ARC
  5
286A8
  8
0
 10
5647.2307261569903858
 20
303.4680749140431999
 30
0.0
 40
0.6032856625512256
 50
2.947029730073377
 51
45.5740856327200703
  0
ARC
  5
286A9
  8
0
 10
5033.8990426552090867
 20
333.0116822668088048
 30
0.0
 40
610.3419341366537765
 50
357.1769409045606949
 51
357.2280413953158131
  0
ARC
  5
286AA
  8
0
 10
5644.0396345480239688
 20
302.9216457296143972
 30
0.0
 40
0.5401842464028298
 50
176.8553596033376039
 51
179.4598105728223914
  0
ARC
  5
286AB
  8
0
 10
5644.0396345480239688
 20
302.9216457296143972
 30
0.0
 40
0.5401842464028298
 50
180.5401894271776086
 51
196.1655619788515992
  0
ARC
  5
286AC
  8
0
 10
5644.0396345480239688
 20
302.9216457296143972
 30
0.0
 40
0.5401842464028298
 50
215.2175080330947026
 51
224.0707680913062916
  0
ARC
  5
286AD
  8
0
 10
5644.9305408879317838
 20
303.8381101092343783
 30
0.0
 40
1.8181411440198421
 50
225.2934493330151042
 51
256.2848569646924943
  0
ARC
  5
286AE
  8
0
 10
5645.6463055025451467
 20
306.1416625887113128
 30
0.0
 40
4.2283483635442867
 50
254.2627854119245114
 51
270.5484998775701229
  0
ARC
  5
286AF
  8
0
 10
5645.6993081886594155
 20
306.2115269182489214
 30
0.0
 40
4.298037190583865
 50
269.8330358567083067
 51
284.7444530730554106
  0
ARC
  5
286B0
  8
0
 10
5646.3247095318529318
 20
304.0226327251635894
 30
0.0
 40
2.0226150639323821
 50
283.3926647916392767
 51
308.6280199978712062
  0
ARC
  5
286B1
  8
0
 10
5647.1624838232855836
 20
302.9924962842509899
 30
0.0
 40
0.6949599498553538
 50
307.6875035963585105
 51
350.8046014701236004
  0
ARC
  5
286B2
  8
0
 10
5592.6413049072689319
 20
301.6938060755521178
 30
0.0
 40
55.2214173199034022
 50
1.427475011778742
 51
1.8733572708309949
  0
ARC
  5
286B3
  8
0
 10
5636.4727939350023007
 20
302.3610525065830075
 30
0.0
 40
11.3948325584263106
 50
2.995721371514481
 51
3.5643196550905611
  0
ARC
  5
286B4
  8
0
 10
5647.3892377703868988
 20
302.9407387732027814
 30
0.0
 40
0.4630874209659978
 50
352.6430672871686056
 51
1.9581453614756761
  0
ARC
  5
286B5
  8
0
 10
5644.5245589835240025
 20
303.0318125704599765
 30
0.0
 40
1.0370184751943581
 50
194.5521057048052
 51
232.476700235611986
  0
ARC
  5
286B6
  8
0
 10
5645.2804131772863911
 20
304.0136868840673969
 30
0.0
 40
2.276127752228895
 50
232.4407452165933137
 51
256.1768915950111136
  0
ARC
  5
286B7
  8
0
 10
5645.5667790774368768
 20
304.9254885478028996
 30
0.0
 40
3.230503146294577
 50
255.1087783167442069
 51
257.5892600316723815
  0
ARC
  5
286B8
  8
0
 10
5645.6456953602582871
 20
305.3140373991308252
 30
0.0
 40
3.626938659900047
 50
257.6909018468525119
 51
266.6863780856928088
  0
ARC
  5
286B9
  8
0
 10
5646.0584783819585937
 20
313.7990460917229143
 30
0.0
 40
12.1218739431017095
 50
267.0567241050393932
 51
267.6782092153783879
  0
ARC
  5
286BA
  8
0
 10
5645.6758387201052756
 20
303.0032543355065968
 30
0.0
 40
1.320590592213555
 50
265.2898960412330212
 51
274.7097376804219948
  0
ARC
  5
286BB
  8
0
 10
5645.8150253975700252
 20
302.449510487263808
 30
0.0
 40
0.7630078121721543
 50
267.6898620025922924
 51
277.5755740606152244
  0
ARC
  5
286BC
  8
0
 10
5645.8034636742386283
 20
304.6033807428822229
 30
0.0
 40
2.9123786227804338
 50
272.2069323669695109
 51
283.4158383297357204
  0
ARC
  5
286BD
  8
0
 10
5645.7850821525944411
 20
304.9246972966381009
 30
0.0
 40
3.2296890778677612
 50
282.4104254638414204
 51
284.891532419161706
  0
ARC
  5
286BE
  8
0
 10
5646.0544823998661741
 20
304.0672620057800941
 30
0.0
 40
2.3321614400725079
 50
283.9087793377382241
 51
304.623430312148173
  0
ARC
  5
286BF
  8
0
 10
5646.678702797371443
 20
303.1593869970332094
 30
0.0
 40
1.2303995480786021
 50
304.7241629844004933
 51
329.9512369458298053
  0
ARC
  5
286C0
  8
0
 10
5647.1122621176336907
 20
302.9105876350624271
 30
0.0
 40
0.7305298489536677
 50
329.8148837993508096
 51
353.7605904206620266
  0
ARC
  5
286C1
  8
0
 10
5644.2226851008490485
 20
302.9870746095187997
 30
0.0
 40
0.7293263771786159
 50
188.2170774833747089
 51
222.7058897072921866
  0
ARC
  5
286C2
  8
0
 10
5644.6183850712723142
 20
303.3872790698246149
 30
0.0
 40
1.291793115010496
 50
223.8463223335762962
 51
240.5371013405824101
  0
ARC
  5
286C3
  8
0
 10
5645.1505702161412046
 20
304.3447879091880282
 30
0.0
 40
2.3872441403333289
 50
240.7195125593871978
 51
253.7610136531255023
  0
ARC
  5
286C4
  8
0
 10
5645.5434726216963099
 20
305.6146998087132829
 30
0.0
 40
3.7164298722265192
 50
253.4202492248111014
 51
262.6701716227260022
  0
ARC
  5
286C5
  8
0
 10
5645.676950539173049
 20
306.572481525367607
 30
0.0
 40
4.6834250815779113
 50
262.5454800187204114
 51
274.9087020654405933
  0
ARC
  5
286C6
  8
0
 10
5645.7556639895856279
 20
305.8660795264441958
 30
0.0
 40
3.9729192550863939
 50
274.6494130622407965
 51
285.2388482089361901
  0
ARC
  5
286C7
  8
0
 10
5646.2314188429227215
 20
304.2469194460429094
 30
0.0
 40
2.2858868573119979
 50
284.4006189201305119
 51
302.3772387099484149
  0
ARC
  5
286C8
  8
0
 10
5646.9571265495624175
 20
303.1156422679368916
 30
0.0
 40
0.9418937892265923
 50
301.9453032864769284
 51
337.080007570748478
  0
ARC
  5
286C9
  8
0
 10
5644.7535593986076492
 20
301.7551539400570277
 30
0.0
 40
0.0134711756910013
 50
191.5018035804853866
 51
231.6324142817124994
  0
ARC
  5
286CA
  8
0
 10
5644.7983437272696392
 20
301.8421260013740266
 30
0.0
 40
0.1110737840708771
 50
241.4141997642275896
 51
257.7134794615337796
  0
ARC
  5
286CB
  8
0
 10
5644.878441390756052
 20
302.1079037746205245
 30
0.0
 40
0.3884158636226796
 50
254.5100114469796893
 51
265.3614279799809879
  0
ARC
  5
286CC
  8
0
 10
5644.8501630987457247
 20
301.7449616161143808
 30
0.0
 40
0.0244034444592102
 50
262.6240968535141747
 51
298.5291079882617851
  0
ARC
  5
286CD
  8
0
 10
5644.8555036947564076
 20
301.7342366008797967
 30
0.0
 40
0.0124374650817915
 50
300.5113589165088115
 51
351.3573152821301733
  0
ARC
  5
286CE
  8
0
 10
5645.4538056126821175
 20
301.6770686607349035
 30
0.0
 40
0.0162252628546125
 50
189.1317494065129097
 51
231.9598720232467031
  0
ARC
  5
286CF
  8
0
 10
5645.4961483377219338
 20
301.7814785601005951
 30
0.0
 40
0.1283461661381204
 50
245.9326163496521076
 51
269.5811591884532845
  0
ARC
  5
286D0
  8
0
 10
5645.5131240168138902
 20
301.7769945800412756
 30
0.0
 40
0.1251475108406653
 50
261.7702822308323221
 51
290.9941774626313986
  0
ARC
  5
286D1
  8
0
 10
5645.5501688488839136
 20
301.6739052694906036
 30
0.0
 40
0.0158048800489802
 50
299.5393943666483096
 51
350.424524156177597
  0
ARC
  5
286D2
  8
0
 10
5645.8006326287159027
 20
301.6734448997773939
 30
0.0
 40
0.0148856828654307
 50
187.8067725634417968
 51
235.3118580971662936
  0
ARC
  5
286D3
  8
0
 10
5645.8274483767454512
 20
301.7332532491903976
 30
0.0
 40
0.0802256196361227
 50
243.9056169703981141
 51
270.8247489552152842
  0
ARC
  5
286D4
  8
0
 10
5645.8415814055051669
 20
301.9351462146299809
 30
0.0
 40
0.2824086429232584
 50
267.3660113001346872
 51
273.0195859713048208
  0
ARC
  5
286D5
  8
0
 10
5645.8598714637064404
 20
301.7626694492736874
 30
0.0
 40
0.1095929514231491
 50
268.2151014508291951
 51
295.2963028927042046
  0
ARC
  5
286D6
  8
0
 10
5645.8985154248430263
 20
301.6768173768829797
 30
0.0
 40
0.0155589715782437
 50
301.740072630097302
 51
353.3996708985358168
  0
ARC
  5
286D7
  8
0
 10
5646.4977486472744204
 20
301.7352580244681235
 30
0.0
 40
0.0142199907041723
 50
190.362065515658486
 51
268.8636911222719732
  0
ARC
  5
286D8
  8
0
 10
5646.4820855040179595
 20
302.0764785285135758
 30
0.0
 40
0.355770343129624
 50
272.4778611915576221
 51
285.5150900205368885
  0
ARC
  5
286D9
  8
0
 10
5646.5609514080560984
 20
301.8211451851242941
 30
0.0
 40
0.0889784602514746
 50
280.5555640473866106
 51
300.9972221580466112
  0
ARC
  5
286DA
  8
0
 10
5646.5981572922137275
 20
301.7551297599342206
 30
0.0
 40
0.0133960848461682
 50
310.0383991828977059
 51
354.6814943763399128
  0
LINE
  5
286DB
  8
0
 10
5646.4791844428227705
 20
301.7704757523584931
 30
0.0
 11
5646.4837605736183832
 21
301.732700304586217
 31
0.0
  0
LINE
  5
286DC
  8
0
 10
5646.6114952069110586
 20
301.7538842899178917
 30
0.0
 11
5646.6150798594653679
 21
301.8034803310483767
 31
0.0
  0
LINE
  5
286DD
  8
0
 10
5645.7842696278994481
 20
301.6871227879482262
 30
0.0
 11
5645.7858849094627658
 21
301.6714229375597256
 31
0.0
  0
LINE
  5
286DE
  8
0
 10
5645.9156156245971943
 20
301.6931623348482958
 30
0.0
 11
5645.9139682269842524
 21
301.6750138001777941
 31
0.0
  0
LINE
  5
286DF
  8
0
 10
5645.4360533064973424
 20
301.6931626081483273
 30
0.0
 11
5645.4377859885689759
 21
301.6744936271448978
 31
0.0
  0
LINE
  5
286E0
  8
0
 10
5645.5673993985974448
 20
301.6871234811483191
 30
0.0
 11
5645.5657535247282794
 21
301.6712761798813744
 31
0.0
  0
LINE
  5
286E1
  8
0
 10
5644.7365890949213281
 20
301.8034803525628149
 30
0.0
 11
5644.740358745298181
 21
301.7524678040483082
 31
0.0
  0
LINE
  5
286E2
  8
0
 10
5644.8724845149799876
 20
301.7704757683105754
 30
0.0
 11
5644.8677999287374405
 21
301.7323675991660252
 31
0.0
  0
LINE
  5
286E3
  8
0
 10
5653.2955924772477374
 20
305.3597900344216214
 30
0.0
 11
5653.2955924772477374
 21
305.3794746661483259
 31
0.0
  0
LINE
  5
286E4
  8
0
 10
5653.2955924772477374
 20
305.3794746661483259
 30
0.0
 11
5653.531812949747291
 21
305.3794746661483259
 31
0.0
  0
LINE
  5
286E5
  8
0
 10
5653.531812949747291
 20
305.3794746661483259
 30
0.0
 11
5653.531812949747291
 21
305.3597903438072763
 31
0.0
  0
ARC
  5
286E6
  8
0
 10
5653.5475609812474431
 20
299.6046715165483079
 30
0.0
 40
0.2992125983999978
 50
270.0000132614226231
 51
0.0000000000032569
  0
LINE
  5
286E7
  8
0
 10
5653.8467735796475608
 20
300.9657108866477984
 30
0.0
 11
5653.8467735796475608
 21
299.6046715165483079
 31
0.0
  0
ARC
  5
286E8
  8
0
 10
5654.1459861780476785
 20
300.96571088664831
 30
0.0
 40
0.2992125983999951
 50
90.0
 51
180.0000000000977138
  0
LINE
  5
286E9
  8
0
 10
5650.7993204784188492
 20
299.3054589181483038
 30
0.0
 11
5653.5475610505009172
 21
299.3054589181483038
 31
0.0
  0
LINE
  5
286EA
  8
0
 10
5647.3577856021420303
 20
304.1258609777131028
 30
0.0
 11
5648.4579154653938531
 21
304.0061342222609255
 31
0.0
  0
LINE
  5
286EB
  8
0
 10
5647.8332139699477921
 20
303.4990914560485749
 30
0.0
 11
5648.4579154653938531
 21
303.4497973649342271
 31
0.0
  0
LINE
  5
286EC
  8
0
 10
5643.4994743095985541
 20
302.9267385566629969
 30
0.0
 11
5643.4994743095985541
 21
302.9165529025659112
 31
0.0
  0
LINE
  5
286ED
  8
0
 10
5648.4579154653938531
 20
304.0548206889594098
 30
0.0
 11
5648.4579154653938531
 21
303.2591974734356768
 31
0.0
  0
LINE
  5
286EE
  8
0
 10
5650.4530763839238716
 20
302.5943008427116752
 30
0.0
 11
5650.4530763839238716
 21
304.7394795520423827
 31
0.0
  0
LINE
  5
286EF
  8
0
 10
5650.5003204784179616
 20
299.604458918148282
 30
0.0
 11
5650.5003204784179616
 21
304.7200534062483257
 31
0.0
  0
LINE
  5
286F0
  8
0
 10
5658.6892968563261093
 20
301.5649234850483253
 30
0.0
 11
5658.6892968563261093
 21
304.7200534063500754
 31
0.0
  0
LINE
  5
286F1
  8
0
 10
5658.7366864073537727
 20
304.7394782513770792
 30
0.0
 11
5658.7366864073537727
 21
302.5943021434057982
 31
0.0
  0
LINE
  5
286F2
  8
0
 10
5660.7248071648264158
 20
304.6836749304674186
 30
0.0
 11
5660.7248071648264158
 21
302.6436924527783958
 31
0.0
  0
LINE
  5
286F3
  8
0
 10
5660.7362226225141058
 20
304.0056890066995265
 30
0.0
 11
5660.7362226225141058
 21
303.3281133236234837
 31
0.0
  0
ARC
  5
286F4
  8
0
 10
5650.4430763839245628
 20
302.5943008427116752
 30
0.0
 40
0.01
 50
269.4999999986275157
 51
0.0
  0
ARC
  5
286F5
  8
0
 10
5650.4430763839236533
 20
304.7394795520423827
 30
0.0
 40
0.01
 50
0.0
 51
90.4999889291471789
  0
ARC
  5
286F6
  8
0
 10
5650.7993204784188492
 20
299.604458918148282
 30
0.0
 40
0.299
 50
180.0
 51
270.0
  0
ARC
  5
286F7
  8
0
 10
5650.5298204784203335
 20
304.7200534062483257
 30
0.0
 40
0.0295
 50
90.0
 51
179.9999999999870113
  0
ARC
  5
286F8
  8
0
 10
5658.3892968563268369
 20
301.5649234850483253
 30
0.0
 40
0.3
 50
270.0
 51
0.0
  0
ARC
  5
286F9
  8
0
 10
5658.6597968563255563
 20
304.7200534063500754
 30
0.0
 40
0.0295
 50
0.0
 51
90.0000032986803973
  0
ARC
  5
286FA
  8
0
 10
5658.7466864073539909
 20
304.7394782513770792
 30
0.0
 40
0.01
 50
89.5000110708007242
 51
179.9999999999575948
  0
ARC
  5
286FB
  8
0
 10
5658.7466864073539909
 20
302.5943021434057982
 30
0.0
 40
0.01
 50
180.0000000000391083
 51
270.5000000013724843
  0
LINE
  5
286FC
  8
0
 10
5648.4688261932105888
 20
304.7103597591191146
 30
0.0
 11
5648.4688261932105888
 21
302.62342101037558
 31
0.0
  0
LINE
  5
286FD
  8
0
 10
5650.3436950018749485
 20
307.0015494692482889
 30
0.0
 11
5650.3436950018749485
 21
306.676748681846675
 31
0.0
  0
LINE
  5
286FE
  8
0
 10
5652.9403372266242513
 20
307.0015494692482889
 30
0.0
 11
5652.9403372266242513
 21
306.6767486818473003
 31
0.0
  0
ARC
  5
286FF
  8
0
 10
5650.373195001876411
 20
307.0015494692482889
 30
0.0
 40
0.0295
 50
90.0
 51
179.9999999999870113
  0
ARC
  5
28700
  8
0
 10
5652.9108372266246079
 20
307.0015494692482889
 30
0.0
 40
0.0295
 50
0.0000000000260551
 51
90.0
  0
ARC
  5
28701
  8
0
 10
5652.9009372266245919
 20
306.6767486818473003
 30
0.0
 40
0.0394
 50
270.0
 51
0.0000000000097707
  0
ARC
  5
28702
  8
0
 10
5650.383095001876427
 20
306.676748681846675
 30
0.0
 40
0.0394
 50
180.0
 51
270.0
  0
LINE
  5
28703
  8
0
 10
5656.2493069712372744
 20
306.6767486818473003
 30
0.0
 11
5656.2493069712372744
 21
307.0015494692482889
 31
0.0
  0
LINE
  5
28704
  8
0
 10
5658.8459198770342482
 20
306.676748681846675
 30
0.0
 11
5658.8459198770342482
 21
307.0015494692482889
 31
0.0
  0
ARC
  5
28705
  8
0
 10
5656.2887069712378434
 20
306.6767486818473003
 30
0.0
 40
0.0394
 50
180.0
 51
270.0
  0
ARC
  5
28706
  8
0
 10
5658.8065198770327697
 20
306.676748681846675
 30
0.0
 40
0.0394
 50
270.0
 51
0.0
  0
ARC
  5
28707
  8
0
 10
5658.8164198770327857
 20
307.0015494692482889
 30
0.0
 40
0.0295
 50
0.0
 51
90.0
  0
ARC
  5
28708
  8
0
 10
5656.2788069712378274
 20
307.0015494692482889
 30
0.0
 40
0.0295
 50
90.0
 51
179.9999999999739089
  0
ENDSEC
  0
EOF
