  0
SECTION
  2
HEADER
  9
$ACADVER
  1
AC1009
  9
$INSBASE
 10
3647.463005548370802
 20
146.1013288903631064
 30
0.0
  9
$EXTMIN
 10
3646.5574733930711773
 20
140.4713698718630894
 30
0.0
  9
$EXTMAX
 10
3648.3685377036708815
 20
146.1059481183733908
 30
0.0
  9
$LIMMIN
 10
0.0
 20
0.0
  9
$LIMMAX
 10
11.6929133858000007
 20
8.2677165353999982
  9
$ORTHOMODE
 70
     0
  9
$REGENMODE
 70
     1
  9
$FILLMODE
 70
     1
  9
$QTEXTMODE
 70
     0
  9
$MIRRTEXT
 70
     0
  9
$DRAGMODE
 70
     2
  9
$LTSCALE
 40
0.6431102362
  9
$OSMODE
 70
  3839
  9
$ATTMODE
 70
     1
  9
$TEXTSIZE
 40
0.2
  9
$TRACEWID
 40
0.05
  9
$TEXTSTYLE
  7
STANDARD
  9
$CLAYER
  8
0
  9
$CELTYPE
  6
BYLAYER
  9
$CECOLOR
 62
   256
  9
$DIMSCALE
 40
1.0
  9
$DIMASZ
 40
0.1875
  9
$DIMEXO
 40
0.0625
  9
$DIMDLI
 40
0.4443307087
  9
$DIMRND
 40
0.0
  9
$DIMDLE
 40
0.0
  9
$DIMEXE
 40
0.125
  9
$DIMTP
 40
0.01
  9
$DIMTM
 40
0.01
  9
$DIMTXT
 40
2.0
  9
$DIMCEN
 40
0.1052362205
  9
$DIMTSZ
 40
0.0
  9
$DIMTOL
 70
     1
  9
$DIMLIM
 70
     0
  9
$DIMTIH
 70
     1
  9
$DIMTOH
 70
     1
  9
$DIMSE1
 70
     0
  9
$DIMSE2
 70
     0
  9
$DIMTAD
 70
     0
  9
$DIMZIN
 70
     0
  9
$DIMBLK
  1

  9
$DIMASO
 70
     1
  9
$DIMSHO
 70
     1
  9
$DIMPOST
  1
\X
  9
$DIMAPOST
  1

  9
$DIMALT
 70
     1
  9
$DIMALTD
 70
     2
  9
$DIMALTF
 40
25.3999999999999986
  9
$DIMLFAC
 40
1.0
  9
$DIMTOFL
 70
     0
  9
$DIMTVP
 40
0.0
  9
$DIMTIX
 70
     0
  9
$DIMSOXD
 70
     0
  9
$DIMSAH
 70
     0
  9
$DIMBLK1
  1

  9
$DIMBLK2
  1

  9
$DIMSTYLE
  2
STANDARD
  9
$DIMCLRD
 70
     0
  9
$DIMCLRE
 70
     0
  9
$DIMCLRT
 70
     0
  9
$DIMTFAC
 40
1.0
  9
$DIMGAP
 40
0.09
  9
$LUNITS
 70
     2
  9
$LUPREC
 70
     4
  9
$SKETCHINC
 40
0.1
  9
$FILLETRAD
 40
0.0
  9
$AUNITS
 70
     0
  9
$AUPREC
 70
     0
  9
$MENU
  1
.
  9
$ELEVATION
 40
0.0
  9
$PELEVATION
 40
0.0
  9
$THICKNESS
 40
0.0
  9
$LIMCHECK
 70
     0
  9
$BLIPMODE
 70
     0
  9
$CHAMFERA
 40
0.0
  9
$CHAMFERB
 40
0.0
  9
$SKPOLY
 70
     0
  9
$TDCREATE
 40
2458060.468368056230247
  9
$TDUPDATE
 40
2459145.8639699080958962
  9
$TDINDWG
 40
0.7228311343
  9
$TDUSRTIMER
 40
0.7228311343
  9
$USRTIMER
 70
     1
  9
$ANGBASE
 50
0.0
  9
$ANGDIR
 70
     0
  9
$PDMODE
 70
     0
  9
$PDSIZE
 40
0.3125
  9
$PLINEWID
 40
0.0
  9
$COORDS
 70
     1
  9
$SPLFRAME
 70
     0
  9
$SPLINETYPE
 70
     6
  9
$SPLINESEGS
 70
     8
  9
$ATTDIA
 70
     1
  9
$ATTREQ
 70
     1
  9
$HANDLING
 70
     1
  9
$HANDSEED
  5
FC4F
  9
$SURFTAB1
 70
     6
  9
$SURFTAB2
 70
     6
  9
$SURFTYPE
 70
     6
  9
$SURFU
 70
     6
  9
$SURFV
 70
     6
  9
$UCSNAME
  2

  9
$UCSORG
 10
0.0
 20
0.0
 30
0.0
  9
$UCSXDIR
 10
1.0
 20
0.0
 30
0.0
  9
$UCSYDIR
 10
0.0
 20
1.0
 30
0.0
  9
$PUCSNAME
  2

  9
$PUCSORG
 10
0.0
 20
0.0
 30
0.0
  9
$PUCSXDIR
 10
1.0
 20
0.0
 30
0.0
  9
$PUCSYDIR
 10
0.0
 20
1.0
 30
0.0
  9
$USERI1
 70
     0
  9
$USERI2
 70
     0
  9
$USERI3
 70
     0
  9
$USERI4
 70
     0
  9
$USERI5
 70
     0
  9
$USERR1
 40
0.0
  9
$USERR2
 40
0.0
  9
$USERR3
 40
0.0
  9
$USERR4
 40
0.0
  9
$USERR5
 40
0.0
  9
$WORLDVIEW
 70
     1
  9
$SHADEDGE
 70
     3
  9
$SHADEDIF
 70
    70
  9
$TILEMODE
 70
     1
  9
$MAXACTVP
 70
    64
  9
$PLIMCHECK
 70
     0
  9
$PEXTMIN
 10
1.0000000000000000E+20
 20
1.0000000000000000E+20
 30
1.0000000000000000E+20
  9
$PEXTMAX
 10
-1.0000000000000000E+20
 20
-1.0000000000000000E+20
 30
-1.0000000000000000E+20
  9
$PLIMMIN
 10
0.0
 20
0.0
  9
$PLIMMAX
 10
12.0
 20
9.0
  9
$UNITMODE
 70
     0
  9
$VISRETAIN
 70
     1
  9
$PLINEGEN
 70
     0
  9
$PSLTSCALE
 70
     1
  0
ENDSEC
  0
SECTION
  2
TABLES
  0
TABLE
  2
VPORT
 70
     1
  0
VPORT
  2
*ACTIVE
 70
     0
 10
0.0
 20
0.0
 11
1.0
 21
1.0
 12
0.0
 22
0.0
 13
0.0
 23
0.0
 14
1.0
 24
1.0
 15
0.0
 25
0.0
 16
0.0
 26
0.0
 36
23.2622967221781103
 17
3647.4630126953120453
 27
143.2886613150459993
 37
0.0
 40
5.9185430994541584
 41
3.1182994454713491
 42
50.0
 43
0.0
 44
0.0
 50
0.0
 51
0.0
 71
     0
 72
   100
 73
     1
 74
     1
 75
     0
 76
     0
 77
     0
 78
     0
  0
ENDTAB
  0
TABLE
  2
LTYPE
 70
     2
  0
LTYPE
  2
CONTINUOUS
 70
     0
  3
Solid line
 72
    65
 73
     0
 40
0.0
  0
LTYPE
  2
PHANTOM2
 70
     0
  3
___ _ _ ___ _ _ ___ _ _ ___ _ _
 72
    65
 73
     6
 40
1.25
 49
0.625
 49
-0.125
 49
0.125
 49
-0.125
 49
0.125
 49
-0.125
  0
ENDTAB
  0
TABLE
  2
LAYER
 70
     2
  0
LAYER
  2
0
 70
     0
 62
   255
  6
CONTINUOUS
  0
LAYER
  2
DEFPOINTS
 70
     0
 62
     7
  6
CONTINUOUS
  0
ENDTAB
  0
TABLE
  2
STYLE
 70
     1
  0
STYLE
  2
STANDARD
 70
     0
 40
0.0
 41
0.8
 50
0.0
 71
     0
 42
0.2
  3
txt
  4

  0
ENDTAB
  0
TABLE
  2
VIEW
 70
     0
  0
ENDTAB
  0
TABLE
  2
UCS
 70
     0
  0
ENDTAB
  0
TABLE
  2
APPID
 70
    10
  0
APPID
  2
ACAD
 70
     0
  0
APPID
  2
ACAD_MLEADERVER
 70
     0
  0
APPID
  2
ACAD_EXEMPT_FROM_CAD_STANDARDS
 70
     0
  0
APPID
  2
ACAD_NAV_VCDISPLAY
 70
     0
  0
APPID
  2
ACAECLAYERSTANDARD
 70
     0
  0
APPID
  2
ACCMTRANSPARENCY
 70
     0
  0
APPID
  2
ACAD_DSTYLE_DIMJAG
 70
     0
  0
APPID
  2
ACAD_DSTYLE_DIMTALN
 70
     0
  0
APPID
  2
ACDBATTR
 70
     0
  0
APPID
  2
ACAD_PSEXT
 70
     0
  0
ENDTAB
  0
TABLE
  2
DIMSTYLE
 70
     1
  0
DIMSTYLE
  2
STANDARD
 70
     0
  3

  4

  5

  6

  7

 40
1.0
 41
0.1875
 42
0.0625
 43
0.38
 44
0.125
 45
0.0
 46
0.0
 47
0.01
 48
0.01
140
0.15625
141
0.09
142
0.0
143
25.3999999999999986
144
1.0
145
0.0
146
1.0
147
0.09
 71
     1
 72
     0
 73
     1
 74
     1
 75
     0
 76
     0
 77
     0
 78
     4
170
     0
171
     2
172
     0
173
     0
174
     0
175
     0
176
     0
177
     0
178
     0
  0
ENDTAB
  0
ENDSEC
  0
SECTION
  2
BLOCKS
  0
BLOCK
  8
0
  2
$MODEL_SPACE
 70
     0
 10
0.0
 20
0.0
 30
0.0
  3
$MODEL_SPACE
  1

  0
ENDBLK
  5
21
  8
0
  0
BLOCK
 67
     1
  8
0
  2
$PAPER_SPACE
 70
     0
 10
0.0
 20
0.0
 30
0.0
  3
$PAPER_SPACE
  1

  0
ENDBLK
  5
1D
 67
     1
  8
0
  0
BLOCK
  8
0
  2
_FILLED
 70
     0
 10
0.0
 20
0.0
 30
0.0
  3
_FILLED
  1

  0
SOLID
  5
B630
  8
0
  6
BYBLOCK
 62
     0
 10
0.0
 20
0.0
 30
0.0
 11
-1.0
 21
0.1666666667
 31
0.0
 12
-1.0
 22
-0.1666666667
 32
0.0
 13
-1.0
 23
-0.1666666667
 33
0.0
  0
ENDBLK
  5
B631
  8
0
  6
BYBLOCK
 62
     0
  0
ENDSEC
  0
SECTION
  2
ENTITIES
  0
ATTDEF
  5
AA11
  8
DEFPOINTS
 10
3647.4635923676451057
 20
146.1049481183733008
 30
0.0
 40
0.001
  1
K-23514IN-4
  3

  2
MODELNUMBER
 70
     0
1001
ACDBATTR
1070
     0
1070
     1
  0
ATTDEF
  5
AA12
  8
DEFPOINTS
 10
3647.4635923676451057
 20
146.1032814517066072
 30
0.0
 40
0.001
  1

  3

  2
TRADENAME
 70
     0
1001
ACDBATTR
1070
     0
1070
     1
  0
ATTDEF
  5
AA13
  8
DEFPOINTS
 10
3647.4635923676451057
 20
146.1016147850399989
 30
0.0
 40
0.001
  1
BATHROOM SINK FAUCET
  3

  2
PRODUCT
 70
     0
1001
ACDBATTR
1070
     0
1070
     1
  0
LINE
  5
FAE9
  8
0
 10
3648.3685377036708815
 20
146.0016381930203977
 30
0.0
 11
3648.3685377036708815
 21
146.1013288903631064
 31
0.0
  0
LINE
  5
FAEA
  8
0
 10
3648.3685377036708815
 20
146.1013288903631064
 30
0.0
 11
3646.5574733930711773
 21
146.1013288903631064
 31
0.0
  0
LINE
  5
FAEB
  8
0
 10
3648.3314661128961234
 20
145.9635336147630937
 30
0.0
 11
3646.5945449838450259
 21
145.9635336147630937
 31
0.0
  0
LINE
  5
FAEC
  8
0
 10
3648.0141566366710322
 20
145.9535337831630954
 30
0.0
 11
3648.0141566366710322
 21
144.9811429432822081
 31
0.0
  0
ARC
  5
FAED
  8
0
 10
3648.3290617547500005
 20
146.0029583850493964
 30
0.0
 40
0.0394980183075562
 50
273.489916722965404
 51
358.0845742157578115
  0
ARC
  5
FAEE
  8
0
 10
3648.0041457958341198
 20
145.9535275203255082
 30
0.0
 40
0.010010842795589
 50
0.0358445528604623
 51
88.2352174301312573
  0
LINE
  5
FAEF
  8
0
 10
3648.2110370444711407
 20
144.6355236811656937
 30
0.0
 11
3648.2110370444711407
 21
140.766641959006904
 31
0.0
  0
ARC
  5
FAF0
  8
0
 10
3648.1310370739270184
 20
144.6355053536697994
 30
0.0
 40
0.0799999726437172
 50
0.0131261066590699
 51
21.7457136642304789
  0
ARC
  5
FAF1
  8
0
 10
3648.0941625104292143
 20
144.981144758888405
 30
0.0
 40
0.0800058737793118
 50
180.0013002366900992
 51
223.9263671774085935
  0
LINE
  5
FAF2
  8
0
 10
3647.9110370444709588
 20
141.219698285463096
 30
0.0
 11
3647.0149740522710999
 21
141.219698285463096
 31
0.0
  0
LINE
  5
FAF3
  8
0
 10
3647.9110370444709588
 20
140.4713698718630894
 30
0.0
 11
3647.0149740522710999
 21
140.4713698718630894
 31
0.0
  0
ARC
  5
FAF4
  8
0
 10
3647.9110370444709588
 20
141.5197389739630864
 30
0.0
 40
0.3000406884999991
 50
270.0
 51
359.0563991978228842
  0
ARC
  5
FAF5
  8
0
 10
3647.9110370444709588
 20
140.7714077236630885
 30
0.0
 40
0.3000378518
 50
270.0
 51
359.0898825511198993
  0
LINE
  5
FAF6
  8
0
 10
3646.5574733930711773
 20
146.0016381930203977
 30
0.0
 11
3646.5574733930711773
 21
146.1013288903631064
 31
0.0
  0
LINE
  5
FAF7
  8
0
 10
3646.9118544600701171
 20
145.9535337831630954
 30
0.0
 11
3646.9118544600701171
 21
144.9811429432822081
 31
0.0
  0
ARC
  5
FAF8
  8
0
 10
3646.5969493419920582
 20
146.0029583850493964
 30
0.0
 40
0.0394980183075562
 50
181.9154257842421885
 51
266.5100832770344823
  0
ARC
  5
FAF9
  8
0
 10
3646.9218653009070295
 20
145.9535275203255082
 30
0.0
 40
0.010010842795589
 50
91.7647825698687569
 51
179.9641554471394898
  0
LINE
  5
FAFA
  8
0
 10
3646.714974052270918
 20
144.6355236811656937
 30
0.0
 11
3646.714974052270918
 21
140.766641959006904
 31
0.0
  0
ARC
  5
FAFB
  8
0
 10
3646.7949740228150404
 20
144.6355053536697994
 30
0.0
 40
0.0799999726437172
 50
158.2542863357695069
 51
179.9868738933409134
  0
ARC
  5
FAFC
  8
0
 10
3646.8318485863119349
 20
144.981144758888405
 30
0.0
 40
0.0800058737793118
 50
316.073632822591378
 51
359.9986997633099008
  0
ARC
  5
FAFD
  8
0
 10
3647.0149740522710999
 20
141.5197389739630864
 30
0.0
 40
0.3000406884999991
 50
180.9436008021770022
 51
270.0
  0
ARC
  5
FAFE
  8
0
 10
3647.0149740522710999
 20
140.7714077236630885
 30
0.0
 40
0.3000378518
 50
180.9101174488785091
 51
270.0
  0
ARC
  5
FAFF
  8
0
 10
3647.463005548370802
 20
144.3690458175346123
 30
0.0
 40
0.7992126001285061
 50
21.7457077218517902
 51
158.2542922781481991
  0
ENDSEC
  0
EOF
