  0
SECTION
  2
HEADER
  9
$ACADVER
  1
AC1009
  9
$INSBASE
 10
3955.9021046516040769
 20
47.428246428355088
 30
0.0
  9
$EXTMIN
 10
3940.8588664889798565
 20
40.0857199617677296
 30
0.0
  9
$EXTMAX
 10
3961.4155680060621307
 20
55.4837468323558909
 30
0.0
  9
$LIMMIN
 10
0.0
 20
0.0
  9
$LIMMAX
 10
11.6929133858000007
 20
8.2677165353999982
  9
$ORTHOMODE
 70
     0
  9
$REGENMODE
 70
     1
  9
$FILLMODE
 70
     1
  9
$QTEXTMODE
 70
     0
  9
$MIRRTEXT
 70
     0
  9
$DRAGMODE
 70
     2
  9
$LTSCALE
 40
0.6431102362
  9
$OSMODE
 70
  4095
  9
$ATTMODE
 70
     1
  9
$TEXTSIZE
 40
0.2
  9
$TRACEWID
 40
0.05
  9
$TEXTSTYLE
  7
STANDARD
  9
$CLAYER
  8
0
  9
$CELTYPE
  6
BYLAYER
  9
$CECOLOR
 62
   256
  9
$DIMSCALE
 40
1.0
  9
$DIMASZ
 40
0.1875
  9
$DIMEXO
 40
0.0625
  9
$DIMDLI
 40
0.4443307087
  9
$DIMRND
 40
0.0
  9
$DIMDLE
 40
0.0
  9
$DIMEXE
 40
0.125
  9
$DIMTP
 40
0.01
  9
$DIMTM
 40
0.01
  9
$DIMTXT
 40
2.0
  9
$DIMCEN
 40
0.1052362205
  9
$DIMTSZ
 40
0.0
  9
$DIMTOL
 70
     1
  9
$DIMLIM
 70
     0
  9
$DIMTIH
 70
     1
  9
$DIMTOH
 70
     1
  9
$DIMSE1
 70
     0
  9
$DIMSE2
 70
     0
  9
$DIMTAD
 70
     0
  9
$DIMZIN
 70
     0
  9
$DIMBLK
  1

  9
$DIMASO
 70
     1
  9
$DIMSHO
 70
     1
  9
$DIMPOST
  1
\X
  9
$DIMAPOST
  1

  9
$DIMALT
 70
     1
  9
$DIMALTD
 70
     2
  9
$DIMALTF
 40
25.3999999999999986
  9
$DIMLFAC
 40
1.0
  9
$DIMTOFL
 70
     0
  9
$DIMTVP
 40
0.0
  9
$DIMTIX
 70
     0
  9
$DIMSOXD
 70
     0
  9
$DIMSAH
 70
     0
  9
$DIMBLK1
  1

  9
$DIMBLK2
  1

  9
$DIMSTYLE
  2
STANDARD
  9
$DIMCLRD
 70
     0
  9
$DIMCLRE
 70
     0
  9
$DIMCLRT
 70
     0
  9
$DIMTFAC
 40
1.0
  9
$DIMGAP
 40
0.09
  9
$LUNITS
 70
     2
  9
$LUPREC
 70
     4
  9
$SKETCHINC
 40
0.1
  9
$FILLETRAD
 40
0.0
  9
$AUNITS
 70
     0
  9
$AUPREC
 70
     0
  9
$MENU
  1
.
  9
$ELEVATION
 40
0.0
  9
$PELEVATION
 40
0.0
  9
$THICKNESS
 40
0.0
  9
$LIMCHECK
 70
     0
  9
$BLIPMODE
 70
     0
  9
$CHAMFERA
 40
0.0
  9
$CHAMFERB
 40
0.0
  9
$SKPOLY
 70
     0
  9
$TDCREATE
 40
2458060.468368056230247
  9
$TDUPDATE
 40
2459091.5340393520891666
  9
$TDINDWG
 40
0.4191505787
  9
$TDUSRTIMER
 40
0.4191505787
  9
$USRTIMER
 70
     1
  9
$ANGBASE
 50
0.0
  9
$ANGDIR
 70
     0
  9
$PDMODE
 70
     0
  9
$PDSIZE
 40
0.3125
  9
$PLINEWID
 40
0.0
  9
$COORDS
 70
     1
  9
$SPLFRAME
 70
     0
  9
$SPLINETYPE
 70
     6
  9
$SPLINESEGS
 70
     8
  9
$ATTDIA
 70
     1
  9
$ATTREQ
 70
     1
  9
$HANDLING
 70
     1
  9
$HANDSEED
  5
8CB1
  9
$SURFTAB1
 70
     6
  9
$SURFTAB2
 70
     6
  9
$SURFTYPE
 70
     6
  9
$SURFU
 70
     6
  9
$SURFV
 70
     6
  9
$UCSNAME
  2

  9
$UCSORG
 10
0.0
 20
0.0
 30
0.0
  9
$UCSXDIR
 10
1.0
 20
0.0
 30
0.0
  9
$UCSYDIR
 10
0.0
 20
1.0
 30
0.0
  9
$PUCSNAME
  2

  9
$PUCSORG
 10
0.0
 20
0.0
 30
0.0
  9
$PUCSXDIR
 10
1.0
 20
0.0
 30
0.0
  9
$PUCSYDIR
 10
0.0
 20
1.0
 30
0.0
  9
$USERI1
 70
     0
  9
$USERI2
 70
     0
  9
$USERI3
 70
     0
  9
$USERI4
 70
     0
  9
$USERI5
 70
     0
  9
$USERR1
 40
0.0
  9
$USERR2
 40
0.0
  9
$USERR3
 40
0.0
  9
$USERR4
 40
0.0
  9
$USERR5
 40
0.0
  9
$WORLDVIEW
 70
     1
  9
$SHADEDGE
 70
     3
  9
$SHADEDIF
 70
    70
  9
$TILEMODE
 70
     1
  9
$MAXACTVP
 70
    64
  9
$PLIMCHECK
 70
     0
  9
$PEXTMIN
 10
1.0000000000000000E+20
 20
1.0000000000000000E+20
 30
1.0000000000000000E+20
  9
$PEXTMAX
 10
-1.0000000000000000E+20
 20
-1.0000000000000000E+20
 30
-1.0000000000000000E+20
  9
$PLIMMIN
 10
0.0
 20
0.0
  9
$PLIMMAX
 10
12.0
 20
9.0
  9
$UNITMODE
 70
     0
  9
$VISRETAIN
 70
     1
  9
$PLINEGEN
 70
     0
  9
$PSLTSCALE
 70
     1
  0
ENDSEC
  0
SECTION
  2
TABLES
  0
TABLE
  2
VPORT
 70
     1
  0
VPORT
  2
*ACTIVE
 70
     0
 10
0.0
 20
0.0
 11
1.0
 21
1.0
 12
189.7318703163554972
 22
-63.2413373793910765
 13
0.0
 23
0.0
 14
1.0
 24
1.0
 15
0.0
 25
0.0
 16
0.0
 26
0.0
 36
5.1040778033513332
 17
3792.35791015625
 27
120.1806564331053977
 37
0.0
 40
73.4414893222062517
 41
2.5847619047619039
 42
50.0
 43
0.0
 44
0.0
 50
0.0
 51
0.0
 71
     0
 72
   100
 73
     1
 74
     1
 75
     0
 76
     0
 77
     0
 78
     0
  0
ENDTAB
  0
TABLE
  2
LTYPE
 70
     2
  0
LTYPE
  2
CONTINUOUS
 70
     0
  3
Solid line
 72
    65
 73
     0
 40
0.0
  0
LTYPE
  2
PHANTOM2
 70
     0
  3
___ _ _ ___ _ _ ___ _ _ ___ _ _
 72
    65
 73
     6
 40
1.25
 49
0.625
 49
-0.125
 49
0.125
 49
-0.125
 49
0.125
 49
-0.125
  0
ENDTAB
  0
TABLE
  2
LAYER
 70
     2
  0
LAYER
  2
0
 70
     0
 62
   255
  6
CONTINUOUS
  0
LAYER
  2
DEFPOINTS
 70
     0
 62
     7
  6
CONTINUOUS
  0
ENDTAB
  0
TABLE
  2
STYLE
 70
     1
  0
STYLE
  2
STANDARD
 70
     0
 40
0.0
 41
0.8
 50
0.0
 71
     0
 42
0.2
  3
txt
  4

  0
ENDTAB
  0
TABLE
  2
VIEW
 70
     0
  0
ENDTAB
  0
TABLE
  2
UCS
 70
     0
  0
ENDTAB
  0
TABLE
  2
APPID
 70
     9
  0
APPID
  2
ACAD
 70
     0
  0
APPID
  2
ACAD_MLEADERVER
 70
     0
  0
APPID
  2
ACAD_EXEMPT_FROM_CAD_STANDARDS
 70
     0
  0
APPID
  2
ACAD_NAV_VCDISPLAY
 70
     0
  0
APPID
  2
ACAECLAYERSTANDARD
 70
     0
  0
APPID
  2
ACCMTRANSPARENCY
 70
     0
  0
APPID
  2
ACAD_DSTYLE_DIMJAG
 70
     0
  0
APPID
  2
ACAD_DSTYLE_DIMTALN
 70
     0
  0
APPID
  2
ACDBATTR
 70
     0
  0
ENDTAB
  0
TABLE
  2
DIMSTYLE
 70
     1
  0
DIMSTYLE
  2
STANDARD
 70
     0
  3

  4

  5

  6

  7

 40
1.0
 41
0.1875
 42
0.0625
 43
0.38
 44
0.125
 45
0.0
 46
0.0
 47
0.01
 48
0.01
140
0.15625
141
0.09
142
0.0
143
25.3999999999999986
144
1.0
145
0.0
146
1.0
147
0.09
 71
     1
 72
     0
 73
     1
 74
     1
 75
     0
 76
     0
 77
     0
 78
     4
170
     0
171
     2
172
     0
173
     0
174
     0
175
     0
176
     0
177
     0
178
     0
  0
ENDTAB
  0
ENDSEC
  0
SECTION
  2
BLOCKS
  0
BLOCK
  8
0
  2
$MODEL_SPACE
 70
     0
 10
0.0
 20
0.0
 30
0.0
  3
$MODEL_SPACE
  1

  0
ENDBLK
  5
21
  8
0
  0
BLOCK
 67
     1
  8
0
  2
$PAPER_SPACE
 70
     0
 10
0.0
 20
0.0
 30
0.0
  3
$PAPER_SPACE
  1

  0
ENDBLK
  5
1D
 67
     1
  8
0
  0
BLOCK
  8
0
  2
_FILLED
 70
     0
 10
0.0
 20
0.0
 30
0.0
  3
_FILLED
  1

  0
SOLID
  5
69B4
  8
0
  6
BYBLOCK
 62
     0
 10
0.0
 20
0.0
 30
0.0
 11
-1.0
 21
0.1666666667
 31
0.0
 12
-1.0
 22
-0.1666666667
 32
0.0
 13
-1.0
 23
-0.1666666667
 33
0.0
  0
ENDBLK
  5
69B5
  8
0
  6
BYBLOCK
 62
     0
  0
BLOCK
  8
0
  2
A$CDFAF6206
 70
     0
 10
0.0
 20
0.0
 30
0.0
  3
A$CDFAF6206
  1

  0
LINE
  5
6A0E
  8
0
 10
7.4646650085734834
 20
10.9287685970688493
 30
0.0
 11
7.4646650085734896
 21
10.8905784766688498
 31
0.0
  0
ARC
  5
6A0F
  8
0
 10
7.7269027075262349
 20
10.8926811525838598
 30
0.0
 40
0.2622461286616791
 50
180.4593995232625048
 51
217.0214027758331099
  0
LINE
  5
6A10
  8
0
 10
9.767814609867095
 20
10.9287685970688493
 30
0.0
 11
9.767814609867095
 21
10.8905433757650094
 31
0.0
  0
ARC
  5
6A11
  8
0
 10
9.5068669568548287
 20
10.8922438613003703
 30
0.0
 40
0.2609531936261092
 50
322.8847083717149076
 51
359.6266329125650145
  0
LINE
  5
6A12
  8
0
 10
7.517522606271406
 20
10.7347792678688396
 30
0.0
 11
9.7149570120691777
 21
10.7347792678688396
 31
0.0
  0
LINE
  5
6A13
  8
0
 10
7.4646650085734834
 20
10.9287685970688493
 30
0.0
 11
9.7678146123202936
 21
10.9287685970688493
 31
0.0
  0
ARC
  5
6A14
  8
0
 10
4.0826771419203629
 20
8.527951346868889
 30
0.0
 40
4.0826771653999172
 50
13.3117747050523896
 51
32.7200330051415591
  0
ARC
  5
6A15
  8
0
 10
4.0826771460567306
 20
8.5279513475907933
 30
0.0
 40
4.0826771612084691
 50
359.6656501984817851
 51
13.3117747085593798
  0
ARC
  5
6A16
  8
0
 10
13.1498041284835097
 20
8.5279508235212234
 30
0.0
 40
4.0826788382043553
 50
147.2799733478981068
 51
166.6882233021349862
  0
ARC
  5
6A17
  8
0
 10
13.1498064934207992
 20
8.5279506557033251
 30
0.0
 40
4.0826811782395342
 50
166.688228652086309
 51
180.3343397625230011
  0
LINE
  5
6A18
  8
0
 10
8.1652847935202928
 20
8.504127000268852
 30
0.0
 11
9.0671948248202892
 21
8.5041270002687881
 31
0.0
  0
LINE
  5
6A19
  8
0
 10
8.1652847935202786
 20
8.5041270002667204
 30
0.0
 11
8.1652847935202928
 21
8.3607006934688481
 31
0.0
  0
ARC
  5
6A1A
  8
0
 10
5.6196779630382627
 20
8.3631022096452732
 30
0.0
 40
2.545607963272567
 50
342.0511668832173768
 51
359.945947387132378
  0
LINE
  5
6A1B
  8
0
 10
9.0671948248202892
 20
8.5041270002687881
 30
0.0
 11
9.0671948248202892
 21
8.2885990108688503
 31
0.0
  0
ARC
  5
6A1C
  8
0
 10
9.4521885297801163
 20
7.9614488056228501
 30
0.0
 40
0.5052201595850959
 50
139.6436242991769916
 51
174.6757930071850069
  0
ARC
  5
6A1D
  8
0
 10
9.9238413395551746
 20
8.1492417579399508
 30
0.0
 40
0.9848265662939324
 50
188.2263441834095943
 51
209.5593615864376034
  0
ARC
  5
6A1E
  8
0
 10
8.0788764238271256
 20
7.5665710856463297
 30
0.0
 40
0.0393715937169877
 50
162.1669117288323037
 51
227.2023190037006088
  0
ARC
  5
6A1F
  8
0
 10
8.7223682141740682
 20
8.2079667397440517
 30
0.0
 40
0.947895137885075
 50
225.0018610752970858
 51
261.4598823366255829
  0
ARC
  5
6A20
  8
0
 10
8.6645157662702701
 20
8.1695128573935332
 30
0.0
 40
0.9027466462812931
 50
264.7303071214498118
 51
281.8608311947915013
  0
ARC
  5
6A21
  8
0
 10
8.6645157662698935
 20
8.1695128573999671
 30
0.0
 40
0.9027466462876658
 50
299.1741886792128753
 51
299.1743179154552195
  0
ARC
  5
6A22
  8
0
 10
9.0843330931590316
 20
7.4150554710086141
 30
0.0
 40
0.0393703053609601
 50
251.9700352025496954
 51
252.4698971938937859
  0
ARC
  5
6A23
  8
0
 10
9.0843330931590316
 20
7.4150554710086141
 30
0.0
 40
0.0393703053609601
 50
297.2453716727138726
 51
6.8376113572703074
  0
LINE
  5
6A24
  8
0
 10
9.0671948248202892
 20
7.663402160468852
 30
0.0
 11
9.1234233799329516
 21
7.419742732911689
 31
0.0
  0
ARC
  5
6A25
  8
0
 10
8.8843741880892395
 20
9.8961379890094676
 30
0.0
 40
2.5255097382132701
 50
263.792800240752797
 51
274.9514951129821156
  0
ARC
  5
6A26
  8
0
 10
8.8258167405968848
 20
9.2763025889666508
 30
0.0
 40
1.9029970832759311
 50
246.0108363320686067
 51
263.5276935074397215
  0
ARC
  5
6A27
  8
0
 10
8.607491361665744
 20
8.3225444804829642
 30
0.0
 40
1.064510137163637
 50
283.1717405874071005
 51
297.7022170607311864
  0
LINE
  5
6A28
  8
0
 10
9.0671948248202892
 20
8.2885990108688503
 30
0.0
 11
26.2014378595979593
 21
8.2885990108689942
 31
0.0
  0
LINE
  5
6A29
  8
0
 10
26.2014378595979913
 20
7.6634021604689053
 30
0.0
 11
9.0671948248202892
 21
7.6634021604688618
 31
0.0
  0
LINE
  5
6A2A
  8
0
 10
27.8039676758446994
 20
10.9287685970690802
 30
0.0
 11
27.8039676758446888
 21
10.8905784766690807
 31
0.0
  0
ARC
  5
6A2B
  8
0
 10
27.5417299768919399
 20
10.8926811525840801
 30
0.0
 40
0.2622461286616791
 50
322.9785972241680838
 51
359.5406004767386889
  0
LINE
  5
6A2C
  8
0
 10
25.5008180745510913
 20
10.9287685970690305
 30
0.0
 11
25.5008180745510913
 21
10.8905433757651799
 31
0.0
  0
ARC
  5
6A2D
  8
0
 10
25.7617657275633505
 20
10.8922438613005497
 30
0.0
 40
0.2609531936261092
 50
180.3733670874362929
 51
217.1152916282862861
  0
LINE
  5
6A2E
  8
0
 10
27.7511100781467803
 20
10.7347792678690706
 30
0.0
 11
25.5536756723490015
 21
10.7347792678690208
 31
0.0
  0
LINE
  5
6A2F
  8
0
 10
27.8039676758446888
 20
10.9287685970686006
 30
0.0
 11
25.5008180745510806
 21
10.9287685970686006
 31
0.0
  0
ARC
  5
6A30
  8
0
 10
31.1859555424978616
 20
8.5279513468691981
 30
0.0
 40
4.0826771653999172
 50
147.2799669948597057
 51
166.6882252949490066
  0
ARC
  5
6A31
  8
0
 10
31.185955538361501
 20
8.5279513475911024
 30
0.0
 40
4.0826771612084691
 50
166.6882252914419098
 51
180.3343498015194086
  0
ARC
  5
6A32
  8
0
 10
22.1188285559344706
 20
8.5279508235212251
 30
0.0
 40
4.0826788382046102
 50
13.3117766978667795
 51
32.7200266521023977
  0
ARC
  5
6A33
  8
0
 10
22.1188261909974315
 20
8.5279506557034264
 30
0.0
 40
4.0826811782395342
 50
359.665660237478221
 51
13.31177134791497
  0
LINE
  5
6A34
  8
0
 10
27.1033478908979397
 20
8.5041270002690652
 30
0.0
 11
26.2014378595979416
 21
8.5041270002689835
 31
0.0
  0
LINE
  5
6A35
  8
0
 10
27.1033478908979504
 20
8.5041270002669354
 30
0.0
 11
27.1033478908979397
 21
8.3607006934690649
 31
0.0
  0
ARC
  5
6A36
  8
0
 10
29.6489547213799689
 20
8.3631022096455467
 30
0.0
 40
2.545607963272567
 50
180.0540526128687873
 51
197.9488331167837032
  0
LINE
  5
6A37
  8
0
 10
26.2014378595979416
 20
8.5041270002689835
 30
0.0
 11
26.2014378595979487
 21
8.2885990108690457
 31
0.0
  0
ARC
  5
6A38
  8
0
 10
25.8164441546381305
 20
7.9614488056230366
 30
0.0
 40
0.5052201595850959
 50
5.324206992816312
 51
40.3563757008241879
  0
ARC
  5
6A39
  8
0
 10
25.3447913448601803
 20
8.149241757940846
 30
0.0
 40
0.9848265662968968
 50
330.4406384136033807
 51
351.7736558165743759
  0
ARC
  5
6A3A
  8
0
 10
27.1897562605911212
 20
7.5665710856465473
 30
0.0
 40
0.0393715937169877
 50
312.7976809963004143
 51
17.8330882711689185
  0
ARC
  5
6A3B
  8
0
 10
26.5462644702441715
 20
8.2079667397442542
 30
0.0
 40
0.947895137885075
 50
278.5401176633754972
 51
314.9981389247041079
  0
ARC
  5
6A3C
  8
0
 10
26.6041169181479695
 20
8.1695128573937392
 30
0.0
 40
0.9027466462812931
 50
258.139168805210204
 51
275.2696928785518935
  0
ARC
  5
6A3D
  8
0
 10
26.6041169181483497
 20
8.1695128574001732
 30
0.0
 40
0.9027466462876658
 50
240.8256820845460027
 51
240.8258113207880058
  0
ARC
  5
6A3E
  8
0
 10
26.1842995912592293
 20
7.4150554710088086
 30
0.0
 40
0.0393703053609601
 50
287.5301028061073794
 51
288.0299647974517825
  0
ARC
  5
6A3F
  8
0
 10
26.1842995912592293
 20
7.4150554710088086
 30
0.0
 40
0.0393703053609601
 50
173.1623886427310026
 51
242.7546283272870085
  0
LINE
  5
6A40
  8
0
 10
26.2014378595981192
 20
7.6634021604690448
 30
0.0
 11
26.1452093044853093
 21
7.4197427329118826
 31
0.0
  0
ARC
  5
6A41
  8
0
 10
26.384258496328961
 20
9.8961379890096666
 30
0.0
 40
2.5255097382132701
 50
265.0485048870193054
 51
276.2071997592482262
  0
ARC
  5
6A42
  8
0
 10
26.4428159438213299
 20
9.2763025889668516
 30
0.0
 40
1.9029970832759311
 50
276.4723064925619838
 51
293.9891636679327007
  0
ARC
  5
6A43
  8
0
 10
26.6611413227524885
 20
8.3225444804831703
 30
0.0
 40
1.064510137163637
 50
242.2977829392704052
 51
256.8282594125943774
  0
LINE
  5
6A44
  8
0
 62
     4
 10
17.9031473532159602
 20
10.9287685970686006
 30
0.0
 11
24.6329820359843588
 21
20.0952817181593808
 31
0.0
  0
LINE
  5
6A45
  8
0
 62
     4
 10
17.9031473532159602
 20
-0.0000000300842942
 30
0.0
 11
22.3963351323106608
 21
4.993614497796286
 31
0.0
  0
ENDBLK
  5
6A49
  8
0
  0
ENDSEC
  0
SECTION
  2
ENTITIES
  0
ATTDEF
  5
3930
  8
DEFPOINTS
 10
3955.9025221636188689
 20
47.4302266069794527
 30
0.0
 40
0.001
  1
K-23497IN-4
  3

  2
MODELNUMBER
 70
     0
1001
ACDBATTR
1070
     0
1070
     1
  0
ATTDEF
  5
3931
  8
DEFPOINTS
 10
3955.9025221636188689
 20
47.4285599403127875
 30
0.0
 40
0.001
  1
PARALLEL
  3

  2
TRADENAME
 70
     0
1001
ACDBATTR
1070
     0
1070
     1
  0
ATTDEF
  5
3932
  8
DEFPOINTS
 10
3955.9025221636188689
 20
47.4268932736461295
 30
0.0
 40
0.001
  1
VALVE TRIM
  3

  2
PRODUCT
 70
     0
1001
ACDBATTR
1070
     0
1070
     1
  0
ARC
  5
8BDE
  8
0
 10
3953.9190337476538843
 20
50.4485858636376108
 30
0.0
 40
0.1181102362000015
 50
90.4999975302905284
 51
179.9999999999992042
  0
ARC
  5
8BDF
  8
0
 10
3954.62459934394019
 20
50.4516488325262813
 30
0.0
 40
0.1212447534147014
 50
1.475458038962139
 51
89.0240455468233165
  0
ARC
  5
8BE0
  8
0
 10
3954.8245817398251347
 20
50.4128191232050824
 30
0.0
 40
0.0788311996250581
 50
182.1377090511190886
 51
270.4731245477966013
  0
ARC
  5
8BE1
  8
0
 10
3955.2398999271449611
 20
50.3277664629155126
 30
0.0
 40
0.0098425197220381
 50
359.9970505007361226
 51
90.4999999607510546
  0
ARC
  5
8BE2
  8
0
 10
3953.8402935901540332
 20
48.3814928877376076
 30
0.0
 40
0.0393700786999993
 50
179.9999999999974989
 51
269.4999999845049956
  0
ARC
  5
8BE3
  8
0
 10
3955.2390172557597907
 20
48.3406403754905796
 30
0.0
 40
0.0107620419107715
 50
274.2458445683483887
 51
355.2571668066327106
  0
ARC
  5
8BE4
  8
0
 10
3955.41891567515313
 20
50.1802149368376078
 30
0.0
 40
0.0196850394000032
 50
90.0
 51
179.9999999999897966
  0
LINE
  5
8BE5
  8
0
 10
3953.8009235114541298
 20
50.4485858636376108
 30
0.0
 11
3953.8009235114541298
 21
48.3814928877376076
 31
0.0
  0
LINE
  5
8BE6
  8
0
 10
3953.9180030595748576
 20
50.5666916026061486
 30
0.0
 11
3954.6266644809538775
 21
50.5728759971376078
 31
0.0
  0
LINE
  5
8BE7
  8
0
 10
3954.7458038981540085
 20
50.4547707339376217
 30
0.0
 11
3954.7458054019539304
 21
50.4098786086376123
 31
0.0
  0
LINE
  5
8BE8
  8
0
 10
3954.8252326874539904
 20
50.3339906112217221
 30
0.0
 11
3955.2398140360528487
 21
50.3376086078646026
 31
0.0
  0
LINE
  5
8BE9
  8
0
 10
3953.8399500257642103
 20
48.34212430812957
 30
0.0
 11
3955.2398140360528487
 21
48.329907869387533
 31
0.0
  0
LINE
  5
8BEA
  8
0
 10
3955.2497424468538156
 20
48.3397505316376126
 30
0.0
 11
3955.2497424468538156
 21
50.3277659562376201
 31
0.0
  0
LINE
  5
8BEB
  8
0
 10
3955.2497424468538156
 20
49.6314704754376166
 30
0.0
 11
3953.8009235114541298
 21
49.6294443461376176
 31
0.0
  0
LINE
  5
8BEC
  8
0
 10
3953.8009235114541298
 20
49.0380721459376119
 30
0.0
 11
3955.2497424468538156
 21
49.0360460130376126
 31
0.0
  0
LINE
  5
8BED
  8
0
 10
3955.2497424468538156
 20
49.9321766292376097
 30
0.0
 11
3955.3204904783528946
 21
49.9321766292376097
 31
0.0
  0
LINE
  5
8BEE
  8
0
 10
3955.3204904783528946
 20
49.9321766292376097
 30
0.0
 11
3955.3204904783528946
 21
49.3632926145376132
 31
0.0
  0
LINE
  5
8BEF
  8
0
 10
3955.3204904783528946
 20
49.3632926145376132
 30
0.0
 11
3955.2497424468538156
 21
49.3632926145376132
 31
0.0
  0
LINE
  5
8BF0
  8
0
 10
3955.2497424468538156
 20
49.3042238733376124
 30
0.0
 11
3955.3204904783528946
 21
49.3042238733376124
 31
0.0
  0
LINE
  5
8BF1
  8
0
 10
3955.3204904783528946
 20
49.3042238733376124
 30
0.0
 11
3955.3204904783528946
 21
48.735339858637623
 31
0.0
  0
LINE
  5
8BF2
  8
0
 10
3955.3204904783528946
 20
48.735339858637623
 30
0.0
 11
3955.2497424468538156
 21
48.735339858637623
 31
0.0
  0
LINE
  5
8BF3
  8
0
 10
3955.2497424468538156
 20
48.7058054880376119
 30
0.0
 11
3955.3204904783528946
 21
48.7058054880376119
 31
0.0
  0
LINE
  5
8BF4
  8
0
 10
3955.3204904783528946
 20
48.7058054880376119
 30
0.0
 11
3955.3204904783528946
 21
48.6250968266376233
 31
0.0
  0
LINE
  5
8BF5
  8
0
 10
3955.3204904783528946
 20
48.6250968266376233
 30
0.0
 11
3955.39923063585411
 21
48.6250968266376233
 31
0.0
  0
LINE
  5
8BF6
  8
0
 10
3955.3992306357540656
 20
48.4873015510376177
 30
0.0
 11
3955.39923063585411
 21
50.1802149368376078
 31
0.0
  0
LINE
  5
8BF7
  8
0
 10
3955.2497424468538156
 20
49.9617109998376208
 30
0.0
 11
3955.3204904783528946
 21
49.9617109998376208
 31
0.0
  0
LINE
  5
8BF8
  8
0
 10
3955.3204904783528946
 20
49.9617109998376208
 30
0.0
 11
3955.3204904783528946
 21
50.0424196612376093
 31
0.0
  0
LINE
  5
8BF9
  8
0
 10
3955.3204904783528946
 20
50.0424196612376093
 30
0.0
 11
3955.3992306358450151
 21
50.0424196612376093
 31
0.0
  0
LINE
  5
8BFA
  8
0
 10
3955.7643093759538715
 20
43.3337582439376092
 30
0.0
 11
3955.7643093760530064
 21
51.5227346218367828
 31
0.0
  0
LINE
  5
8BFB
  8
0
 10
3955.41891567515313
 20
50.1998999762376172
 30
0.0
 11
3955.7643093760370903
 21
50.1998999762376172
 31
0.0
  0
LINE
  5
8BFC
  8
0
 10
3955.41891567515313
 20
48.4676165116376083
 30
0.0
 11
3955.7643093760161719
 21
48.4676165116334019
 31
0.0
  0
ARC
  5
8BFD
  8
0
 10
3955.4189156750830989
 20
48.4873015508669027
 30
0.0
 40
0.0196850392292927
 50
179.9999995031307947
 51
270.0000002051057777
  0
ARC
  5
8BFE
  8
0
 10
3955.8036794549948354
 20
51.522734621596193
 30
0.0
 40
0.0393700790414311
 50
90.0000003513530942
 51
179.9999996486513965
  0
ARC
  5
8BFF
  8
0
 10
3955.8824196123241563
 20
51.5424196614083314
 30
0.0
 40
0.0196850392292909
 50
359.9999995031124058
 51
90.0000002058092718
  0
ARC
  5
8C00
  8
0
 10
3955.8036794704698877
 20
43.3337582505889927
 30
0.0
 40
0.0393700945164183
 50
180.0000096798285085
 51
269.9999771277094283
  0
ARC
  5
8C01
  8
0
 10
3955.882419596849104
 20
43.3140732107768613
 30
0.0
 40
0.0196850547042931
 50
270.0000448360918881
 51
359.9999818399060132
  0
LINE
  5
8C02
  8
0
 10
3955.8036794547529098
 20
43.2943881560725572
 30
0.0
 11
3955.8824196122541252
 21
43.2943881560725572
 31
0.0
  0
LINE
  5
8C03
  8
0
 10
3955.9021046515540547
 20
43.314073204366899
 30
0.0
 11
3955.9021046516540991
 21
51.5424196612376235
 31
0.0
  0
LINE
  5
8C04
  8
0
 10
3955.8036794547529098
 20
51.5621047006376116
 30
0.0
 11
3955.8824196122541252
 21
51.5621047006376116
 31
0.0
  0
LINE
  5
8C05
  8
0
 10
3955.7643093759929798
 20
46.5680102124376134
 30
0.0
 11
3955.350923549253821
 21
46.5680020813376103
 31
0.0
  0
LINE
  5
8C06
  8
0
 10
3955.350923549253821
 20
46.5680020813376103
 30
0.0
 11
3955.350923549253821
 21
44.6191913148376074
 31
0.0
  0
LINE
  5
8C07
  8
0
 10
3955.350923549253821
 20
44.6191913148376074
 30
0.0
 11
3955.7643093759697877
 21
44.6191913148325625
 31
0.0
  0
LINE
  5
8C08
  8
0
 10
3955.0635219744540336
 20
45.5912051944376131
 30
0.0
 11
3955.0635226446311208
 21
44.6410928454469271
 31
0.0
  0
LINE
  5
8C09
  8
0
 10
3955.0635219744540336
 20
44.7773377020376131
 30
0.0
 11
3955.2215383742282029
 21
44.7349973354329293
 31
0.0
  0
LINE
  5
8C0A
  8
0
 10
3954.7259844112709288
 20
46.3194209076423533
 30
0.0
 11
3955.2215383702528015
 21
46.4522041908376124
 31
0.0
  0
LINE
  5
8C0B
  8
0
 10
3955.3429517887539077
 20
46.538482653337617
 30
0.0
 11
3955.350923549253821
 21
46.538482653337617
 31
0.0
  0
LINE
  5
8C0C
  8
0
 10
3955.3429517887539077
 20
44.6487188738376091
 30
0.0
 11
3955.350923549253821
 21
44.6487188738376091
 31
0.0
  0
LINE
  5
8C0D
  8
0
 10
3954.1793272104541757
 20
44.6186435851376118
 30
0.0
 11
3954.3745455964940447
 21
44.6170233490372823
 31
0.0
  0
LINE
  5
8C0E
  8
0
 10
3954.3745455964940447
 20
44.6170233490372823
 30
0.0
 11
3954.4037857628400161
 21
44.6201287932961179
 31
0.0
  0
LINE
  5
8C0F
  8
0
 10
3954.4037857628400161
 20
44.6201287932961179
 30
0.0
 11
3954.5808960854537872
 21
44.6201361966376098
 31
0.0
  0
LINE
  5
8C10
  8
0
 10
3954.5808960854537872
 20
44.6201361966376098
 30
0.0
 11
3954.6265141003527788
 21
44.6149365650376097
 31
0.0
  0
LINE
  5
8C11
  8
0
 10
3954.6265141003527788
 20
44.6149365650376097
 30
0.0
 11
3955.0337505366528603
 21
44.6115638638376169
 31
0.0
  0
LINE
  5
8C12
  8
0
 10
3953.8426300770529451
 20
46.5709897418376073
 30
0.0
 11
3954.6402937336538344
 21
46.5876952518376086
 31
0.0
  0
LINE
  5
8C13
  8
0
 10
3953.8036793926539758
 20
46.5316218623376088
 30
0.0
 11
3953.8036794547538193
 21
41.8565897207376167
 31
0.0
  0
LINE
  5
8C14
  8
0
 10
3953.9808448091539503
 20
41.8362766830376174
 30
0.0
 11
3953.9808448090529964
 21
44.841156283737611
 31
0.0
  0
ARC
  5
8C15
  8
0
 10
3954.1777008526551072
 20
44.4217942597493121
 30
0.0
 40
0.1968560437109241
 50
89.5266363372699487
 51
179.9979747187634018
  0
ARC
  5
8C16
  8
0
 10
3953.8430494718541013
 20
46.5316218965375796
 30
0.0
 40
0.0393700792000284
 50
90.610362183712823
 51
180.0000497716592918
  0
ARC
  5
8C17
  8
0
 10
3953.8430495335128398
 20
41.8565897207603328
 30
0.0
 40
0.0393700787588145
 50
180.0000007941497984
 51
264.4999998998220008
  0
ARC
  5
8C18
  8
0
 10
3953.9513172460351598
 20
41.8362766846208274
 30
0.0
 40
0.0295275631186123
 50
270.0000077977715023
 51
359.9999969278920275
  0
LINE
  5
8C19
  8
0
 10
3953.8392760786750841
 20
41.8174008940355932
 30
0.0
 11
3953.9513172500542169
 21
41.8067491215022216
 31
0.0
  0
ARC
  5
8C1A
  8
0
 10
3954.6281847305767769
 20
46.5477997656979596
 30
0.0
 40
0.0416926584644236
 50
2.9753117140662582
 51
73.116005381239404
  0
ARC
  5
8C1B
  8
0
 10
3954.8666715807539731
 20
46.4835040123377468
 30
0.0
 40
0.1968503937004864
 50
179.999976009009913
 51
204.9998708096314033
  0
ARC
  5
8C1C
  8
0
 10
3955.0438369363168931
 20
45.5912051996176828
 30
0.0
 40
0.0196850381366438
 50
359.9999849227336881
 51
25.000011754713281
  0
LINE
  5
8C1D
  8
0
 10
3955.0616776379620205
 20
45.5995244598774718
 30
0.0
 11
3954.688264348480061
 21
46.4003118434010204
 31
0.0
  0
LINE
  5
8C1E
  8
0
 10
3954.6698211870530031
 20
46.5499638502376101
 30
0.0
 11
3954.6698211870530031
 21
46.4835040947838181
 31
0.0
  0
ARC
  5
8C1F
  8
0
 10
3955.2011589223789088
 20
46.5282613428199809
 30
0.0
 40
0.0787401566125337
 50
284.9999967829396041
 51
334.2086814834445931
  0
ARC
  5
8C20
  8
0
 10
3955.3429517885001587
 20
46.4597424961645871
 30
0.0
 40
0.0787401571730149
 50
89.999999815555924
 51
154.2086812473673092
  0
ARC
  5
8C21
  8
0
 10
3955.2011589221187933
 20
44.6589401842519607
 30
0.0
 40
0.0787401569344623
 50
25.7913185680452415
 51
75.000000089747985
  0
ARC
  5
8C22
  8
0
 10
3955.0339890187378842
 20
44.641096527081082
 30
0.0
 40
0.0295336261227184
 50
269.5373353285198732
 51
359.992857581599992
  0
ARC
  5
8C23
  8
0
 10
3955.3429517887539077
 20
44.7274590313376095
 30
0.0
 40
0.0787401574999975
 50
205.7913188206977964
 51
270.0
  0
LINE
  5
8C24
  8
0
 10
3955.2720553552580895
 20
44.6931996075154316
 30
0.0
 11
3955.2720553519538953
 21
46.4940019126871107
 31
0.0
  0
LINE
  5
8C25
  8
0
 10
3953.8036794012300561
 20
45.8859596581965477
 30
0.0
 11
3954.8949414259532205
 21
45.8869597080376082
 31
0.0
  0
LINE
  5
8C26
  8
0
 10
3954.8949414259532205
 20
45.8869597080376082
 30
0.0
 11
3954.9221647722529269
 21
45.8987107657376185
 31
0.0
  0
LINE
  5
8C27
  8
0
 10
3954.1793208782528382
 20
45.2851399908376067
 30
0.0
 11
3955.0337488845730149
 21
45.2852036058694765
 31
0.0
  0
ARC
  5
8C28
  8
0
 10
3954.6361935128848017
 20
44.8459644881695709
 30
0.0
 40
0.6553663421660393
 50
138.0010690511047926
 51
180.4203638099367879
  0
ARC
  5
8C29
  8
0
 10
3954.177942435094792
 20
44.6573227917320423
 30
0.0
 40
0.6278187123671164
 50
89.8742008844369309
 51
92.6282728551063741
  0
ARC
  5
8C2A
  8
0
 10
3955.038566904614072
 20
45.3219725636010509
 30
0.0
 40
0.0370832788434901
 50
262.534780521868413
 51
312.294869181468016
  0
ARC
  5
8C2C
  8
0
 10
3953.8397660226492007
 20
50.2708516103994398
 30
0.0
 40
0.0388431262261716
 50
89.7266088634357857
 51
179.6775741974813911
  0
LINE
  5
8C2D
  8
0
 10
3953.839951364854187
 20
50.3096942944376124
 30
0.0
 11
3954.7062160851519366
 21
50.3162093010580591
 31
0.0
  0
ARC
  5
8C2E
  8
0
 10
3954.7198282123949866
 20
50.6322992922375903
 30
0.0
 40
0.3163829523409025
 50
267.5341330770771719
 51
289.460366646961802
  0
ENDSEC
  0
EOF
