  0
SECTION
  2
HEADER
  9
$ACADVER
  1
AC1009
  9
$INSBASE
 10
3946.7440513847082002
 20
45.5616619041238806
 30
0.0
  9
$EXTMIN
 10
3932.3739400832091633
 20
38.1402514337449503
 30
0.0
  9
$EXTMAX
 10
3949.3031065217292053
 20
55.4072745855644513
 30
0.0
  9
$LIMMIN
 10
0.0
 20
0.0
  9
$LIMMAX
 10
11.6929133858000007
 20
8.2677165353999982
  9
$ORTHOMODE
 70
     0
  9
$REGENMODE
 70
     1
  9
$FILLMODE
 70
     1
  9
$QTEXTMODE
 70
     0
  9
$MIRRTEXT
 70
     0
  9
$DRAGMODE
 70
     2
  9
$LTSCALE
 40
0.6431102362
  9
$OSMODE
 70
  4095
  9
$ATTMODE
 70
     1
  9
$TEXTSIZE
 40
0.2
  9
$TRACEWID
 40
0.05
  9
$TEXTSTYLE
  7
STANDARD
  9
$CLAYER
  8
0
  9
$CELTYPE
  6
BYLAYER
  9
$CECOLOR
 62
   256
  9
$DIMSCALE
 40
1.0
  9
$DIMASZ
 40
0.1875
  9
$DIMEXO
 40
0.0625
  9
$DIMDLI
 40
0.4443307087
  9
$DIMRND
 40
0.0
  9
$DIMDLE
 40
0.0
  9
$DIMEXE
 40
0.125
  9
$DIMTP
 40
0.01
  9
$DIMTM
 40
0.01
  9
$DIMTXT
 40
2.0
  9
$DIMCEN
 40
0.1052362205
  9
$DIMTSZ
 40
0.0
  9
$DIMTOL
 70
     1
  9
$DIMLIM
 70
     0
  9
$DIMTIH
 70
     1
  9
$DIMTOH
 70
     1
  9
$DIMSE1
 70
     0
  9
$DIMSE2
 70
     0
  9
$DIMTAD
 70
     0
  9
$DIMZIN
 70
     0
  9
$DIMBLK
  1

  9
$DIMASO
 70
     1
  9
$DIMSHO
 70
     1
  9
$DIMPOST
  1
\X
  9
$DIMAPOST
  1

  9
$DIMALT
 70
     1
  9
$DIMALTD
 70
     2
  9
$DIMALTF
 40
25.3999999999999986
  9
$DIMLFAC
 40
1.0
  9
$DIMTOFL
 70
     0
  9
$DIMTVP
 40
0.0
  9
$DIMTIX
 70
     0
  9
$DIMSOXD
 70
     0
  9
$DIMSAH
 70
     0
  9
$DIMBLK1
  1

  9
$DIMBLK2
  1

  9
$DIMSTYLE
  2
STANDARD
  9
$DIMCLRD
 70
     0
  9
$DIMCLRE
 70
     0
  9
$DIMCLRT
 70
     0
  9
$DIMTFAC
 40
1.0
  9
$DIMGAP
 40
0.09
  9
$LUNITS
 70
     2
  9
$LUPREC
 70
     4
  9
$SKETCHINC
 40
0.1
  9
$FILLETRAD
 40
0.0
  9
$AUNITS
 70
     0
  9
$AUPREC
 70
     0
  9
$MENU
  1
.
  9
$ELEVATION
 40
0.0
  9
$PELEVATION
 40
0.0
  9
$THICKNESS
 40
0.0
  9
$LIMCHECK
 70
     0
  9
$BLIPMODE
 70
     0
  9
$CHAMFERA
 40
0.0
  9
$CHAMFERB
 40
0.0
  9
$SKPOLY
 70
     0
  9
$TDCREATE
 40
2458060.468368056230247
  9
$TDUPDATE
 40
2459091.5342245372012258
  9
$TDINDWG
 40
0.4182478009
  9
$TDUSRTIMER
 40
0.4182478009
  9
$USRTIMER
 70
     1
  9
$ANGBASE
 50
0.0
  9
$ANGDIR
 70
     0
  9
$PDMODE
 70
     0
  9
$PDSIZE
 40
0.3125
  9
$PLINEWID
 40
0.0
  9
$COORDS
 70
     1
  9
$SPLFRAME
 70
     0
  9
$SPLINETYPE
 70
     6
  9
$SPLINESEGS
 70
     8
  9
$ATTDIA
 70
     1
  9
$ATTREQ
 70
     1
  9
$HANDLING
 70
     1
  9
$HANDSEED
  5
8B8C
  9
$SURFTAB1
 70
     6
  9
$SURFTAB2
 70
     6
  9
$SURFTYPE
 70
     6
  9
$SURFU
 70
     6
  9
$SURFV
 70
     6
  9
$UCSNAME
  2

  9
$UCSORG
 10
0.0
 20
0.0
 30
0.0
  9
$UCSXDIR
 10
1.0
 20
0.0
 30
0.0
  9
$UCSYDIR
 10
0.0
 20
1.0
 30
0.0
  9
$PUCSNAME
  2

  9
$PUCSORG
 10
0.0
 20
0.0
 30
0.0
  9
$PUCSXDIR
 10
1.0
 20
0.0
 30
0.0
  9
$PUCSYDIR
 10
0.0
 20
1.0
 30
0.0
  9
$USERI1
 70
     0
  9
$USERI2
 70
     0
  9
$USERI3
 70
     0
  9
$USERI4
 70
     0
  9
$USERI5
 70
     0
  9
$USERR1
 40
0.0
  9
$USERR2
 40
0.0
  9
$USERR3
 40
0.0
  9
$USERR4
 40
0.0
  9
$USERR5
 40
0.0
  9
$WORLDVIEW
 70
     1
  9
$SHADEDGE
 70
     3
  9
$SHADEDIF
 70
    70
  9
$TILEMODE
 70
     1
  9
$MAXACTVP
 70
    64
  9
$PLIMCHECK
 70
     0
  9
$PEXTMIN
 10
1.0000000000000000E+20
 20
1.0000000000000000E+20
 30
1.0000000000000000E+20
  9
$PEXTMAX
 10
-1.0000000000000000E+20
 20
-1.0000000000000000E+20
 30
-1.0000000000000000E+20
  9
$PLIMMIN
 10
0.0
 20
0.0
  9
$PLIMMAX
 10
12.0
 20
9.0
  9
$UNITMODE
 70
     0
  9
$VISRETAIN
 70
     1
  9
$PLINEGEN
 70
     0
  9
$PSLTSCALE
 70
     1
  0
ENDSEC
  0
SECTION
  2
TABLES
  0
TABLE
  2
VPORT
 70
     1
  0
VPORT
  2
*ACTIVE
 70
     0
 10
0.0
 20
0.0
 11
1.0
 21
1.0
 12
182.0289391239682004
 22
-75.3852460995079241
 13
0.0
 23
0.0
 14
1.0
 24
1.0
 15
0.0
 25
0.0
 16
0.0
 26
0.0
 36
5.1040778033513332
 17
3792.35791015625
 27
120.1806564331053977
 37
0.0
 40
69.2224738693542037
 41
2.5847619047619039
 42
50.0
 43
0.0
 44
0.0
 50
0.0
 51
0.0
 71
     0
 72
   100
 73
     1
 74
     1
 75
     0
 76
     0
 77
     0
 78
     0
  0
ENDTAB
  0
TABLE
  2
LTYPE
 70
     2
  0
LTYPE
  2
CONTINUOUS
 70
     0
  3
Solid line
 72
    65
 73
     0
 40
0.0
  0
LTYPE
  2
PHANTOM2
 70
     0
  3
___ _ _ ___ _ _ ___ _ _ ___ _ _
 72
    65
 73
     6
 40
1.25
 49
0.625
 49
-0.125
 49
0.125
 49
-0.125
 49
0.125
 49
-0.125
  0
ENDTAB
  0
TABLE
  2
LAYER
 70
     2
  0
LAYER
  2
0
 70
     0
 62
   255
  6
CONTINUOUS
  0
LAYER
  2
DEFPOINTS
 70
     0
 62
     7
  6
CONTINUOUS
  0
ENDTAB
  0
TABLE
  2
STYLE
 70
     1
  0
STYLE
  2
STANDARD
 70
     0
 40
0.0
 41
0.8
 50
0.0
 71
     0
 42
0.2
  3
txt
  4

  0
ENDTAB
  0
TABLE
  2
VIEW
 70
     0
  0
ENDTAB
  0
TABLE
  2
UCS
 70
     0
  0
ENDTAB
  0
TABLE
  2
APPID
 70
     9
  0
APPID
  2
ACAD
 70
     0
  0
APPID
  2
ACAD_MLEADERVER
 70
     0
  0
APPID
  2
ACAD_EXEMPT_FROM_CAD_STANDARDS
 70
     0
  0
APPID
  2
ACAD_NAV_VCDISPLAY
 70
     0
  0
APPID
  2
ACAECLAYERSTANDARD
 70
     0
  0
APPID
  2
ACCMTRANSPARENCY
 70
     0
  0
APPID
  2
ACAD_DSTYLE_DIMJAG
 70
     0
  0
APPID
  2
ACAD_DSTYLE_DIMTALN
 70
     0
  0
APPID
  2
ACDBATTR
 70
     0
  0
ENDTAB
  0
TABLE
  2
DIMSTYLE
 70
     1
  0
DIMSTYLE
  2
STANDARD
 70
     0
  3

  4

  5

  6

  7

 40
1.0
 41
0.1875
 42
0.0625
 43
0.38
 44
0.125
 45
0.0
 46
0.0
 47
0.01
 48
0.01
140
0.15625
141
0.09
142
0.0
143
25.3999999999999986
144
1.0
145
0.0
146
1.0
147
0.09
 71
     1
 72
     0
 73
     1
 74
     1
 75
     0
 76
     0
 77
     0
 78
     4
170
     0
171
     2
172
     0
173
     0
174
     0
175
     0
176
     0
177
     0
178
     0
  0
ENDTAB
  0
ENDSEC
  0
SECTION
  2
BLOCKS
  0
BLOCK
  8
0
  2
$MODEL_SPACE
 70
     0
 10
0.0
 20
0.0
 30
0.0
  3
$MODEL_SPACE
  1

  0
ENDBLK
  5
21
  8
0
  0
BLOCK
 67
     1
  8
0
  2
$PAPER_SPACE
 70
     0
 10
0.0
 20
0.0
 30
0.0
  3
$PAPER_SPACE
  1

  0
ENDBLK
  5
1D
 67
     1
  8
0
  0
BLOCK
  8
0
  2
_FILLED
 70
     0
 10
0.0
 20
0.0
 30
0.0
  3
_FILLED
  1

  0
SOLID
  5
69B4
  8
0
  6
BYBLOCK
 62
     0
 10
0.0
 20
0.0
 30
0.0
 11
-1.0
 21
0.1666666667
 31
0.0
 12
-1.0
 22
-0.1666666667
 32
0.0
 13
-1.0
 23
-0.1666666667
 33
0.0
  0
ENDBLK
  5
69B5
  8
0
  6
BYBLOCK
 62
     0
  0
BLOCK
  8
0
  2
A$CDFAF6206
 70
     0
 10
0.0
 20
0.0
 30
0.0
  3
A$CDFAF6206
  1

  0
LINE
  5
6A0E
  8
0
 10
7.4646650085734834
 20
10.9287685970688493
 30
0.0
 11
7.4646650085734896
 21
10.8905784766688498
 31
0.0
  0
ARC
  5
6A0F
  8
0
 10
7.7269027075262349
 20
10.8926811525838598
 30
0.0
 40
0.2622461286616791
 50
180.4593995232625048
 51
217.0214027758331099
  0
LINE
  5
6A10
  8
0
 10
9.767814609867095
 20
10.9287685970688493
 30
0.0
 11
9.767814609867095
 21
10.8905433757650094
 31
0.0
  0
ARC
  5
6A11
  8
0
 10
9.5068669568548287
 20
10.8922438613003703
 30
0.0
 40
0.2609531936261092
 50
322.8847083717149076
 51
359.6266329125650145
  0
LINE
  5
6A12
  8
0
 10
7.517522606271406
 20
10.7347792678688396
 30
0.0
 11
9.7149570120691777
 21
10.7347792678688396
 31
0.0
  0
LINE
  5
6A13
  8
0
 10
7.4646650085734834
 20
10.9287685970688493
 30
0.0
 11
9.7678146123202936
 21
10.9287685970688493
 31
0.0
  0
ARC
  5
6A14
  8
0
 10
4.0826771419203629
 20
8.527951346868889
 30
0.0
 40
4.0826771653999172
 50
13.3117747050523896
 51
32.7200330051415591
  0
ARC
  5
6A15
  8
0
 10
4.0826771460567306
 20
8.5279513475907933
 30
0.0
 40
4.0826771612084691
 50
359.6656501984817851
 51
13.3117747085593798
  0
ARC
  5
6A16
  8
0
 10
13.1498041284835097
 20
8.5279508235212234
 30
0.0
 40
4.0826788382043553
 50
147.2799733478981068
 51
166.6882233021349862
  0
ARC
  5
6A17
  8
0
 10
13.1498064934207992
 20
8.5279506557033251
 30
0.0
 40
4.0826811782395342
 50
166.688228652086309
 51
180.3343397625230011
  0
LINE
  5
6A18
  8
0
 10
8.1652847935202928
 20
8.504127000268852
 30
0.0
 11
9.0671948248202892
 21
8.5041270002687881
 31
0.0
  0
LINE
  5
6A19
  8
0
 10
8.1652847935202786
 20
8.5041270002667204
 30
0.0
 11
8.1652847935202928
 21
8.3607006934688481
 31
0.0
  0
ARC
  5
6A1A
  8
0
 10
5.6196779630382627
 20
8.3631022096452732
 30
0.0
 40
2.545607963272567
 50
342.0511668832173768
 51
359.945947387132378
  0
LINE
  5
6A1B
  8
0
 10
9.0671948248202892
 20
8.5041270002687881
 30
0.0
 11
9.0671948248202892
 21
8.2885990108688503
 31
0.0
  0
ARC
  5
6A1C
  8
0
 10
9.4521885297801163
 20
7.9614488056228501
 30
0.0
 40
0.5052201595850959
 50
139.6436242991769916
 51
174.6757930071850069
  0
ARC
  5
6A1D
  8
0
 10
9.9238413395551746
 20
8.1492417579399508
 30
0.0
 40
0.9848265662939324
 50
188.2263441834095943
 51
209.5593615864376034
  0
ARC
  5
6A1E
  8
0
 10
8.0788764238271256
 20
7.5665710856463297
 30
0.0
 40
0.0393715937169877
 50
162.1669117288323037
 51
227.2023190037006088
  0
ARC
  5
6A1F
  8
0
 10
8.7223682141740682
 20
8.2079667397440517
 30
0.0
 40
0.947895137885075
 50
225.0018610752970858
 51
261.4598823366255829
  0
ARC
  5
6A20
  8
0
 10
8.6645157662702701
 20
8.1695128573935332
 30
0.0
 40
0.9027466462812931
 50
264.7303071214498118
 51
281.8608311947915013
  0
ARC
  5
6A21
  8
0
 10
8.6645157662698935
 20
8.1695128573999671
 30
0.0
 40
0.9027466462876658
 50
299.1741886792128753
 51
299.1743179154552195
  0
ARC
  5
6A22
  8
0
 10
9.0843330931590316
 20
7.4150554710086141
 30
0.0
 40
0.0393703053609601
 50
251.9700352025496954
 51
252.4698971938937859
  0
ARC
  5
6A23
  8
0
 10
9.0843330931590316
 20
7.4150554710086141
 30
0.0
 40
0.0393703053609601
 50
297.2453716727138726
 51
6.8376113572703074
  0
LINE
  5
6A24
  8
0
 10
9.0671948248202892
 20
7.663402160468852
 30
0.0
 11
9.1234233799329516
 21
7.419742732911689
 31
0.0
  0
ARC
  5
6A25
  8
0
 10
8.8843741880892395
 20
9.8961379890094676
 30
0.0
 40
2.5255097382132701
 50
263.792800240752797
 51
274.9514951129821156
  0
ARC
  5
6A26
  8
0
 10
8.8258167405968848
 20
9.2763025889666508
 30
0.0
 40
1.9029970832759311
 50
246.0108363320686067
 51
263.5276935074397215
  0
ARC
  5
6A27
  8
0
 10
8.607491361665744
 20
8.3225444804829642
 30
0.0
 40
1.064510137163637
 50
283.1717405874071005
 51
297.7022170607311864
  0
LINE
  5
6A28
  8
0
 10
9.0671948248202892
 20
8.2885990108688503
 30
0.0
 11
26.2014378595979593
 21
8.2885990108689942
 31
0.0
  0
LINE
  5
6A29
  8
0
 10
26.2014378595979913
 20
7.6634021604689053
 30
0.0
 11
9.0671948248202892
 21
7.6634021604688618
 31
0.0
  0
LINE
  5
6A2A
  8
0
 10
27.8039676758446994
 20
10.9287685970690802
 30
0.0
 11
27.8039676758446888
 21
10.8905784766690807
 31
0.0
  0
ARC
  5
6A2B
  8
0
 10
27.5417299768919399
 20
10.8926811525840801
 30
0.0
 40
0.2622461286616791
 50
322.9785972241680838
 51
359.5406004767386889
  0
LINE
  5
6A2C
  8
0
 10
25.5008180745510913
 20
10.9287685970690305
 30
0.0
 11
25.5008180745510913
 21
10.8905433757651799
 31
0.0
  0
ARC
  5
6A2D
  8
0
 10
25.7617657275633505
 20
10.8922438613005497
 30
0.0
 40
0.2609531936261092
 50
180.3733670874362929
 51
217.1152916282862861
  0
LINE
  5
6A2E
  8
0
 10
27.7511100781467803
 20
10.7347792678690706
 30
0.0
 11
25.5536756723490015
 21
10.7347792678690208
 31
0.0
  0
LINE
  5
6A2F
  8
0
 10
27.8039676758446888
 20
10.9287685970686006
 30
0.0
 11
25.5008180745510806
 21
10.9287685970686006
 31
0.0
  0
ARC
  5
6A30
  8
0
 10
31.1859555424978616
 20
8.5279513468691981
 30
0.0
 40
4.0826771653999172
 50
147.2799669948597057
 51
166.6882252949490066
  0
ARC
  5
6A31
  8
0
 10
31.185955538361501
 20
8.5279513475911024
 30
0.0
 40
4.0826771612084691
 50
166.6882252914419098
 51
180.3343498015194086
  0
ARC
  5
6A32
  8
0
 10
22.1188285559344706
 20
8.5279508235212251
 30
0.0
 40
4.0826788382046102
 50
13.3117766978667795
 51
32.7200266521023977
  0
ARC
  5
6A33
  8
0
 10
22.1188261909974315
 20
8.5279506557034264
 30
0.0
 40
4.0826811782395342
 50
359.665660237478221
 51
13.31177134791497
  0
LINE
  5
6A34
  8
0
 10
27.1033478908979397
 20
8.5041270002690652
 30
0.0
 11
26.2014378595979416
 21
8.5041270002689835
 31
0.0
  0
LINE
  5
6A35
  8
0
 10
27.1033478908979504
 20
8.5041270002669354
 30
0.0
 11
27.1033478908979397
 21
8.3607006934690649
 31
0.0
  0
ARC
  5
6A36
  8
0
 10
29.6489547213799689
 20
8.3631022096455467
 30
0.0
 40
2.545607963272567
 50
180.0540526128687873
 51
197.9488331167837032
  0
LINE
  5
6A37
  8
0
 10
26.2014378595979416
 20
8.5041270002689835
 30
0.0
 11
26.2014378595979487
 21
8.2885990108690457
 31
0.0
  0
ARC
  5
6A38
  8
0
 10
25.8164441546381305
 20
7.9614488056230366
 30
0.0
 40
0.5052201595850959
 50
5.324206992816312
 51
40.3563757008241879
  0
ARC
  5
6A39
  8
0
 10
25.3447913448601803
 20
8.149241757940846
 30
0.0
 40
0.9848265662968968
 50
330.4406384136033807
 51
351.7736558165743759
  0
ARC
  5
6A3A
  8
0
 10
27.1897562605911212
 20
7.5665710856465473
 30
0.0
 40
0.0393715937169877
 50
312.7976809963004143
 51
17.8330882711689185
  0
ARC
  5
6A3B
  8
0
 10
26.5462644702441715
 20
8.2079667397442542
 30
0.0
 40
0.947895137885075
 50
278.5401176633754972
 51
314.9981389247041079
  0
ARC
  5
6A3C
  8
0
 10
26.6041169181479695
 20
8.1695128573937392
 30
0.0
 40
0.9027466462812931
 50
258.139168805210204
 51
275.2696928785518935
  0
ARC
  5
6A3D
  8
0
 10
26.6041169181483497
 20
8.1695128574001732
 30
0.0
 40
0.9027466462876658
 50
240.8256820845460027
 51
240.8258113207880058
  0
ARC
  5
6A3E
  8
0
 10
26.1842995912592293
 20
7.4150554710088086
 30
0.0
 40
0.0393703053609601
 50
287.5301028061073794
 51
288.0299647974517825
  0
ARC
  5
6A3F
  8
0
 10
26.1842995912592293
 20
7.4150554710088086
 30
0.0
 40
0.0393703053609601
 50
173.1623886427310026
 51
242.7546283272870085
  0
LINE
  5
6A40
  8
0
 10
26.2014378595981192
 20
7.6634021604690448
 30
0.0
 11
26.1452093044853093
 21
7.4197427329118826
 31
0.0
  0
ARC
  5
6A41
  8
0
 10
26.384258496328961
 20
9.8961379890096666
 30
0.0
 40
2.5255097382132701
 50
265.0485048870193054
 51
276.2071997592482262
  0
ARC
  5
6A42
  8
0
 10
26.4428159438213299
 20
9.2763025889668516
 30
0.0
 40
1.9029970832759311
 50
276.4723064925619838
 51
293.9891636679327007
  0
ARC
  5
6A43
  8
0
 10
26.6611413227524885
 20
8.3225444804831703
 30
0.0
 40
1.064510137163637
 50
242.2977829392704052
 51
256.8282594125943774
  0
LINE
  5
6A44
  8
0
 62
     4
 10
17.9031473532159602
 20
10.9287685970686006
 30
0.0
 11
24.6329820359843588
 21
20.0952817181593808
 31
0.0
  0
LINE
  5
6A45
  8
0
 62
     4
 10
17.9031473532159602
 20
-0.0000000300842942
 30
0.0
 11
22.3963351323106608
 21
4.993614497796286
 31
0.0
  0
ENDBLK
  5
6A49
  8
0
  0
ENDSEC
  0
SECTION
  2
ENTITIES
  0
ATTDEF
  5
3930
  8
DEFPOINTS
 10
3946.7448989171630274
 20
45.5644904414285534
 30
0.0
 40
0.001
  1
K-23497IN-4
  3

  2
MODELNUMBER
 70
     0
1001
ACDBATTR
1070
     0
1070
     1
  0
ATTDEF
  5
3931
  8
DEFPOINTS
 10
3946.7448989171630274
 20
45.5628237747618883
 30
0.0
 40
0.001
  1
PARALLEL
  3

  2
TRADENAME
 70
     0
1001
ACDBATTR
1070
     0
1070
     1
  0
ATTDEF
  5
3932
  8
DEFPOINTS
 10
3946.7448989171630274
 20
45.5611571080952231
 30
0.0
 40
0.001
  1
VALVE TRIM
  3

  2
PRODUCT
 70
     0
1001
ACDBATTR
1070
     0
1070
     1
  0
ARC
  5
8AD8
  8
0
 10
3945.8681520502250351
 20
47.7648856827410171
 30
0.0
 40
0.0787384658378613
 50
161.2275607002376034
 51
180.0000865454015013
  0
ARC
  5
8AD9
  8
0
 10
3946.7440493967537805
 20
47.4671760509086482
 30
0.0
 40
1.0038477494048359
 50
99.0368341025990162
 51
161.2275643522075086
  0
ARC
  5
8ADA
  8
0
 10
3946.5475167335880542
 20
48.5270826073612369
 30
0.0
 40
0.0787709824639062
 50
299.5586992104849173
 51
359.9700454121742155
  0
ARC
  5
8ADB
  8
0
 10
3946.666437308274908
 20
48.6667216903640423
 30
0.0
 40
0.0395698791543262
 50
90.1266108233111254
 51
179.7017570491726985
  0
ARC
  5
8ADC
  8
0
 10
3955.1837467362670395
 20
48.561488686120363
 30
0.0
 40
8.5575283628322474
 50
179.2940296541623866
 51
180.2306376211907093
  0
ARC
  5
8ADD
  8
0
 10
3945.8681585452359286
 20
47.1694623869362175
 30
0.0
 40
0.0787449767539225
 50
180.0006517436449087
 51
198.7868319714879135
  0
ARC
  5
8ADE
  8
0
 10
3946.7440515000398591
 20
47.4671741377026208
 30
0.0
 40
1.003850781894813
 50
198.7737598232156984
 51
270.0006002979224036
  0
LINE
  5
8ADF
  8
0
 10
3945.789413568486907
 20
47.1694614912063983
 30
0.0
 11
3945.7894135843871481
 21
47.764885563806402
 31
0.0
  0
ARC
  5
8AE0
  8
0
 10
3944.4849962476869223
 20
49.3955201764064
 30
0.0
 40
0.2999999999999998
 50
90.0
 51
180.0000000000003979
  0
ARC
  5
8AE1
  8
0
 10
3944.4849962631619746
 20
41.7278036473163496
 30
0.0
 40
0.300000015474994
 50
180.0000012242103935
 51
269.9999970444914084
  0
ARC
  5
8AE2
  8
0
 10
3946.7440513657870724
 20
43.7270162394063888
 30
0.0
 40
0.9940944881999991
 50
90.0
 51
201.090032937274799
  0
ARC
  5
8AE3
  8
0
 10
3946.8075576740470751
 20
43.7507163216603701
 30
0.0
 40
1.051124479662312
 50
198.4178555493157887
 51
199.4746067000484118
  0
ARC
  5
8AE4
  8
0
 10
3945.884987736721996
 20
43.4434782785821412
 30
0.0
 40
0.0787405537806988
 50
179.95654586647629
 51
198.403691926972499
  0
ARC
  5
8AE5
  8
0
 10
3946.7440513657870724
 20
43.7270162394063888
 30
0.0
 40
0.9448818898000325
 50
172.4270857722466133
 51
187.2461130061876986
  0
ARC
  5
8AE6
  8
0
 10
3946.7441400621842149
 20
43.7270160052819179
 30
0.0
 40
0.9744947505792465
 50
163.9084537352852919
 51
195.7647450431466893
  0
ARC
  5
8AE7
  8
0
 10
3945.8867111560998637
 20
44.0194054174245366
 30
0.0
 40
0.0788213314695597
 50
161.3628903572173101
 51
179.8078078553425883
  0
ARC
  5
8AE8
  8
0
 10
3946.7442141591909603
 20
43.728912879713441
 30
0.0
 40
0.9841926335638626
 50
120.9228698568101947
 51
161.2915937611643074
  0
ARC
  5
8AE9
  8
0
 10
3946.7445322048811249
 20
43.7264325463852828
 30
0.0
 40
0.9864843590936503
 50
90.027925787809977
 51
120.8646865983455996
  0
LINE
  5
8AEA
  8
0
 10
3945.8078902680758802
 20
44.0196698140774814
 30
0.0
 11
3945.8062472055871694
 21
43.4435379968063913
 31
0.0
  0
LINE
  5
8AEB
  8
0
 10
3945.8165687189730306
 20
43.4002829290364218
 30
0.0
 11
3945.8132234504869302
 21
40.2404399427064021
 31
0.0
  0
LINE
  5
8AEC
  8
0
 10
3944.4849962476869223
 20
41.4278036318413569
 30
0.0
 11
3945.814480490898859
 21
41.4278036318413569
 31
0.0
  0
ARC
  5
8AED
  8
0
 10
3946.1131799585641602
 20
40.2401197358730869
 30
0.0
 40
0.2999566789902597
 50
179.9388361557203098
 51
269.8163784554798212
  0
LINE
  5
8AEE
  8
0
 10
3944.1849962476871951
 20
41.7278036409074389
 30
0.0
 11
3944.1849962476871951
 21
49.3955201764064
 31
0.0
  0
ARC
  5
8AEF
  8
0
 10
3947.6199507126480057
 20
47.7648856792262535
 30
0.0
 40
0.0787384658378613
 50
359.9999132246841782
 51
18.7724390698459516
  0
ARC
  5
8AF0
  8
0
 10
3946.7440533649250938
 20
47.4671760509086411
 30
0.0
 40
1.0038477494048359
 50
18.7724354178759896
 51
80.9631656675028495
  0
ARC
  5
8AF1
  8
0
 10
3946.9405860323431625
 20
48.5270826065725984
 30
0.0
 40
0.0787709824639062
 50
180.0299543579114072
 51
240.4413005595941115
  0
ARC
  5
8AF2
  8
0
 10
3946.8216654591788028
 20
48.6667216906983313
 30
0.0
 40
0.0395698781889021
 50
0.2982417931911452
 51
89.8738034137509771
  0
ARC
  5
8AF3
  8
0
 10
3938.3043560298019656
 20
48.5614887199868193
 30
0.0
 40
8.5575283628322474
 50
359.7693621488950839
 51
0.7059701159232472
  0
ARC
  5
8AF4
  8
0
 10
3947.6199447055560086
 20
47.1694622603526383
 30
0.0
 40
0.0787444729326016
 50
341.2131376817753221
 51
359.9994375691828168
  0
ARC
  5
8AF5
  8
0
 10
3946.7440512616321939
 20
47.4671741377068628
 30
0.0
 40
1.0038507819015681
 50
270.0006139052784988
 51
341.2262399467500131
  0
LINE
  5
8AF6
  8
0
 10
3947.6986891784858926
 20
47.1694614873756706
 30
0.0
 11
3947.6986891784858926
 21
47.7648855599756601
 31
0.0
  0
ARC
  5
8AF7
  8
0
 10
3949.003106506253971
 20
49.3955201609313974
 30
0.0
 40
0.300000015474998
 50
0.000000994296557
 51
90.0000042717863948
  0
ARC
  5
8AF8
  8
0
 10
3949.0031064909599081
 20
41.7278036318413612
 30
0.0
 40
0.3000000000000003
 50
269.999999770089687
 51
359.9999997700861059
  0
ARC
  5
8AF9
  8
0
 10
3946.744051380881956
 20
43.7270162394063888
 30
0.0
 40
0.9940944881999989
 50
338.9099668328132111
 51
90.0000008700580736
  0
ARC
  5
8AFA
  8
0
 10
3946.6805450727169955
 20
43.7507163219151991
 30
0.0
 40
1.051124479662312
 50
340.5253930700450837
 51
341.5821442207695782
  0
ARC
  5
8AFB
  8
0
 10
3947.603115008810164
 20
43.4434782751349431
 30
0.0
 40
0.0787405537806988
 50
341.5963078431119015
 51
0.043453903609785
  0
ARC
  5
8AFC
  8
0
 10
3946.744051380881956
 20
43.7270162394063888
 30
0.0
 40
0.9448818898000325
 50
352.753886763898322
 51
7.5729139978423019
  0
ARC
  5
8AFD
  8
0
 10
3946.7439626844848135
 20
43.7270160052822803
 30
0.0
 40
0.9744947505792465
 50
344.2352547269348975
 51
16.091546034799201
  0
ARC
  5
8AFE
  8
0
 10
3947.6013915917428676
 20
44.0194054139842308
 30
0.0
 40
0.0788213314695597
 50
0.1921919147434192
 51
18.6371094128683303
  0
ARC
  5
8AFF
  8
0
 10
3946.7438885874857988
 20
43.7289128797141018
 30
0.0
 40
0.9841926335638626
 50
18.7084060089242286
 51
59.0771299132953516
  0
ARC
  5
8B00
  8
0
 10
3946.7435705416769451
 20
43.7264325461342978
 30
0.0
 40
0.9864843593662255
 50
59.1353131738808528
 51
89.9720716381278436
  0
LINE
  5
8B01
  8
0
 10
3947.6802124797691249
 20
44.0196698103208917
 30
0.0
 11
3947.6818555399459001
 21
43.4435379930432219
 31
0.0
  0
LINE
  5
8B02
  8
0
 10
3947.6715340263858707
 20
43.4002829253146487
 30
0.0
 11
3947.6748792821917959
 21
40.2404399389712069
 31
0.0
  0
LINE
  5
8B03
  8
0
 10
3949.0031064897571014
 20
41.4278036318413569
 30
0.0
 11
3947.6736222465401625
 21
41.4278036318413569
 31
0.0
  0
ARC
  5
8B04
  8
0
 10
3947.3749227784528557
 20
40.2401197315514878
 30
0.0
 40
0.2999566746509097
 50
270.1836204880324885
 51
0.0611639571777171
  0
LINE
  5
8B05
  8
0
 10
3949.30310649096009
 20
41.7278036306385687
 30
0.0
 11
3949.3031065217292053
 21
49.3955201661375227
 31
0.0
  0
LINE
  5
8B06
  8
0
 10
3946.1122186588868317
 20
39.9401645972710071
 30
0.0
 11
3947.375884072586814
 21
39.9401645972710071
 31
0.0
  0
LINE
  5
8B07
  8
0
 10
3944.4849962476869223
 20
49.6955201764064114
 30
0.0
 11
3949.0031064838872226
 21
49.6955201764064114
 31
0.0
  0
LINE
  5
8B08
  8
0
 10
3946.6663498677871758
 20
48.7062914729064005
 30
0.0
 11
3946.8217526135831577
 21
48.7062914729064005
 31
0.0
  0
ENDSEC
  0
EOF
