  0
SECTION
  2
HEADER
  9
$ACADVER
  1
AC1009
  9
$INSBASE
 10
505.1937252950875177
 20
-8.6711901086541179
 30
0.0
  9
$EXTMIN
 10
502.9009067777967061
 20
-11.8719785937507591
 30
-0.000000000000013
  9
$EXTMAX
 10
507.4613749848383009
 20
-8.6642492339138286
 30
0.0000000000000023
  9
$LIMMIN
 10
0.0
 20
0.0
  9
$LIMMAX
 10
11.6929133858000007
 20
8.2677165353999982
  9
$ORTHOMODE
 70
     0
  9
$REGENMODE
 70
     1
  9
$FILLMODE
 70
     1
  9
$QTEXTMODE
 70
     0
  9
$MIRRTEXT
 70
     0
  9
$DRAGMODE
 70
     2
  9
$LTSCALE
 40
0.6431102362
  9
$OSMODE
 70
  4095
  9
$ATTMODE
 70
     1
  9
$TEXTSIZE
 40
0.2
  9
$TRACEWID
 40
0.05
  9
$TEXTSTYLE
  7
STANDARD
  9
$CLAYER
  8
DEFPOINT
  9
$CELTYPE
  6
BYLAYER
  9
$CECOLOR
 62
   256
  9
$DIMSCALE
 40
1.0
  9
$DIMASZ
 40
0.1875
  9
$DIMEXO
 40
0.0625
  9
$DIMDLI
 40
0.4443307087
  9
$DIMRND
 40
0.0
  9
$DIMDLE
 40
0.0
  9
$DIMEXE
 40
0.125
  9
$DIMTP
 40
0.01
  9
$DIMTM
 40
0.01
  9
$DIMTXT
 40
1.0
  9
$DIMCEN
 40
0.1052362205
  9
$DIMTSZ
 40
0.0
  9
$DIMTOL
 70
     1
  9
$DIMLIM
 70
     0
  9
$DIMTIH
 70
     1
  9
$DIMTOH
 70
     1
  9
$DIMSE1
 70
     0
  9
$DIMSE2
 70
     0
  9
$DIMTAD
 70
     0
  9
$DIMZIN
 70
     0
  9
$DIMBLK
  1

  9
$DIMASO
 70
     1
  9
$DIMSHO
 70
     1
  9
$DIMPOST
  1
\X
  9
$DIMAPOST
  1

  9
$DIMALT
 70
     1
  9
$DIMALTD
 70
     2
  9
$DIMALTF
 40
25.3999999999999986
  9
$DIMLFAC
 40
1.0
  9
$DIMTOFL
 70
     0
  9
$DIMTVP
 40
0.0
  9
$DIMTIX
 70
     0
  9
$DIMSOXD
 70
     0
  9
$DIMSAH
 70
     0
  9
$DIMBLK1
  1

  9
$DIMBLK2
  1

  9
$DIMSTYLE
  2
STANDARD
  9
$DIMCLRD
 70
     0
  9
$DIMCLRE
 70
     0
  9
$DIMCLRT
 70
     0
  9
$DIMTFAC
 40
1.0
  9
$DIMGAP
 40
0.09
  9
$LUNITS
 70
     2
  9
$LUPREC
 70
     4
  9
$SKETCHINC
 40
0.1
  9
$FILLETRAD
 40
0.0
  9
$AUNITS
 70
     0
  9
$AUPREC
 70
     0
  9
$MENU
  1
.
  9
$ELEVATION
 40
0.0
  9
$PELEVATION
 40
0.0
  9
$THICKNESS
 40
0.0
  9
$LIMCHECK
 70
     0
  9
$BLIPMODE
 70
     0
  9
$CHAMFERA
 40
0.0
  9
$CHAMFERB
 40
0.0
  9
$SKPOLY
 70
     0
  9
$TDCREATE
 40
2458306.6094560190103948
  9
$TDUPDATE
 40
2459033.4861458339728415
  9
$TDINDWG
 40
0.0998701389
  9
$TDUSRTIMER
 40
0.0998700116
  9
$USRTIMER
 70
     1
  9
$ANGBASE
 50
0.0
  9
$ANGDIR
 70
     0
  9
$PDMODE
 70
     0
  9
$PDSIZE
 40
0.3125
  9
$PLINEWID
 40
0.0
  9
$COORDS
 70
     1
  9
$SPLFRAME
 70
     0
  9
$SPLINETYPE
 70
     6
  9
$SPLINESEGS
 70
     8
  9
$ATTDIA
 70
     1
  9
$ATTREQ
 70
     1
  9
$HANDLING
 70
     1
  9
$HANDSEED
  5
210F
  9
$SURFTAB1
 70
     6
  9
$SURFTAB2
 70
     6
  9
$SURFTYPE
 70
     6
  9
$SURFU
 70
     6
  9
$SURFV
 70
     6
  9
$UCSNAME
  2

  9
$UCSORG
 10
0.0
 20
0.0
 30
0.0
  9
$UCSXDIR
 10
1.0
 20
0.0
 30
0.0
  9
$UCSYDIR
 10
0.0
 20
1.0
 30
0.0
  9
$PUCSNAME
  2

  9
$PUCSORG
 10
0.0
 20
0.0
 30
0.0
  9
$PUCSXDIR
 10
1.0
 20
0.0
 30
0.0
  9
$PUCSYDIR
 10
0.0
 20
1.0
 30
0.0
  9
$USERI1
 70
     0
  9
$USERI2
 70
     0
  9
$USERI3
 70
     0
  9
$USERI4
 70
     0
  9
$USERI5
 70
     0
  9
$USERR1
 40
0.0
  9
$USERR2
 40
0.0
  9
$USERR3
 40
0.0
  9
$USERR4
 40
0.0
  9
$USERR5
 40
0.0
  9
$WORLDVIEW
 70
     1
  9
$SHADEDGE
 70
     3
  9
$SHADEDIF
 70
    70
  9
$TILEMODE
 70
     1
  9
$MAXACTVP
 70
    64
  9
$PLIMCHECK
 70
     0
  9
$PEXTMIN
 10
1.0000000000000000E+20
 20
1.0000000000000000E+20
 30
1.0000000000000000E+20
  9
$PEXTMAX
 10
-1.0000000000000000E+20
 20
-1.0000000000000000E+20
 30
-1.0000000000000000E+20
  9
$PLIMMIN
 10
0.0
 20
0.0
  9
$PLIMMAX
 10
12.0
 20
9.0
  9
$UNITMODE
 70
     0
  9
$VISRETAIN
 70
     1
  9
$PLINEGEN
 70
     0
  9
$PSLTSCALE
 70
     1
  0
ENDSEC
  0
SECTION
  2
TABLES
  0
TABLE
  2
VPORT
 70
     1
  0
VPORT
  2
*ACTIVE
 70
     0
 10
0.0
 20
0.0
 11
1.0
 21
1.0
 12
163.5738546604567034
 22
-1.2981768198418011
 13
0.0
 23
0.0
 14
1.0
 24
1.0
 15
0.0
 25
0.0
 16
0.0
 26
0.0
 36
57.1721640433716018
 17
341.6072862208607717
 27
-8.9699370939904934
 37
0.0
 40
3.2278195228421742
 41
2.005224660397074
 42
50.0
 43
0.0
 44
0.0
 50
0.0
 51
0.0
 71
     0
 72
   100
 73
     1
 74
     1
 75
     0
 76
     0
 77
     0
 78
     0
  0
ENDTAB
  0
TABLE
  2
LTYPE
 70
     1
  0
LTYPE
  2
CONTINUOUS
 70
     0
  3
Solid line
 72
    65
 73
     0
 40
0.0
  0
ENDTAB
  0
TABLE
  2
LAYER
 70
     2
  0
LAYER
  2
0
 70
     0
 62
   255
  6
CONTINUOUS
  0
LAYER
  2
DEFPOINT
 70
     0
 62
     7
  6
CONTINUOUS
  0
ENDTAB
  0
TABLE
  2
STYLE
 70
     1
  0
STYLE
  2
STANDARD
 70
     0
 40
0.0
 41
0.8
 50
0.0
 71
     0
 42
0.2
  3
txt
  4

  0
ENDTAB
  0
TABLE
  2
VIEW
 70
     0
  0
ENDTAB
  0
TABLE
  2
UCS
 70
     0
  0
ENDTAB
  0
TABLE
  2
APPID
 70
    10
  0
APPID
  2
ACAD
 70
     0
  0
APPID
  2
ACADANNOTATIVE
 70
     0
  0
APPID
  2
ACAD_MLEADERVER
 70
     0
  0
APPID
  2
ACAD_EXEMPT_FROM_CAD_STANDARDS
 70
     0
  0
APPID
  2
ACAD_DSTYLE_DIMJAG
 70
     0
  0
APPID
  2
ACAD_DSTYLE_DIMTALN
 70
     0
  0
APPID
  2
ACAD_NAV_VCDISPLAY
 70
     0
  0
APPID
  2
ACAECLAYERSTANDARD
 70
     0
  0
APPID
  2
ACCMTRANSPARENCY
 70
     0
  0
APPID
  2
ACDBATTR
 70
     0
  0
ENDTAB
  0
TABLE
  2
DIMSTYLE
 70
     1
  0
DIMSTYLE
  2
STANDARD
 70
     0
  3

  4

  5

  6

  7

 40
1.0
 41
0.1875
 42
0.0625
 43
0.38
 44
0.125
 45
0.0
 46
0.0
 47
0.01
 48
0.01
140
0.15625
141
0.09
142
0.0
143
25.3999999999999986
144
1.0
145
0.0
146
1.0
147
0.09
 71
     1
 72
     0
 73
     1
 74
     1
 75
     0
 76
     0
 77
     0
 78
     4
170
     0
171
     2
172
     0
173
     0
174
     0
175
     0
176
     0
177
     0
178
     0
  0
ENDTAB
  0
ENDSEC
  0
SECTION
  2
BLOCKS
  0
BLOCK
  8
0
  2
$MODEL_SPACE
 70
     0
 10
0.0
 20
0.0
 30
0.0
  3
$MODEL_SPACE
  1

  0
ENDBLK
  5
1598
  8
0
  0
BLOCK
 67
     1
  8
0
  2
$PAPER_SPACE
 70
     0
 10
0.0
 20
0.0
 30
0.0
  3
$PAPER_SPACE
  1

  0
ENDBLK
  5
1594
 67
     1
  8
0
  0
ENDSEC
  0
SECTION
  2
ENTITIES
  0
ATTDEF
  5
659
  8
DEFPOINT
 10
505.1911011158078963
 20
-8.6665999015744717
 30
0.0
 40
0.001
  1
K-23496T-4
  3

  2
MODELNUMBER
 70
     0
1001
ACDBATTR
1070
     0
1070
     1
  0
ATTDEF
  5
65A
  8
DEFPOINT
 10
505.1911011158078963
 20
-8.6682665682411368
 30
0.0
 40
0.001
  1
PARALLEL
  3

  2
TRADENAME
 70
     0
1001
ACDBATTR
1070
     0
1070
     1
  0
ATTDEF
  5
65B
  8
DEFPOINT
 10
505.1911011158078963
 20
-8.6699332349078002
 30
0.0
 40
0.001
  1
 VALVE TRIM
  3

  2
PRODUCT
 70
     0
1001
ACDBATTR
1070
     0
1070
     1
  0
LINE
  5
2025
  8
0
 10
502.9299457674874816
 20
-8.7696153054541188
 30
0.0
 11
502.9299457674874816
 21
-8.6790641243541184
 31
0.0
  0
LINE
  5
2026
  8
0
 10
504.3032159391875098
 20
-11.8719775101541192
 30
0.0
 11
506.0842346509875256
 21
-11.8719775101541192
 31
0.0
  0
LINE
  5
2027
  8
0
 10
504.2638473595876007
 20
-11.8329496884541197
 30
0.0
 11
504.2628974374875952
 21
-11.7245964060541201
 31
0.0
  0
LINE
  5
2028
  8
0
 10
504.2645806878874737
 20
-11.63942850535412
 30
0.0
 11
504.2559209356282963
 21
-10.64189628752281
 31
0.0
  0
LINE
  5
2029
  8
0
 10
504.2645806878874737
 20
-11.63942850535412
 30
0.0
 11
504.2650579511346223
 21
-11.7132499401206704
 31
0.0
  0
LINE
  5
202A
  8
0
 10
504.2291583659874732
 20
-10.3522924708541204
 30
0.0
 11
504.2291583659874732
 21
-8.8089853841541217
 31
0.0
  0
LINE
  5
202B
  8
0
 10
504.2488434052875164
 20
-10.4034735731541197
 30
0.0
 11
504.2488434052875164
 21
-10.3641034944541204
 31
0.0
  0
LINE
  5
202C
  8
0
 10
504.2856613770875924
 20
-10.6121349904541198
 30
0.0
 11
504.4049082574280192
 21
-10.6121349904541198
 31
0.0
  0
LINE
  5
202D
  8
0
 10
506.0630990501874749
 20
-10.4821473707541095
 30
0.0
 11
504.3243515395324721
 21
-10.4821473707541095
 31
0.0
  0
LINE
  5
202E
  8
0
 10
504.2409693903874768
 20
-10.3641034944541204
 30
0.0
 11
506.1464811997876154
 21
-10.3641034944541204
 31
0.0
  0
LINE
  5
202F
  8
0
 10
502.9693158462874862
 20
-8.8089853841541181
 30
0.0
 11
507.4181347438874923
 21
-8.8089853841541181
 31
0.0
  0
LINE
  5
2030
  8
0
 10
502.937819783287523
 20
-8.6711901086541179
 30
0.0
 11
507.449630806887626
 21
-8.6711901086541179
 31
0.0
  0
LINE
  5
2031
  8
0
 10
507.4575048226876106
 20
-8.6790641243541184
 30
0.0
 11
507.4575048226876106
 21
-8.7696153054541188
 31
0.0
  0
ARC
  5
2032
  8
0
 10
505.2645316888875868
 20
-10.50425415325412
 30
0.0
 40
0.8663663883999999
 50
183.4315944978999084
 51
187.1530968621171951
  0
ARC
  5
2033
  8
0
 10
504.3275835627874812
 20
-10.4034735731541197
 30
0.0
 40
0.0787401575
 50
180.0
 51
267.647536695133283
  0
ARC
  5
2034
  8
0
 10
504.3211195009574794
 20
-10.5608211680543906
 30
0.0
 40
0.0787401578053633
 50
3.4286353136784711
 51
87.6475259730296443
  0
ARC
  5
2035
  8
0
 10
507.4181347438874923
 20
-8.7696153054541188
 30
0.0
 40
0.0393700787
 50
269.9999999997003783
 51
0.0
  0
ARC
  5
2036
  8
0
 10
502.9693158462874862
 20
-8.7696153054541188
 30
0.0
 40
0.0393700787
 50
180.0
 51
270.0000000002996217
  0
ARC
  5
2037
  8
0
 10
504.3032159310945985
 20
-11.8326074511129704
 30
0.0
 40
0.0393700590411443
 50
180.4980689052123921
 51
270.0000117777864261
  0
ARC
  5
2038
  8
0
 10
504.2854488600974037
 20
-10.6416630621819106
 30
0.0
 40
0.029528836472725
 50
89.5876426850768866
 51
180.497077616712204
  0
ARC
  5
2039
  8
0
 10
504.2924236592887155
 20
-11.7243396521830903
 30
0.0
 40
0.0295273381191127
 50
157.9401817844793925
 51
180.49821959957481
  0
ARC
  5
203A
  8
0
 10
504.2409693895875762
 20
-10.3522924708541204
 30
0.0
 40
0.0118110236
 50
180.0
 51
270.000003724098292
  0
ARC
  5
203B
  8
0
 10
507.449630806887626
 20
-8.6790641243541184
 30
0.0
 40
0.0078740157
 50
0.0
 51
90.0000000014981651
  0
ARC
  5
203C
  8
0
 10
502.937819783287523
 20
-8.6790641243541184
 30
0.0
 40
0.0078740157
 50
89.9999999984985806
 51
180.0
  0
LINE
  5
203D
  8
0
 10
506.1236032305876051
 20
-11.8329496884541197
 30
0.0
 11
506.124553152687497
 21
-11.7245964060541201
 31
0.0
  0
LINE
  5
203E
  8
0
 10
506.1228699022875048
 20
-11.63942850535412
 30
0.0
 11
506.1315294552874775
 21
-10.6419192405541203
 31
0.0
  0
LINE
  5
203F
  8
0
 10
506.1228699022875048
 20
-11.63942850535412
 30
0.0
 11
506.1223926390404131
 21
-11.7132499401206704
 31
0.0
  0
LINE
  5
2040
  8
0
 10
506.1582922241875053
 20
-10.3522924708541204
 30
0.0
 11
506.1582922241875053
 21
-8.8089853841541181
 31
0.0
  0
LINE
  5
2041
  8
0
 10
506.138607184887519
 20
-10.4034735731541197
 30
0.0
 11
506.138607184887519
 21
-10.3641034944541204
 31
0.0
  0
LINE
  5
2042
  8
0
 10
506.1017892130876135
 20
-10.6121349904541198
 30
0.0
 11
505.982542332747073
 21
-10.6121349904541198
 31
0.0
  0
ARC
  5
2043
  8
0
 10
505.1229189012875054
 20
-10.50425415325412
 30
0.0
 40
0.8663663883999999
 50
352.8469031378826912
 51
356.5684055020998926
  0
ARC
  5
2044
  8
0
 10
506.0598670273874973
 20
-10.4034735731541197
 30
0.0
 40
0.0787401575
 50
272.352463304866717
 51
0.0
  0
ARC
  5
2045
  8
0
 10
506.0663310892174991
 20
-10.5608211680543906
 30
0.0
 40
0.0787401578053633
 50
92.352474026970313
 51
176.5713646863214876
  0
ARC
  5
2046
  8
0
 10
506.0842346590804937
 20
-11.8326074511129704
 30
0.0
 40
0.0393700590411461
 50
269.9999882222135739
 51
359.5019310947823215
  0
ARC
  5
2047
  8
0
 10
506.102001730077518
 20
-10.6416630621819106
 30
0.0
 40
0.029528836472725
 50
359.5029223832876255
 51
90.4123573149231134
  0
ARC
  5
2048
  8
0
 10
506.0950269308863767
 20
-11.7243396521830903
 30
0.0
 40
0.0295273381191125
 50
359.5017804004251047
 51
22.0598182155205293
  0
ARC
  5
2049
  8
0
 10
506.146481200587516
 20
-10.3522924708541204
 30
0.0
 40
0.0118110236
 50
269.9999962758984111
 51
0.0
  0
ARC
  5
204B
  8
0
 10
505.1937252950875177
 20
-8.8627054190757324
 30
0.0
 40
1.919045633671886
 50
245.7294072103138092
 51
294.2705927896861908
  0
ENDSEC
  0
EOF
