  0
SECTION
  2
HEADER
  9
$ACADVER
  1
AC1009
  9
$INSBASE
 10
500.5540114690409155
 20
-9.5327255010984846
 30
0.0
  9
$EXTMIN
 10
498.2519939948379033
 20
-12.78155708042204
 30
-0.000000000000013
  9
$EXTMAX
 10
502.8556337386064001
 20
-6.2841539688030528
 30
0.0000000000000023
  9
$LIMMIN
 10
0.0
 20
0.0
  9
$LIMMAX
 10
11.6929133858000007
 20
8.2677165353999982
  9
$ORTHOMODE
 70
     0
  9
$REGENMODE
 70
     1
  9
$FILLMODE
 70
     1
  9
$QTEXTMODE
 70
     0
  9
$MIRRTEXT
 70
     0
  9
$DRAGMODE
 70
     2
  9
$LTSCALE
 40
0.6431102362
  9
$OSMODE
 70
  4095
  9
$ATTMODE
 70
     1
  9
$TEXTSIZE
 40
0.2
  9
$TRACEWID
 40
0.05
  9
$TEXTSTYLE
  7
STANDARD
  9
$CLAYER
  8
DEFPOINT
  9
$CELTYPE
  6
BYLAYER
  9
$CECOLOR
 62
   256
  9
$DIMSCALE
 40
1.0
  9
$DIMASZ
 40
0.1875
  9
$DIMEXO
 40
0.0625
  9
$DIMDLI
 40
0.4443307087
  9
$DIMRND
 40
0.0
  9
$DIMDLE
 40
0.0
  9
$DIMEXE
 40
0.125
  9
$DIMTP
 40
0.01
  9
$DIMTM
 40
0.01
  9
$DIMTXT
 40
1.0
  9
$DIMCEN
 40
0.1052362205
  9
$DIMTSZ
 40
0.0
  9
$DIMTOL
 70
     1
  9
$DIMLIM
 70
     0
  9
$DIMTIH
 70
     1
  9
$DIMTOH
 70
     1
  9
$DIMSE1
 70
     0
  9
$DIMSE2
 70
     0
  9
$DIMTAD
 70
     0
  9
$DIMZIN
 70
     0
  9
$DIMBLK
  1

  9
$DIMASO
 70
     1
  9
$DIMSHO
 70
     1
  9
$DIMPOST
  1
\X
  9
$DIMAPOST
  1

  9
$DIMALT
 70
     1
  9
$DIMALTD
 70
     2
  9
$DIMALTF
 40
25.3999999999999986
  9
$DIMLFAC
 40
1.0
  9
$DIMTOFL
 70
     0
  9
$DIMTVP
 40
0.0
  9
$DIMTIX
 70
     0
  9
$DIMSOXD
 70
     0
  9
$DIMSAH
 70
     0
  9
$DIMBLK1
  1

  9
$DIMBLK2
  1

  9
$DIMSTYLE
  2
STANDARD
  9
$DIMCLRD
 70
     0
  9
$DIMCLRE
 70
     0
  9
$DIMCLRT
 70
     0
  9
$DIMTFAC
 40
1.0
  9
$DIMGAP
 40
0.09
  9
$LUNITS
 70
     2
  9
$LUPREC
 70
     4
  9
$SKETCHINC
 40
0.1
  9
$FILLETRAD
 40
0.0
  9
$AUNITS
 70
     0
  9
$AUPREC
 70
     0
  9
$MENU
  1
.
  9
$ELEVATION
 40
0.0
  9
$PELEVATION
 40
0.0
  9
$THICKNESS
 40
0.0
  9
$LIMCHECK
 70
     0
  9
$BLIPMODE
 70
     0
  9
$CHAMFERA
 40
0.0
  9
$CHAMFERB
 40
0.0
  9
$SKPOLY
 70
     0
  9
$TDCREATE
 40
2458306.6094560190103948
  9
$TDUPDATE
 40
2459033.5018865740858018
  9
$TDINDWG
 40
0.1002520833
  9
$TDUSRTIMER
 40
0.100251956
  9
$USRTIMER
 70
     1
  9
$ANGBASE
 50
0.0
  9
$ANGDIR
 70
     0
  9
$PDMODE
 70
     0
  9
$PDSIZE
 40
0.3125
  9
$PLINEWID
 40
0.0
  9
$COORDS
 70
     1
  9
$SPLFRAME
 70
     0
  9
$SPLINETYPE
 70
     6
  9
$SPLINESEGS
 70
     8
  9
$ATTDIA
 70
     1
  9
$ATTREQ
 70
     1
  9
$HANDLING
 70
     1
  9
$HANDSEED
  5
20C7
  9
$SURFTAB1
 70
     6
  9
$SURFTAB2
 70
     6
  9
$SURFTYPE
 70
     6
  9
$SURFU
 70
     6
  9
$SURFV
 70
     6
  9
$UCSNAME
  2

  9
$UCSORG
 10
0.0
 20
0.0
 30
0.0
  9
$UCSXDIR
 10
1.0
 20
0.0
 30
0.0
  9
$UCSYDIR
 10
0.0
 20
1.0
 30
0.0
  9
$PUCSNAME
  2

  9
$PUCSORG
 10
0.0
 20
0.0
 30
0.0
  9
$PUCSXDIR
 10
1.0
 20
0.0
 30
0.0
  9
$PUCSYDIR
 10
0.0
 20
1.0
 30
0.0
  9
$USERI1
 70
     0
  9
$USERI2
 70
     0
  9
$USERI3
 70
     0
  9
$USERI4
 70
     0
  9
$USERI5
 70
     0
  9
$USERR1
 40
0.0
  9
$USERR2
 40
0.0
  9
$USERR3
 40
0.0
  9
$USERR4
 40
0.0
  9
$USERR5
 40
0.0
  9
$WORLDVIEW
 70
     1
  9
$SHADEDGE
 70
     3
  9
$SHADEDIF
 70
    70
  9
$TILEMODE
 70
     1
  9
$MAXACTVP
 70
    64
  9
$PLIMCHECK
 70
     0
  9
$PEXTMIN
 10
1.0000000000000000E+20
 20
1.0000000000000000E+20
 30
1.0000000000000000E+20
  9
$PEXTMAX
 10
-1.0000000000000000E+20
 20
-1.0000000000000000E+20
 30
-1.0000000000000000E+20
  9
$PLIMMIN
 10
0.0
 20
0.0
  9
$PLIMMAX
 10
12.0
 20
9.0
  9
$UNITMODE
 70
     0
  9
$VISRETAIN
 70
     1
  9
$PLINEGEN
 70
     0
  9
$PSLTSCALE
 70
     1
  0
ENDSEC
  0
SECTION
  2
TABLES
  0
TABLE
  2
VPORT
 70
     1
  0
VPORT
  2
*ACTIVE
 70
     0
 10
0.0
 20
0.0
 11
1.0
 21
1.0
 12
158.9465276458612948
 22
-0.5629184306220534
 13
0.0
 23
0.0
 14
1.0
 24
1.0
 15
0.0
 25
0.0
 16
0.0
 26
0.0
 36
57.1721640433716018
 17
341.6072862208607717
 27
-8.9699370939904934
 37
0.0
 40
6.5380966592909209
 41
2.005224660397074
 42
50.0
 43
0.0
 44
0.0
 50
0.0
 51
0.0
 71
     0
 72
   100
 73
     1
 74
     1
 75
     0
 76
     0
 77
     0
 78
     0
  0
ENDTAB
  0
TABLE
  2
LTYPE
 70
     1
  0
LTYPE
  2
CONTINUOUS
 70
     0
  3
Solid line
 72
    65
 73
     0
 40
0.0
  0
ENDTAB
  0
TABLE
  2
LAYER
 70
     2
  0
LAYER
  2
0
 70
     0
 62
   255
  6
CONTINUOUS
  0
LAYER
  2
DEFPOINT
 70
     0
 62
     7
  6
CONTINUOUS
  0
ENDTAB
  0
TABLE
  2
STYLE
 70
     1
  0
STYLE
  2
STANDARD
 70
     0
 40
0.0
 41
0.8
 50
0.0
 71
     0
 42
0.2
  3
txt
  4

  0
ENDTAB
  0
TABLE
  2
VIEW
 70
     0
  0
ENDTAB
  0
TABLE
  2
UCS
 70
     0
  0
ENDTAB
  0
TABLE
  2
APPID
 70
    10
  0
APPID
  2
ACAD
 70
     0
  0
APPID
  2
ACADANNOTATIVE
 70
     0
  0
APPID
  2
ACAD_MLEADERVER
 70
     0
  0
APPID
  2
ACAD_EXEMPT_FROM_CAD_STANDARDS
 70
     0
  0
APPID
  2
ACAD_DSTYLE_DIMJAG
 70
     0
  0
APPID
  2
ACAD_DSTYLE_DIMTALN
 70
     0
  0
APPID
  2
ACAD_NAV_VCDISPLAY
 70
     0
  0
APPID
  2
ACAECLAYERSTANDARD
 70
     0
  0
APPID
  2
ACCMTRANSPARENCY
 70
     0
  0
APPID
  2
ACDBATTR
 70
     0
  0
ENDTAB
  0
TABLE
  2
DIMSTYLE
 70
     1
  0
DIMSTYLE
  2
STANDARD
 70
     0
  3

  4

  5

  6

  7

 40
1.0
 41
0.1875
 42
0.0625
 43
0.38
 44
0.125
 45
0.0
 46
0.0
 47
0.01
 48
0.01
140
0.15625
141
0.09
142
0.0
143
25.3999999999999986
144
1.0
145
0.0
146
1.0
147
0.09
 71
     1
 72
     0
 73
     1
 74
     1
 75
     0
 76
     0
 77
     0
 78
     4
170
     0
171
     2
172
     0
173
     0
174
     0
175
     0
176
     0
177
     0
178
     0
  0
ENDTAB
  0
ENDSEC
  0
SECTION
  2
BLOCKS
  0
BLOCK
  8
0
  2
$MODEL_SPACE
 70
     0
 10
0.0
 20
0.0
 30
0.0
  3
$MODEL_SPACE
  1

  0
ENDBLK
  5
1598
  8
0
  0
BLOCK
 67
     1
  8
0
  2
$PAPER_SPACE
 70
     0
 10
0.0
 20
0.0
 30
0.0
  3
$PAPER_SPACE
  1

  0
ENDBLK
  5
1594
 67
     1
  8
0
  0
ENDSEC
  0
SECTION
  2
ENTITIES
  0
ATTDEF
  5
659
  8
DEFPOINT
 10
500.5508937541724208
 20
-9.5288277271860125
 30
0.0
 40
0.001
  1
K-23496IN-4
  3

  2
MODELNUMBER
 70
     0
1001
ACDBATTR
1070
     0
1070
     1
  0
ATTDEF
  5
65A
  8
DEFPOINT
 10
500.5508937541724208
 20
-9.5304943938526776
 30
0.0
 40
0.001
  1
PARALLEL
  3

  2
TRADENAME
 70
     0
1001
ACDBATTR
1070
     0
1070
     1
  0
ATTDEF
  5
65B
  8
DEFPOINT
 10
500.5508937541724208
 20
-9.5321610605193392
 30
0.0
 40
0.001
  1
VALVE TRIM
  3

  2
PRODUCT
 70
     0
1001
ACDBATTR
1070
     0
1070
     1
  0
LINE
  5
1F81
  8
0
 10
502.5185783981409031
 20
-12.7807569971984805
 30
0.0
 11
498.5894445399408141
 21
-12.7807569971984805
 31
0.0
  0
LINE
  5
1F82
  8
0
 10
501.1858441758408276
 20
-12.1798133611984802
 30
0.0
 11
499.9221787622408897
 21
-12.1798133611984802
 31
0.0
  0
LINE
  5
1F83
  8
0
 10
498.2902319414408794
 20
-12.48154439869848
 30
0.0
 11
498.2902319414408794
 21
-6.5839066034984848
 31
0.0
  0
LINE
  5
1F84
  8
0
 10
500.0051346153409213
 20
-7.5742686211984838
 30
0.0
 11
500.0052011063409054
 21
-7.5742218094984848
 31
0.0
  0
LINE
  5
1F85
  8
0
 10
500.048413651040903
 20
-7.5467656725984851
 30
0.0
 11
500.0484565834407817
 21
-7.5467379520984847
 31
0.0
  0
LINE
  5
1F86
  8
0
 10
499.6220167356407842
 20
-8.0752779605984841
 30
0.0
 11
499.6219825348409245
 21
-8.0753827048984856
 31
0.0
  0
LINE
  5
1F87
  8
0
 10
499.6250099112731959
 20
-8.7153726993272116
 30
0.0
 11
499.6254115824409041
 21
-8.8616044948984865
 31
0.0
  0
LINE
  5
1F88
  8
0
 10
499.6162073088408988
 20
-8.6764399566984842
 30
0.0
 11
499.616419456740914
 21
-8.3975168621984864
 31
0.0
  0
LINE
  5
1F89
  8
0
 10
499.6231836114408793
 20
-11.8793516183984806
 30
0.0
 11
499.6254115824409041
 21
-8.8616044948984865
 31
0.0
  0
LINE
  5
1F8A
  8
0
 10
499.616419456740914
 20
-8.3975168621984864
 30
0.0
 11
499.6178503732409126
 21
-8.1005203710758167
 31
0.0
  0
LINE
  5
1F8B
  8
0
 10
502.8177909966408947
 20
-6.5839066034984848
 30
0.0
 11
502.8177909966408947
 21
-12.48154439869848
 31
0.0
  0
LINE
  5
1F8C
  8
0
 10
498.5894445399408141
 20
-6.2846940049984852
 30
0.0
 11
502.5185783981409031
 21
-6.2846940049984852
 31
0.0
  0
ARC
  5
1F8D
  8
0
 10
499.9243129201408919
 20
-11.8795460192984805
 30
0.0
 40
0.3011293714
 50
179.9630114261998983
 51
182.6093295290000071
  0
ARC
  5
1F8E
  8
0
 10
499.9237203905200886
 20
-11.8796829443688807
 30
0.0
 40
0.3005312425894357
 50
182.5883948537519927
 51
207.2066028584268054
  0
ARC
  5
1F8F
  8
0
 10
498.5894445399408141
 20
-12.48154439869848
 30
0.0
 40
0.2992125984
 50
179.9999999997999112
 51
270.0
  0
ARC
  5
1F90
  8
0
 10
499.9227305364011045
 20
-11.8805669488543106
 30
0.0
 40
0.2992469210461242
 50
207.142721984898202
 51
269.8943536380268142
  0
ARC
  5
1F91
  8
0
 10
498.5894445399408141
 20
-6.5839066034984848
 30
0.0
 40
0.2992125984
 50
90.0
 51
180.0
  0
ARC
  5
1F92
  8
0
 10
499.6949460875677005
 20
-8.6764999666794722
 30
0.0
 40
0.0787388015947814
 50
179.956332597113402
 51
198.3835811887759064
  0
ARC
  5
1F93
  8
0
 10
499.6966555471809102
 20
-8.1005686180757941
 30
0.0
 40
0.0788051887091759
 50
161.3617283948103989
 51
179.9649217305235993
  0
ARC
  5
1F94
  8
0
 10
500.5636475346408929
 20
-8.4052677443984862
 30
0.0
 40
1.0012473339000001
 50
123.6738906227991066
 51
123.9049721066991054
  0
ARC
  5
1F95
  8
0
 10
500.5622311441409238
 20
-8.4031095500984847
 30
0.0
 40
0.9986659307
 50
121.2142744880997043
 51
123.674918382801394
  0
ARC
  5
1F96
  8
0
 10
500.5594933817408787
 20
-8.4034224474984853
 30
0.0
 40
0.9975286227999999
 50
120.0064647643007021
 51
120.8202088426996994
  0
ARC
  5
1F97
  8
0
 10
500.5579039781409278
 20
-8.4004488473984864
 30
0.0
 40
0.9941587265
 50
112.5700891097002057
 51
120.0128456212001993
  0
ARC
  5
1F98
  8
0
 10
500.5565779465409264
 20
-8.3974287127984848
 30
0.0
 40
0.9908609554000001
 50
111.5121774250012976
 51
112.5663129577000063
  0
ARC
  5
1F99
  8
0
 10
500.5575208585407836
 20
-8.3953835574984854
 30
0.0
 40
0.9896173315
 50
120.9606028392991988
 51
121.2128570111994037
  0
ARC
  5
1F9A
  8
0
 10
500.5570334978424967
 20
-8.3899460606428473
 30
0.0
 40
0.9872033544750674
 50
198.386332117841107
 51
199.2472291774537041
  0
ARC
  5
1F9B
  8
0
 10
500.5539944295409214
 20
-8.3909602273984856
 30
0.0
 40
0.9839872628
 50
125.7858306348999946
 51
159.2565763786001867
  0
ARC
  5
1F9C
  8
0
 10
500.5540248489879787
 20
-8.3910431295878531
 30
0.0
 40
0.9839836480803366
 50
90.0007790927192843
 51
111.5099831564641022
  0
ARC
  5
1F9D
  8
0
 10
500.5539283445409069
 20
-8.3907815959984866
 30
0.0
 40
0.9838028232999999
 50
123.9057900774989065
 51
125.788791932398496
  0
ARC
  5
1F9E
  8
0
 10
500.5535447938408993
 20
-8.3908402980984853
 30
0.0
 40
0.9835243262999998
 50
159.2538326197999936
 51
161.2922257148005087
  0
ARC
  5
1F9F
  8
0
 10
500.5540114690409155
 20
-8.3909932175984832
 30
0.0
 40
0.9675196849999999
 50
165.426055094483786
 51
194.245631915714597
  0
ARC
  5
1FA0
  8
0
 10
500.5540114690409155
 20
-8.3909932175984832
 30
0.0
 40
0.9645669290999999
 50
166.1313016280639943
 51
193.5399048828809043
  0
ARC
  5
1FA1
  8
0
 10
502.5185783981409031
 20
-12.48154439869848
 30
0.0
 40
0.2992125984
 50
270.0
 51
0.0
  0
ARC
  5
1FA2
  8
0
 10
502.5185783981409031
 20
-6.5839066034984848
 30
0.0
 40
0.2992125984
 50
0.0
 51
90.0
  0
LINE
  5
1FA3
  8
0
 10
501.1028883227409096
 20
-7.5742686211984838
 30
0.0
 11
501.1028218317409255
 21
-7.5742218094984848
 31
0.0
  0
LINE
  5
1FA4
  8
0
 10
501.0596092870409279
 20
-7.5467656725984851
 30
0.0
 11
501.0595663546408787
 21
-7.5467379520984847
 31
0.0
  0
LINE
  5
1FA5
  8
0
 10
501.4860062024408762
 20
-8.0752779605984841
 30
0.0
 11
501.4860404032407928
 21
-8.0753827048984856
 31
0.0
  0
LINE
  5
1FA6
  8
0
 10
501.4830130268085213
 20
-8.7153726993272116
 30
0.0
 11
501.4826113556408131
 21
-8.8616044948984865
 31
0.0
  0
LINE
  5
1FA7
  8
0
 10
501.4918156292408753
 20
-8.6764399566984842
 30
0.0
 11
501.4916034813409169
 21
-8.3975168621984864
 31
0.0
  0
LINE
  5
1FA8
  8
0
 10
501.4848393266408948
 20
-11.8793516183984806
 30
0.0
 11
501.4826113556408131
 21
-8.8616044948984865
 31
0.0
  0
LINE
  5
1FA9
  8
0
 10
501.4916034813409169
 20
-8.3975168621984864
 30
0.0
 11
501.4901735868126025
 21
-8.1005203710758167
 31
0.0
  0
ARC
  5
1FAA
  8
0
 10
501.1837100179408822
 20
-11.8795460192984805
 30
0.0
 40
0.3011293714
 50
357.3906704710000781
 51
0.0369885737999187
  0
ARC
  5
1FAB
  8
0
 10
501.1843025475616855
 20
-11.8796829443688807
 30
0.0
 40
0.3005312425894357
 50
332.7933971415732231
 51
357.4116051462477799
  0
ARC
  5
1FAC
  8
0
 10
501.1852924016806128
 20
-11.8805669488543106
 30
0.0
 40
0.2992469210461242
 50
270.1056463619731858
 51
332.8572780151018264
  0
ARC
  5
1FAD
  8
0
 10
501.4130768505140736
 20
-8.6764999666794722
 30
0.0
 40
0.0787388015947814
 50
341.6164188112238094
 51
0.0436674028863582
  0
ARC
  5
1FAE
  8
0
 10
501.411329855489214
 20
-8.1005779948278338
 30
0.0
 40
0.0788437523808647
 50
0.0418752023401477
 51
18.6360108118412597
  0
ARC
  5
1FAF
  8
0
 10
500.5443754034408244
 20
-8.4052677443984862
 30
0.0
 40
1.0012473339000001
 50
56.0950278933008306
 51
56.3261093772009076
  0
ARC
  5
1FB0
  8
0
 10
500.5457917939407935
 20
-8.4031095500984847
 30
0.0
 40
0.9986659307
 50
56.3250816171986202
 51
58.7857255119003028
  0
ARC
  5
1FB1
  8
0
 10
500.5485295563408954
 20
-8.4034224474984853
 30
0.0
 40
0.9975286227999999
 50
59.1797911573002793
 51
59.9935352356993192
  0
ARC
  5
1FB2
  8
0
 10
500.5501189599407894
 20
-8.4004488473984864
 30
0.0
 40
0.9941587265
 50
59.9871543787997794
 51
67.4299108902998086
  0
ARC
  5
1FB3
  8
0
 10
500.5514449915407909
 20
-8.3974287127984848
 30
0.0
 40
0.9908609554000001
 50
67.4336870422999652
 51
68.4878225749987166
  0
ARC
  5
1FB4
  8
0
 10
500.5505020795408768
 20
-8.3953835574984854
 30
0.0
 40
0.9896173315
 50
58.7871429888005821
 51
59.0393971607007799
  0
ARC
  5
1FB5
  8
0
 10
500.5509894402392774
 20
-8.3899460606428473
 30
0.0
 40
0.9872033544750674
 50
340.752770822546097
 51
341.613667882158893
  0
ARC
  5
1FB6
  8
0
 10
500.5540285085409096
 20
-8.3909602273984856
 30
0.0
 40
0.9839872628
 50
20.74342362139976
 51
54.2141693650999272
  0
ARC
  5
1FB7
  8
0
 10
500.5539980890937954
 20
-8.3910431295878531
 30
0.0
 40
0.9839836480803366
 50
68.4900168435358836
 51
89.9992209072807015
  0
ARC
  5
1FB8
  8
0
 10
500.5540945935408104
 20
-8.3907815959984866
 30
0.0
 40
0.9838028232999999
 50
54.2112080676015324
 51
56.0942099225010793
  0
ARC
  5
1FB9
  8
0
 10
500.554478144240818
 20
-8.3908402980984853
 30
0.0
 40
0.9835243262999998
 50
18.7077742851995197
 51
20.7461673801999815
  0
ARC
  5
1FBA
  8
0
 10
500.5540114690409155
 20
-8.3909932175984832
 30
0.0
 40
0.9675196849999999
 50
345.7543680842853746
 51
14.5739449055161696
  0
ARC
  5
1FBB
  8
0
 10
500.5540114690409155
 20
-8.3909932175984832
 30
0.0
 40
0.9645669290999999
 50
346.4600951171191241
 51
13.8686983719359294
  0
ARC
  5
1FBD
  8
0
 10
500.5540114690409155
 20
-8.3909932175984832
 30
0.0
 40
0.9940944881999998
 50
339.1376151058481128
 51
200.8623848941502104
  0
ENDSEC
  0
EOF
