  0
SECTION
  2
HEADER
  9
$ACADVER
  1
AC1009
  9
$INSBASE
 10
3649.1548030641852165
 20
166.5925610086574125
 30
0.0
  9
$EXTMIN
 10
3647.4874004088442234
 20
158.8401369312838085
 30
-0.0000000000112498
  9
$EXTMAX
 10
3656.3887274443040951
 20
166.6054508432056878
 30
0.0000000000002956
  9
$LIMMIN
 10
0.0
 20
0.0
  9
$LIMMAX
 10
11.6929133858000007
 20
8.2677165353999982
  9
$ORTHOMODE
 70
     0
  9
$REGENMODE
 70
     1
  9
$FILLMODE
 70
     1
  9
$QTEXTMODE
 70
     0
  9
$MIRRTEXT
 70
     0
  9
$DRAGMODE
 70
     2
  9
$LTSCALE
 40
0.6431102362
  9
$OSMODE
 70
  4095
  9
$ATTMODE
 70
     1
  9
$TEXTSIZE
 40
0.2
  9
$TRACEWID
 40
0.05
  9
$TEXTSTYLE
  7
STANDARD
  9
$CLAYER
  8
0
  9
$CELTYPE
  6
BYLAYER
  9
$CECOLOR
 62
   256
  9
$DIMSCALE
 40
1.0
  9
$DIMASZ
 40
0.1875
  9
$DIMEXO
 40
0.0625
  9
$DIMDLI
 40
0.4443307087
  9
$DIMRND
 40
0.0
  9
$DIMDLE
 40
0.0
  9
$DIMEXE
 40
0.125
  9
$DIMTP
 40
0.01
  9
$DIMTM
 40
0.01
  9
$DIMTXT
 40
2.0
  9
$DIMCEN
 40
0.1052362205
  9
$DIMTSZ
 40
0.0
  9
$DIMTOL
 70
     1
  9
$DIMLIM
 70
     0
  9
$DIMTIH
 70
     1
  9
$DIMTOH
 70
     1
  9
$DIMSE1
 70
     0
  9
$DIMSE2
 70
     0
  9
$DIMTAD
 70
     0
  9
$DIMZIN
 70
     0
  9
$DIMBLK
  1

  9
$DIMASO
 70
     1
  9
$DIMSHO
 70
     1
  9
$DIMPOST
  1
\X
  9
$DIMAPOST
  1

  9
$DIMALT
 70
     1
  9
$DIMALTD
 70
     2
  9
$DIMALTF
 40
25.3999999999999986
  9
$DIMLFAC
 40
1.0
  9
$DIMTOFL
 70
     0
  9
$DIMTVP
 40
0.0
  9
$DIMTIX
 70
     0
  9
$DIMSOXD
 70
     0
  9
$DIMSAH
 70
     0
  9
$DIMBLK1
  1

  9
$DIMBLK2
  1

  9
$DIMSTYLE
  2
STANDARD
  9
$DIMCLRD
 70
     0
  9
$DIMCLRE
 70
     0
  9
$DIMCLRT
 70
     0
  9
$DIMTFAC
 40
1.0
  9
$DIMGAP
 40
0.09
  9
$LUNITS
 70
     2
  9
$LUPREC
 70
     4
  9
$SKETCHINC
 40
0.1
  9
$FILLETRAD
 40
0.0
  9
$AUNITS
 70
     0
  9
$AUPREC
 70
     0
  9
$MENU
  1
.
  9
$ELEVATION
 40
0.0
  9
$PELEVATION
 40
0.0
  9
$THICKNESS
 40
0.0
  9
$LIMCHECK
 70
     0
  9
$BLIPMODE
 70
     0
  9
$CHAMFERA
 40
0.0
  9
$CHAMFERB
 40
0.0
  9
$SKPOLY
 70
     0
  9
$TDCREATE
 40
2458060.468368056230247
  9
$TDUPDATE
 40
2460019.9345601862296462
  9
$TDINDWG
 40
0.7362802083
  9
$TDUSRTIMER
 40
0.7362802083
  9
$USRTIMER
 70
     1
  9
$ANGBASE
 50
0.0
  9
$ANGDIR
 70
     0
  9
$PDMODE
 70
     0
  9
$PDSIZE
 40
0.3125
  9
$PLINEWID
 40
0.0
  9
$COORDS
 70
     1
  9
$SPLFRAME
 70
     0
  9
$SPLINETYPE
 70
     6
  9
$SPLINESEGS
 70
     8
  9
$ATTDIA
 70
     1
  9
$ATTREQ
 70
     1
  9
$HANDLING
 70
     1
  9
$HANDSEED
  5
11C44
  9
$SURFTAB1
 70
     6
  9
$SURFTAB2
 70
     6
  9
$SURFTYPE
 70
     6
  9
$SURFU
 70
     6
  9
$SURFV
 70
     6
  9
$UCSNAME
  2

  9
$UCSORG
 10
0.0
 20
0.0
 30
0.0
  9
$UCSXDIR
 10
1.0
 20
0.0
 30
0.0
  9
$UCSYDIR
 10
0.0
 20
1.0
 30
0.0
  9
$PUCSNAME
  2

  9
$PUCSORG
 10
0.0
 20
0.0
 30
0.0
  9
$PUCSXDIR
 10
1.0
 20
0.0
 30
0.0
  9
$PUCSYDIR
 10
0.0
 20
1.0
 30
0.0
  9
$USERI1
 70
     0
  9
$USERI2
 70
     0
  9
$USERI3
 70
     0
  9
$USERI4
 70
     0
  9
$USERI5
 70
     0
  9
$USERR1
 40
0.0
  9
$USERR2
 40
0.0
  9
$USERR3
 40
0.0
  9
$USERR4
 40
0.0
  9
$USERR5
 40
0.0
  9
$WORLDVIEW
 70
     1
  9
$SHADEDGE
 70
     3
  9
$SHADEDIF
 70
    70
  9
$TILEMODE
 70
     1
  9
$MAXACTVP
 70
    64
  9
$PLIMCHECK
 70
     0
  9
$PEXTMIN
 10
1.0000000000000000E+20
 20
1.0000000000000000E+20
 30
1.0000000000000000E+20
  9
$PEXTMAX
 10
-1.0000000000000000E+20
 20
-1.0000000000000000E+20
 30
-1.0000000000000000E+20
  9
$PLIMMIN
 10
0.0
 20
0.0
  9
$PLIMMAX
 10
12.0
 20
9.0
  9
$UNITMODE
 70
     0
  9
$VISRETAIN
 70
     1
  9
$PLINEGEN
 70
     0
  9
$PSLTSCALE
 70
     1
  0
ENDSEC
  0
SECTION
  2
TABLES
  0
TABLE
  2
VPORT
 70
     1
  0
VPORT
  2
*ACTIVE
 70
     0
 10
0.0
 20
0.0
 11
1.0
 21
1.0
 12
48.9085229109486974
 22
-1.8794552582630779
 13
0.0
 23
0.0
 14
1.0
 24
1.0
 15
0.0
 25
0.0
 16
0.0
 26
0.0
 36
35.5297765751731518
 17
3603.029541015625
 27
164.6022491455078125
 37
0.0
 40
7.8249706129097829
 41
1.593589743589743
 42
50.0
 43
0.0
 44
0.0
 50
0.0
 51
0.0
 71
     0
 72
   100
 73
     1
 74
     1
 75
     0
 76
     0
 77
     0
 78
     0
  0
ENDTAB
  0
TABLE
  2
LTYPE
 70
     2
  0
LTYPE
  2
CONTINUOUS
 70
     0
  3
Solid line
 72
    65
 73
     0
 40
0.0
  0
LTYPE
  2
PHANTOM2
 70
     0
  3
___ _ _ ___ _ _ ___ _ _ ___ _ _
 72
    65
 73
     6
 40
1.25
 49
0.625
 49
-0.125
 49
0.125
 49
-0.125
 49
0.125
 49
-0.125
  0
ENDTAB
  0
TABLE
  2
LAYER
 70
     2
  0
LAYER
  2
0
 70
     0
 62
   255
  6
CONTINUOUS
  0
LAYER
  2
DEFPOINTS
 70
     0
 62
     7
  6
CONTINUOUS
  0
ENDTAB
  0
TABLE
  2
STYLE
 70
     1
  0
STYLE
  2
STANDARD
 70
     0
 40
0.0
 41
0.8
 50
0.0
 71
     0
 42
0.2
  3
txt
  4

  0
ENDTAB
  0
TABLE
  2
VIEW
 70
     0
  0
ENDTAB
  0
TABLE
  2
UCS
 70
     0
  0
ENDTAB
  0
TABLE
  2
APPID
 70
    10
  0
APPID
  2
ACAD
 70
     0
  0
APPID
  2
ACAD_MLEADERVER
 70
     0
  0
APPID
  2
ACAD_EXEMPT_FROM_CAD_STANDARDS
 70
     0
  0
APPID
  2
ACAD_NAV_VCDISPLAY
 70
     0
  0
APPID
  2
ACAECLAYERSTANDARD
 70
     0
  0
APPID
  2
ACCMTRANSPARENCY
 70
     0
  0
APPID
  2
ACAD_DSTYLE_DIMJAG
 70
     0
  0
APPID
  2
ACAD_DSTYLE_DIMTALN
 70
     0
  0
APPID
  2
ACDBATTR
 70
     0
  0
APPID
  2
ACAD_PSEXT
 70
     0
  0
ENDTAB
  0
TABLE
  2
DIMSTYLE
 70
     1
  0
DIMSTYLE
  2
STANDARD
 70
     0
  3

  4

  5

  6

  7

 40
1.0
 41
0.1875
 42
0.0625
 43
0.38
 44
0.125
 45
0.0
 46
0.0
 47
0.01
 48
0.01
140
0.15625
141
0.09
142
0.0
143
25.3999999999999986
144
1.0
145
0.0
146
1.0
147
0.09
 71
     1
 72
     0
 73
     1
 74
     1
 75
     0
 76
     0
 77
     0
 78
     4
170
     0
171
     2
172
     0
173
     0
174
     0
175
     0
176
     0
177
     0
178
     0
  0
ENDTAB
  0
ENDSEC
  0
SECTION
  2
BLOCKS
  0
BLOCK
  8
0
  2
$MODEL_SPACE
 70
     0
 10
0.0
 20
0.0
 30
0.0
  3
$MODEL_SPACE
  1

  0
ENDBLK
  5
21
  8
0
  0
BLOCK
 67
     1
  8
0
  2
$PAPER_SPACE
 70
     0
 10
0.0
 20
0.0
 30
0.0
  3
$PAPER_SPACE
  1

  0
ENDBLK
  5
1D
 67
     1
  8
0
  0
BLOCK
  8
0
  2
_FILLED
 70
     0
 10
0.0
 20
0.0
 30
0.0
  3
_FILLED
  1

  0
SOLID
  5
11510
  8
0
  6
BYBLOCK
 62
     0
 10
0.0
 20
0.0
 30
0.0
 11
-1.0
 21
0.1666666667
 31
0.0
 12
-1.0
 22
-0.1666666667
 32
0.0
 13
-1.0
 23
-0.1666666667
 33
0.0
  0
ENDBLK
  5
11511
  8
0
  6
BYBLOCK
 62
     0
  0
ENDSEC
  0
SECTION
  2
ENTITIES
  0
ATTDEF
  5
AA11
  8
DEFPOINTS
 10
3649.1517017438181938
 20
166.5974163923486913
 30
0.0
 40
0.001
  1
K-23494ME-4
  3

  2
MODELNUMBER
 70
     0
1001
ACDBATTR
1070
     0
1070
     1
  0
ATTDEF
  5
AA12
  8
DEFPOINTS
 10
3649.1517017438181938
 20
166.5957497256821114
 30
0.0
 40
0.001
  1
PARALLEL
  3

  2
TRADENAME
 70
     0
1001
ACDBATTR
1070
     0
1070
     1
  0
ATTDEF
  5
AA13
  8
DEFPOINTS
 10
3649.1517017438181938
 20
166.5940830590153894
 30
0.0
 40
0.001
  1
BATH AND SHOWER FAUCET
  3

  2
PRODUCT
 70
     0
1001
ACDBATTR
1070
     0
1070
     1
  0
LINE
  5
11B61
  8
0
 10
3648.0368740109229293
 20
158.8409162860899073
 30
0.0
 11
3650.783330703923184
 21
158.8409162626898876
 31
0.0
  0
LINE
  5
11B62
  8
0
 10
3651.3833307252730265
 20
161.3563743601899887
 30
0.0
 11
3656.044609201323965
 21
161.3563405456899886
 31
0.0
  0
LINE
  5
11B63
  8
0
 10
3649.7946191816231476
 20
164.948815884390001
 30
0.0
 11
3649.7454065835231631
 21
164.9075216107898996
 31
0.0
  0
LINE
  5
11B64
  8
0
 10
3647.7368740559240905
 20
164.1272067579899954
 30
0.0
 11
3647.7368740559240905
 21
159.1409162885898922
 31
0.0
  0
LINE
  5
11B65
  8
0
 10
3647.855642799924226
 20
166.2382302777899099
 30
0.0
 11
3647.855642799924226
 21
166.5630334273899962
 31
0.0
  0
LINE
  5
11B66
  8
0
 10
3648.4068238948229919
 20
165.3622460210899874
 30
0.0
 11
3648.4068239012231061
 21
166.1201200368900004
 31
0.0
  0
LINE
  5
11B67
  8
0
 10
3648.5150916225238689
 20
164.9488164384900131
 30
0.0
 11
3648.5150916193229023
 21
165.3327184611900122
 31
0.0
  0
LINE
  5
11B68
  8
0
 10
3648.5643042248229904
 20
164.4941357739899104
 30
0.0
 11
3648.5643042213241642
 21
164.9075216007900053
 31
0.0
  0
LINE
  5
11B69
  8
0
 10
3648.7335955640228349
 20
164.4272067485900095
 30
0.0
 11
3648.7335955634239326
 21
164.4941357753899069
 31
0.0
  0
LINE
  5
11B6A
  8
0
 10
3656.0446097631238445
 20
164.4272066864899955
 30
0.0
 11
3648.0368740584231091
 21
164.4272067545898892
 31
0.0
  0
LINE
  5
11B6B
  8
0
 10
3651.1033402969228518
 20
164.4468917631899103
 30
0.0
 11
3650.8671198245228879
 21
164.4468917745898864
 31
0.0
  0
LINE
  5
11B6C
  8
0
 10
3648.5643042248229904
 20
164.4941357739899104
 30
0.0
 11
3649.7454065870238082
 21
164.4941357839898899
 31
0.0
  0
LINE
  5
11B6D
  8
0
 10
3648.4363514536239563
 20
165.3327184617899093
 30
0.0
 11
3649.8733593276238025
 21
165.3327184495900042
 31
0.0
  0
LINE
  5
11B6E
  8
0
 10
3649.5761152490231325
 20
164.4272067414900107
 30
0.0
 11
3649.5761152484237755
 21
164.4941357825898933
 31
0.0
  0
LINE
  5
11B6F
  8
0
 10
3649.7454065870238082
 20
164.4941357839898899
 30
0.0
 11
3649.7454065835231631
 21
164.9075216107898996
 31
0.0
  0
LINE
  5
11B70
  8
0
 10
3649.7946191816231476
 20
164.948815884390001
 30
0.0
 11
3649.7946191783239556
 21
165.3327184502900025
 31
0.0
  0
LINE
  5
11B71
  8
0
 10
3649.9028868869231701
 20
165.3622460083900023
 30
0.0
 11
3649.9028868934237835
 21
166.1201200241899869
 31
0.0
  0
LINE
  5
11B72
  8
0
 10
3647.8950128783230866
 20
166.1988601986899141
 30
0.0
 11
3650.4146979176239256
 21
166.198860177289987
 31
0.0
  0
LINE
  5
11B73
  8
0
 10
3648.5643042213241642
 20
164.9075216007900053
 30
0.0
 11
3648.5150916225238689
 21
164.9488164384900131
 31
0.0
  0
LINE
  5
11B74
  8
0
 10
3650.4540679967240067
 20
166.5630334052899002
 30
0.0
 11
3650.4540679967240067
 21
166.2368808341672093
 31
0.0
  0
LINE
  5
11B75
  8
0
 10
3650.8671198245228879
 20
164.4468917745898864
 30
0.0
 11
3650.8671198235228985
 21
164.4272067351899977
 31
0.0
  0
LINE
  5
11B76
  8
0
 10
3647.8849691460932263
 20
166.5925610087074915
 30
0.0
 11
3650.4246369822772067
 21
166.5925610086075039
 31
0.0
  0
LINE
  5
11B77
  8
0
 10
3651.0832969478237828
 20
159.1409162601900107
 30
0.0
 11
3651.0832969478237828
 21
161.0563405878395997
 31
0.0
  0
LINE
  5
11B78
  8
0
 10
3651.1033402969228518
 20
164.4468917631899103
 30
0.0
 11
3651.1033402960238163
 21
164.4272067237899932
 31
0.0
  0
LINE
  5
11B79
  8
0
 10
3656.0839795182241687
 20
161.3957106186900035
 30
0.0
 11
3656.0839795437232169
 21
164.3878366008900116
 31
0.0
  0
ARC
  5
11B7A
  8
0
 10
3648.0367924689048778
 20
159.1408346990845928
 30
0.0
 40
0.2999184240795109
 50
179.9844133137881101
 51
270.0155776143827779
  0
ARC
  5
11B7B
  8
0
 10
3651.3833307227228033
 20
161.0563405852898882
 30
0.0
 40
0.3000337749
 50
89.9999995131082784
 51
179.9999995131001072
  0
ARC
  5
11B7C
  8
0
 10
3650.7834360664019187
 20
159.1407771578649033
 30
0.0
 40
0.2998609136855923
 50
269.9798679148190104
 51
0.0265789106525738
  0
ARC
  5
11B7D
  8
0
 10
3648.0367925397249564
 20
164.1272882707905012
 30
0.0
 40
0.299918494877952
 50
89.9844268441666912
 51
180.0155720290183865
  0
ARC
  5
11B7E
  8
0
 10
3648.3280837437241644
 20
166.1201200375899987
 30
0.0
 40
0.0787401575
 50
359.9999995131000787
 51
89.9999995131082784
  0
ARC
  5
11B7F
  8
0
 10
3649.981627050824045
 20
166.1201200234899886
 30
0.0
 40
0.0787401575
 50
89.9999995131082784
 51
179.9999995131001072
  0
ARC
  5
11B80
  8
0
 10
3650.4150030766882082
 20
166.2379382134004118
 30
0.0
 40
0.0390792275801831
 50
269.5525883819638011
 51
358.4495403890571197
  0
ARC
  5
11B81
  8
0
 10
3647.8946206774321581
 20
166.2378380763049108
 30
0.0
 40
0.038979850654995
 50
179.4235003319238899
 51
270.5764986942725727
  0
ARC
  5
11B82
  8
0
 10
3647.8850697540588044
 20
166.5631340545056958
 30
0.0
 40
0.0294271261856169
 50
90.1958879745845792
 51
180.1959254549452965
  0
ARC
  5
11B83
  8
0
 10
3650.4245887351999045
 20
166.5630817470288036
 30
0.0
 40
0.0294793011601918
 50
359.9060433615202896
 51
89.9062273457946759
  0
ARC
  5
11B84
  8
0
 10
3648.4363514538231357
 20
165.3622460208898985
 30
0.0
 40
0.0295275591
 50
179.9999995131001072
 51
269.999999513108321
  0
ARC
  5
11B85
  8
0
 10
3649.8733593279230263
 20
165.3622460086899082
 30
0.0
 40
0.0295275591
 50
269.999999513108321
 51
359.9999995131000787
  0
ARC
  5
11B86
  8
0
 10
3656.0446103464942098
 20
161.395709717412501
 30
0.0
 40
0.0393691717392175
 50
269.9983333794392024
 51
0.001311670811277
  0
ARC
  5
11B87
  8
0
 10
3656.0446261656520619
 20
164.3878533082902891
 30
0.0
 40
0.0393533816179259
 50
359.9756751893211231
 51
90.0238809386032983
  0
LINE
  5
11B88
  8
0
 10
3655.7001309926240538
 20
164.9488159285075142
 30
0.0
 11
3655.6509183945231598
 21
164.9075216549074128
 31
0.0
  0
LINE
  5
11B89
  8
0
 10
3653.7611546109228584
 20
166.2382303219073947
 30
0.0
 11
3653.7611546109228584
 21
166.5630334715075094
 31
0.0
  0
LINE
  5
11B8A
  8
0
 10
3654.312335705823898
 20
165.3622460652075006
 30
0.0
 11
3654.3123357122231027
 21
166.1201200810075136
 31
0.0
  0
LINE
  5
11B8B
  8
0
 10
3654.4206034335238655
 20
164.9488164826074126
 30
0.0
 11
3654.4206034303238084
 21
165.3327185053074118
 31
0.0
  0
LINE
  5
11B8C
  8
0
 10
3654.4698160358238965
 20
164.4941358181073952
 30
0.0
 11
3654.4698160323241609
 21
164.9075216449074048
 31
0.0
  0
LINE
  5
11B8D
  8
0
 10
3654.6391073750241958
 20
164.427206792707409
 30
0.0
 11
3654.6391073744239293
 21
164.4941358195073917
 31
0.0
  0
LINE
  5
11B8E
  8
0
 10
3654.4698160358238965
 20
164.4941358181073952
 30
0.0
 11
3655.6509183980228954
 21
164.4941358281074031
 31
0.0
  0
LINE
  5
11B8F
  8
0
 10
3654.341863264623953
 20
165.332718505907394
 30
0.0
 11
3655.7788711386237992
 21
165.3327184937074037
 31
0.0
  0
LINE
  5
11B90
  8
0
 10
3655.4816270600231292
 20
164.4272067856074102
 30
0.0
 11
3655.4816270594242269
 21
164.4941358267074065
 31
0.0
  0
LINE
  5
11B91
  8
0
 10
3655.6509183980228954
 20
164.4941358281074031
 30
0.0
 11
3655.6509183945231598
 21
164.9075216549074128
 31
0.0
  0
LINE
  5
11B92
  8
0
 10
3655.7001309926240538
 20
164.9488159285075142
 30
0.0
 11
3655.7001309893239522
 21
165.332718494407402
 31
0.0
  0
LINE
  5
11B93
  8
0
 10
3655.8083986979231668
 20
165.3622460525074018
 30
0.0
 11
3655.8083987044237801
 21
166.1201200683073864
 31
0.0
  0
LINE
  5
11B94
  8
0
 10
3653.8005246893230833
 20
166.1988602428073989
 30
0.0
 11
3656.3202097286239223
 21
166.1988602214075001
 31
0.0
  0
LINE
  5
11B95
  8
0
 10
3654.4698160323241609
 20
164.9075216449074048
 30
0.0
 11
3654.4206034335238655
 21
164.9488164826074126
 31
0.0
  0
LINE
  5
11B96
  8
0
 10
3656.3595798077230938
 20
166.5630334549092879
 30
0.0
 11
3656.3595798077230938
 21
166.2382302998074124
 31
0.0
  0
LINE
  5
11B97
  8
0
 10
3653.79068217292388
 20
166.5925610087074915
 30
0.0
 11
3656.3300522517229183
 21
166.5925610087074062
 31
0.0
  0
ARC
  5
11B98
  8
0
 10
3654.2335955547227968
 20
166.1201200817073982
 30
0.0
 40
0.0787401575
 50
359.9999995131000787
 51
89.9999995131082784
  0
ARC
  5
11B99
  8
0
 10
3655.8871388618231322
 20
166.1201200676075018
 30
0.0
 40
0.0787401575
 50
89.9999995131082784
 51
179.9999995131001072
  0
ARC
  5
11B9A
  8
0
 10
3656.3202097290231904
 20
166.2382303001074035
 30
0.0
 40
0.0393700787
 50
269.999999513108321
 51
359.9999995131000787
  0
ARC
  5
11B9B
  8
0
 10
3653.8001534599379738
 20
166.2378590919277883
 30
0.0
 40
0.0390006158431634
 50
179.4546179904797043
 51
270.5453810357220163
  0
ARC
  5
11B9C
  8
0
 10
3653.7906282844528505
 20
166.5630873352235994
 30
0.0
 40
0.0294737227476928
 50
89.8952427350633059
 51
180.1047091390209118
  0
ARC
  5
11B9D
  8
0
 10
3656.324869514402053
 20
166.5578507150997893
 30
0.0
 40
0.0350950887576142
 50
8.4923332412977057
 51
81.507671027596615
  0
ARC
  5
11B9E
  8
0
 10
3654.3418632648240418
 20
165.3622460650074117
 30
0.0
 40
0.0295275591
 50
179.9999995131001072
 51
269.999999513108321
  0
ARC
  5
11B9F
  8
0
 10
3655.7788711389239324
 20
165.362246052807393
 30
0.0
 40
0.0295275591
 50
269.999999513108321
 51
359.9999995131000787
  0
CIRCLE
  5
11BA0
  8
0
 10
3652.5582506858308989
 20
163.2756308999854014
 30
0.0
 40
0.3954832699021456
  0
ARC
  5
11BA1
  8
0
 10
3654.1896536827239288
 20
161.2972854035899104
 30
0.0
 40
0.0590551181000227
 50
0.5000004869212517
 51
78.343584448082737
  0
LINE
  5
11BA2
  8
0
 10
3654.24870655218092
 20
161.2978007506762879
 30
0.0
 11
3654.251524363876797
 21
160.9749118338532128
 31
0.0
  0
LINE
  5
11BA3
  8
0
 10
3654.2490546264721161
 20
161.2579154271658126
 30
0.0
 11
3654.0529365123238676
 21
161.2579154271658126
 31
0.0
  0
ARC
  5
11BA4
  8
0
 10
3654.0529365183319896
 20
161.2379847727708864
 30
0.0
 40
0.0199306543948987
 50
90.0000172727882131
 51
179.7858437071149069
  0
LINE
  5
11BA5
  8
0
 10
3654.0330060031587891
 20
161.2380592680505913
 30
0.0
 11
3654.0330060031587891
 21
160.0504852705525138
 31
0.0
  0
ARC
  5
11BA6
  8
0
 10
3654.0859667747081403
 20
160.0507493428193015
 30
0.0
 40
0.0529614299022239
 50
180.285685055996197
 51
264.0533822033762021
  0
LINE
  5
11BA7
  8
0
 10
3654.0804798738231511
 20
159.9980729061898899
 30
0.0
 11
3656.0402547737880923
 21
159.9980729227899019
 31
0.0
  0
ARC
  5
11BA8
  8
0
 10
3654.0964757333240414
 20
161.2382303865898905
 30
0.0
 40
0.0196850393999857
 50
2.0088562715383489
 51
68.9920524744582337
  0
LINE
  5
11BA9
  8
0
 10
3654.1161486747050731
 20
161.2389204254340029
 30
0.0
 11
3654.1211591085661894
 21
161.0960734357016975
 31
0.0
  0
ARC
  5
11BAA
  8
0
 10
3654.1630366628792217
 20
161.1005517390036061
 30
0.0
 40
0.0421163240989191
 50
186.1039009691442061
 51
225.115857486670194
  0
ARC
  5
11BAB
  8
0
 10
3654.55729629996722
 20
161.4730385676944877
 30
0.0
 40
0.5844884257775309
 50
223.4989787921734887
 51
238.4565807605565908
  0
ARC
  5
11BAC
  8
0
 10
3654.8662027338250482
 20
162.0278593671698957
 30
0.0
 40
1.2192325481218951
 50
239.7249321781937965
 51
257.67213433815391
  0
ARC
  5
11BAD
  8
0
 10
3654.8083503613947869
 20
161.863500420130606
 30
0.0
 40
1.0465309832965961
 50
258.8453000648120224
 51
270.0835737540772925
  0
LINE
  5
11BAE
  8
0
 10
3654.8098768698528147
 20
160.8169705501451858
 30
0.0
 11
3655.0603672441238814
 21
160.8170159538408939
 31
0.0
  0
ARC
  5
11BAF
  8
0
 10
3655.931080805523834
 20
161.2972854035899104
 30
0.0
 40
0.0590551181000227
 50
101.6564155519172061
 51
179.4999995130804109
  0
LINE
  5
11BB0
  8
0
 10
3655.8720279360659333
 20
161.2978007506762879
 30
0.0
 11
3655.8692101243709658
 21
160.9749118338532128
 31
0.0
  0
LINE
  5
11BB1
  8
0
 10
3655.8716798617738277
 20
161.2579154271658126
 30
0.0
 11
3656.0677979759238951
 21
161.2579154271658126
 31
0.0
  0
ARC
  5
11BB2
  8
0
 10
3656.0677979699148636
 20
161.2379847727708864
 30
0.0
 40
0.0199306543948987
 50
0.2141562928833985
 51
89.9999827272117585
  0
LINE
  5
11BB3
  8
0
 10
3656.0877284850889737
 20
161.2380592680505913
 30
0.0
 11
3656.0877284867601702
 21
160.0504852705525138
 31
0.0
  0
ARC
  5
11BB4
  8
0
 10
3656.0347677119539185
 20
160.0507493459433022
 30
0.0
 40
0.0529614331735423
 50
275.9467924904809024
 51
359.7143115819251875
  0
ARC
  5
11BB5
  8
0
 10
3656.0242587549241762
 20
161.2382303865898905
 30
0.0
 40
0.0196850393999857
 50
111.0079475255416952
 51
177.9911437284615943
  0
LINE
  5
11BB6
  8
0
 10
3656.0045858135431445
 20
161.2389204254340029
 30
0.0
 11
3655.9995753796811186
 21
161.0960734357016975
 31
0.0
  0
ARC
  5
11BB7
  8
0
 10
3655.9576978253689958
 20
161.1005517390036061
 30
0.0
 40
0.0421163240989191
 50
314.8841425133297207
 51
353.8960990308556802
  0
ARC
  5
11BB8
  8
0
 10
3655.5634381882809976
 20
161.4730385676944877
 30
0.0
 40
0.5844884257775309
 50
301.5434192394433808
 51
316.5010212078265113
  0
ARC
  5
11BB9
  8
0
 10
3655.2545317544218051
 20
162.0278593671698957
 30
0.0
 40
1.2192325481218951
 50
282.3278656618462037
 51
300.2750678218062035
  0
ARC
  5
11BBA
  8
0
 10
3655.3123841268511569
 20
161.863500420130606
 30
0.0
 40
1.0465309832965961
 50
269.9164262459227075
 51
281.1546999351879776
  0
LINE
  5
11BBB
  8
0
 10
3655.3108576183940386
 20
160.8169705501451858
 30
0.0
 11
3655.0603672441238814
 21
160.8170159538408939
 31
0.0
  0
ARC
  5
11BBD
  8
0
 10
3654.1574796035920372
 20
164.3884826947912927
 30
0.0
 40
0.0417239545327501
 50
111.8594285259405012
 51
180.8816304764382892
  0
LINE
  5
11BBE
  8
0
 10
3654.1157605884659461
 20
164.3878406988426093
 30
0.0
 11
3654.1157552156369093
 21
161.3957176284575041
 31
0.0
  0
ARC
  5
11BBF
  8
0
 10
3654.1542203474259622
 20
161.3943152901686062
 30
0.0
 40
0.0384906860976385
 50
177.9120701775636064
 51
260.4835571447059124
  0
ENDSEC
  0
EOF
