  0
SECTION
  2
HEADER
  9
$ACADVER
  1
AC1009
  9
$INSBASE
 10
3649.8152249363120063
 20
164.9821637514525037
 30
0.0
  9
$EXTMIN
 10
3648.3226827722160124
 20
161.5350202050574921
 30
-0.0000000000112498
  9
$EXTMAX
 10
3657.2233330861758986
 20
166.4413153489012984
 30
0.0000000000002956
  9
$LIMMIN
 10
0.0
 20
0.0
  9
$LIMMAX
 10
11.6929133858000007
 20
8.2677165353999982
  9
$ORTHOMODE
 70
     0
  9
$REGENMODE
 70
     1
  9
$FILLMODE
 70
     1
  9
$QTEXTMODE
 70
     0
  9
$MIRRTEXT
 70
     0
  9
$DRAGMODE
 70
     2
  9
$LTSCALE
 40
0.6431102362
  9
$OSMODE
 70
  4095
  9
$ATTMODE
 70
     1
  9
$TEXTSIZE
 40
0.2
  9
$TRACEWID
 40
0.05
  9
$TEXTSTYLE
  7
STANDARD
  9
$CLAYER
  8
0
  9
$CELTYPE
  6
BYLAYER
  9
$CECOLOR
 62
   256
  9
$DIMSCALE
 40
1.0
  9
$DIMASZ
 40
0.1875
  9
$DIMEXO
 40
0.0625
  9
$DIMDLI
 40
0.4443307087
  9
$DIMRND
 40
0.0
  9
$DIMDLE
 40
0.0
  9
$DIMEXE
 40
0.125
  9
$DIMTP
 40
0.01
  9
$DIMTM
 40
0.01
  9
$DIMTXT
 40
2.0
  9
$DIMCEN
 40
0.1052362205
  9
$DIMTSZ
 40
0.0
  9
$DIMTOL
 70
     1
  9
$DIMLIM
 70
     0
  9
$DIMTIH
 70
     1
  9
$DIMTOH
 70
     1
  9
$DIMSE1
 70
     0
  9
$DIMSE2
 70
     0
  9
$DIMTAD
 70
     0
  9
$DIMZIN
 70
     0
  9
$DIMBLK
  1

  9
$DIMASO
 70
     1
  9
$DIMSHO
 70
     1
  9
$DIMPOST
  1
\X
  9
$DIMAPOST
  1

  9
$DIMALT
 70
     1
  9
$DIMALTD
 70
     2
  9
$DIMALTF
 40
25.3999999999999986
  9
$DIMLFAC
 40
1.0
  9
$DIMTOFL
 70
     0
  9
$DIMTVP
 40
0.0
  9
$DIMTIX
 70
     0
  9
$DIMSOXD
 70
     0
  9
$DIMSAH
 70
     0
  9
$DIMBLK1
  1

  9
$DIMBLK2
  1

  9
$DIMSTYLE
  2
STANDARD
  9
$DIMCLRD
 70
     0
  9
$DIMCLRE
 70
     0
  9
$DIMCLRT
 70
     0
  9
$DIMTFAC
 40
1.0
  9
$DIMGAP
 40
0.09
  9
$LUNITS
 70
     2
  9
$LUPREC
 70
     4
  9
$SKETCHINC
 40
0.1
  9
$FILLETRAD
 40
0.0
  9
$AUNITS
 70
     0
  9
$AUPREC
 70
     0
  9
$MENU
  1
.
  9
$ELEVATION
 40
0.0
  9
$PELEVATION
 40
0.0
  9
$THICKNESS
 40
0.0
  9
$LIMCHECK
 70
     0
  9
$BLIPMODE
 70
     0
  9
$CHAMFERA
 40
0.0
  9
$CHAMFERB
 40
0.0
  9
$SKPOLY
 70
     0
  9
$TDCREATE
 40
2458060.468368056230247
  9
$TDUPDATE
 40
2460019.9346412038430572
  9
$TDINDWG
 40
0.7366158565000001
  9
$TDUSRTIMER
 40
0.7366158565000001
  9
$USRTIMER
 70
     1
  9
$ANGBASE
 50
0.0
  9
$ANGDIR
 70
     0
  9
$PDMODE
 70
     0
  9
$PDSIZE
 40
0.3125
  9
$PLINEWID
 40
0.0
  9
$COORDS
 70
     1
  9
$SPLFRAME
 70
     0
  9
$SPLINETYPE
 70
     6
  9
$SPLINESEGS
 70
     8
  9
$ATTDIA
 70
     1
  9
$ATTREQ
 70
     1
  9
$HANDLING
 70
     1
  9
$HANDSEED
  5
12D8F
  9
$SURFTAB1
 70
     6
  9
$SURFTAB2
 70
     6
  9
$SURFTYPE
 70
     6
  9
$SURFU
 70
     6
  9
$SURFV
 70
     6
  9
$UCSNAME
  2

  9
$UCSORG
 10
0.0
 20
0.0
 30
0.0
  9
$UCSXDIR
 10
1.0
 20
0.0
 30
0.0
  9
$UCSYDIR
 10
0.0
 20
1.0
 30
0.0
  9
$PUCSNAME
  2

  9
$PUCSORG
 10
0.0
 20
0.0
 30
0.0
  9
$PUCSXDIR
 10
1.0
 20
0.0
 30
0.0
  9
$PUCSYDIR
 10
0.0
 20
1.0
 30
0.0
  9
$USERI1
 70
     0
  9
$USERI2
 70
     0
  9
$USERI3
 70
     0
  9
$USERI4
 70
     0
  9
$USERI5
 70
     0
  9
$USERR1
 40
0.0
  9
$USERR2
 40
0.0
  9
$USERR3
 40
0.0
  9
$USERR4
 40
0.0
  9
$USERR5
 40
0.0
  9
$WORLDVIEW
 70
     1
  9
$SHADEDGE
 70
     3
  9
$SHADEDIF
 70
    70
  9
$TILEMODE
 70
     1
  9
$MAXACTVP
 70
    64
  9
$PLIMCHECK
 70
     0
  9
$PEXTMIN
 10
1.0000000000000000E+20
 20
1.0000000000000000E+20
 30
1.0000000000000000E+20
  9
$PEXTMAX
 10
-1.0000000000000000E+20
 20
-1.0000000000000000E+20
 30
-1.0000000000000000E+20
  9
$PLIMMIN
 10
0.0
 20
0.0
  9
$PLIMMAX
 10
12.0
 20
9.0
  9
$UNITMODE
 70
     0
  9
$VISRETAIN
 70
     1
  9
$PLINEGEN
 70
     0
  9
$PSLTSCALE
 70
     1
  0
ENDSEC
  0
SECTION
  2
TABLES
  0
TABLE
  2
VPORT
 70
     1
  0
VPORT
  2
*ACTIVE
 70
     0
 10
0.0
 20
0.0
 11
1.0
 21
1.0
 12
49.7434669135709484
 22
-0.6140813685283604
 13
0.0
 23
0.0
 14
1.0
 24
1.0
 15
0.0
 25
0.0
 16
0.0
 26
0.0
 36
35.5297765751731518
 17
3603.029541015625
 27
164.6022491455078125
 37
0.0
 40
5.6122092007074684
 41
1.593589743589743
 42
50.0
 43
0.0
 44
0.0
 50
0.0
 51
0.0
 71
     0
 72
   100
 73
     1
 74
     1
 75
     0
 76
     0
 77
     0
 78
     0
  0
ENDTAB
  0
TABLE
  2
LTYPE
 70
     2
  0
LTYPE
  2
CONTINUOUS
 70
     0
  3
Solid line
 72
    65
 73
     0
 40
0.0
  0
LTYPE
  2
PHANTOM2
 70
     0
  3
___ _ _ ___ _ _ ___ _ _ ___ _ _
 72
    65
 73
     6
 40
1.25
 49
0.625
 49
-0.125
 49
0.125
 49
-0.125
 49
0.125
 49
-0.125
  0
ENDTAB
  0
TABLE
  2
LAYER
 70
     2
  0
LAYER
  2
0
 70
     0
 62
   255
  6
CONTINUOUS
  0
LAYER
  2
DEFPOINTS
 70
     0
 62
     7
  6
CONTINUOUS
  0
ENDTAB
  0
TABLE
  2
STYLE
 70
     1
  0
STYLE
  2
STANDARD
 70
     0
 40
0.0
 41
0.8
 50
0.0
 71
     0
 42
0.2
  3
txt
  4

  0
ENDTAB
  0
TABLE
  2
VIEW
 70
     0
  0
ENDTAB
  0
TABLE
  2
UCS
 70
     0
  0
ENDTAB
  0
TABLE
  2
APPID
 70
    10
  0
APPID
  2
ACAD
 70
     0
  0
APPID
  2
ACAD_MLEADERVER
 70
     0
  0
APPID
  2
ACAD_EXEMPT_FROM_CAD_STANDARDS
 70
     0
  0
APPID
  2
ACAD_NAV_VCDISPLAY
 70
     0
  0
APPID
  2
ACAECLAYERSTANDARD
 70
     0
  0
APPID
  2
ACCMTRANSPARENCY
 70
     0
  0
APPID
  2
ACAD_DSTYLE_DIMJAG
 70
     0
  0
APPID
  2
ACAD_DSTYLE_DIMTALN
 70
     0
  0
APPID
  2
ACDBATTR
 70
     0
  0
APPID
  2
ACAD_PSEXT
 70
     0
  0
ENDTAB
  0
TABLE
  2
DIMSTYLE
 70
     1
  0
DIMSTYLE
  2
STANDARD
 70
     0
  3

  4

  5

  6

  7

 40
1.0
 41
0.1875
 42
0.0625
 43
0.38
 44
0.125
 45
0.0
 46
0.0
 47
0.01
 48
0.01
140
0.15625
141
0.09
142
0.0
143
25.3999999999999986
144
1.0
145
0.0
146
1.0
147
0.09
 71
     1
 72
     0
 73
     1
 74
     1
 75
     0
 76
     0
 77
     0
 78
     4
170
     0
171
     2
172
     0
173
     0
174
     0
175
     0
176
     0
177
     0
178
     0
  0
ENDTAB
  0
ENDSEC
  0
SECTION
  2
BLOCKS
  0
BLOCK
  8
0
  2
$MODEL_SPACE
 70
     0
 10
0.0
 20
0.0
 30
0.0
  3
$MODEL_SPACE
  1

  0
ENDBLK
  5
21
  8
0
  0
BLOCK
 67
     1
  8
0
  2
$PAPER_SPACE
 70
     0
 10
0.0
 20
0.0
 30
0.0
  3
$PAPER_SPACE
  1

  0
ENDBLK
  5
1D
 67
     1
  8
0
  0
ENDSEC
  0
SECTION
  2
ENTITIES
  0
ATTDEF
  5
AA11
  8
DEFPOINTS
 10
3649.812180123410144
 20
164.986094001270402
 30
0.0
 40
0.001
  1
K-23494ME-4
  3

  2
MODELNUMBER
 70
     0
1001
ACDBATTR
1070
     0
1070
     1
  0
ATTDEF
  5
AA12
  8
DEFPOINTS
 10
3649.812180123410144
 20
164.9844273346037085
 30
0.0
 40
0.001
  1
PARALLEL
  3

  2
TRADENAME
 70
     0
1001
ACDBATTR
1070
     0
1070
     1
  0
ATTDEF
  5
AA13
  8
DEFPOINTS
 10
3649.812180123410144
 20
164.9827606679369865
 30
0.0
 40
0.001
  1
BATH AND SHOWER FAUCET
  3

  2
PRODUCT
 70
     0
1001
ACDBATTR
1070
     0
1070
     1
  0
LINE
  5
129D5
  8
0
 10
3650.815277270450224
 20
163.6829511530025059
 30
0.0
 11
3648.815277270450224
 21
163.6829511530025059
 31
0.0
  0
LINE
  5
129D6
  8
0
 10
3652.7578562769499513
 20
164.3000297645025114
 30
0.0
 11
3653.6830531273499219
 21
164.3000283218025004
 31
0.0
  0
LINE
  5
129D7
  8
0
 10
3652.6523928106698804
 20
164.441760814802592
 30
0.0
 11
3653.7885240585501379
 21
164.4417603968024935
 31
0.0
  0
LINE
  5
129D8
  8
0
 10
3648.4366490771249119
 20
164.886810356952509
 30
0.0
 11
3654.5014058441502129
 21
164.886810356952509
 31
0.0
  0
LINE
  5
129D9
  8
0
 10
3653.6830537258260847
 20
164.2803432171226916
 30
0.0
 11
3652.7578568753810941
 21
164.2803447023802903
 31
0.0
  0
LINE
  5
129DA
  8
0
 10
3648.4366490766701645
 20
165.6228299552763019
 30
0.0
 11
3654.501380744549806
 21
165.6228299552763019
 31
0.0
  0
LINE
  5
129DB
  8
0
 10
3652.9205957384560861
 20
165.6425337248024903
 30
0.0
 11
3653.5203143509438632
 21
165.6425337248024903
 31
0.0
  0
LINE
  5
129DC
  8
0
 10
3648.815277270450224
 20
166.2813763499025015
 30
0.0
 11
3650.815277270450224
 21
166.2813763499025015
 31
0.0
  0
LINE
  5
129DD
  8
0
 10
3654.7207890814502207
 20
166.2813763499025015
 30
0.0
 11
3655.3766691486662239
 21
166.2813763499025015
 31
0.0
  0
LINE
  5
129DE
  8
0
 10
3656.0649090822339531
 20
166.2813763499025015
 30
0.0
 11
3656.7207890814502207
 21
166.2813763499025015
 31
0.0
  0
LINE
  5
129DF
  8
0
 10
3652.8667522647488113
 20
166.4299361989025101
 30
0.0
 11
3653.5725697686498279
 21
166.4299361989025101
 31
0.0
  0
LINE
  5
129E0
  8
0
 10
3648.3972959280499708
 20
164.9260670702803964
 30
0.0
 11
3648.3972959280499708
 21
165.5834600204553055
 31
0.0
  0
LINE
  5
129E1
  8
0
 10
3648.5160646720501063
 20
163.9775914389130946
 30
0.0
 11
3648.5160646720501063
 21
164.886810356952509
 31
0.0
  0
LINE
  5
129E2
  8
0
 10
3648.5160653062771416
 20
165.6228299559932964
 30
0.0
 11
3648.5160646720501063
 21
165.9821637514025952
 31
0.0
  0
LINE
  5
129E3
  8
0
 10
3652.7775412308501473
 20
164.2803446504024976
 30
0.0
 11
3652.7578562769499513
 21
164.3000297645025114
 31
0.0
  0
LINE
  5
129E4
  8
0
 10
3651.114489868849887
 20
165.9821637514025952
 30
0.0
 11
3651.114489868849887
 21
165.6228299556935042
 31
0.0
  0
LINE
  5
129E5
  8
0
 10
3651.114489868849887
 20
164.886810356952509
 30
0.0
 11
3651.114489868849887
 21
163.9821637514025099
 31
0.0
  0
LINE
  5
129E6
  8
0
 10
3651.7437188199492084
 20
165.5851540547762113
 30
0.0
 11
3651.7437188199492084
 21
164.9261518693429025
 31
0.0
  0
LINE
  5
129E7
  8
0
 10
3652.7578582562518932
 20
163.689794754860003
 30
0.0
 11
3652.7578568753810941
 21
164.2803447023802903
 31
0.0
  0
LINE
  5
129E8
  8
0
 10
3652.7578562769499513
 20
164.3000297645025114
 30
0.0
 11
3652.7578564979457951
 21
164.4417607760009048
 31
0.0
  0
LINE
  5
129E9
  8
0
 10
3652.8231892880558007
 20
166.2275210618184076
 30
0.0
 11
3652.8231892880558007
 21
166.3899361994025128
 31
0.0
  0
LINE
  5
129EA
  8
0
 10
3652.8905957381498411
 20
165.6725337252024985
 30
0.0
 11
3652.8905957394499637
 21
166.1637064502025112
 31
0.0
  0
LINE
  5
129EB
  8
0
 10
3653.0629796493499271
 20
165.6425330701025018
 30
0.0
 11
3653.0629796493499271
 21
165.6326921044025084
 31
0.0
  0
LINE
  5
129EC
  8
0
 10
3653.3779402793497866
 20
165.6425330702024894
 30
0.0
 11
3653.3779402793497866
 21
165.6326921044025084
 31
0.0
  0
LINE
  5
129ED
  8
0
 10
3653.5503143524501866
 20
166.1637064103024954
 30
0.0
 11
3653.5503143512501083
 21
165.672533725002495
 31
0.0
  0
LINE
  5
129EE
  8
0
 10
3653.6141558278600314
 20
166.2229827772949022
 30
0.0
 11
3653.6141558278600314
 21
166.3899361994025128
 31
0.0
  0
LINE
  5
129EF
  8
0
 10
3653.6830551067278066
 20
163.6898421953004004
 30
0.0
 11
3653.6830537258260847
 21
164.2803432171226916
 31
0.0
  0
LINE
  5
129F0
  8
0
 10
3653.6633681120501933
 20
164.2803432691025023
 30
0.0
 11
3653.6830531273499219
 21
164.3000283218025004
 31
0.0
  0
LINE
  5
129F1
  8
0
 10
3654.421576483050103
 20
163.9821637514025099
 30
0.0
 11
3654.421576483050103
 21
164.886810356952509
 31
0.0
  0
LINE
  5
129F2
  8
0
 10
3654.421576483050103
 20
165.6228299553116869
 30
0.0
 11
3654.421576483050103
 21
165.9821637514025952
 31
0.0
  0
LINE
  5
129F3
  8
0
 10
3654.6934278752851242
 20
164.926756207139789
 30
0.0
 11
3654.6936740947498947
 21
165.2504918204024875
 31
0.0
  0
LINE
  5
129F4
  8
0
 10
3654.6936740947498947
 20
165.2504918204024875
 30
0.0
 11
3654.6934278752851242
 21
165.5818567177838077
 31
0.0
  0
LINE
  5
129F5
  8
0
 10
3656.7481503580502249
 20
165.5885139969913098
 30
0.0
 11
3656.7479041387500729
 21
165.2504918204024875
 31
0.0
  0
LINE
  5
129F6
  8
0
 10
3656.7479041387500729
 20
165.2504918204024875
 30
0.0
 11
3656.7481503580502249
 21
164.9267562070592135
 31
0.0
  0
LINE
  5
129F7
  8
0
 10
3657.0200016798498837
 20
165.9821637514025952
 30
0.0
 11
3657.0200016798498837
 21
163.9821637514025099
 31
0.0
  0
ARC
  5
129F8
  8
0
 10
3648.815171696771813
 20
163.9820920166303893
 30
0.0
 40
0.299140882257525
 50
180.8620481275769976
 51
270.0202209950500105
  0
ARC
  5
129F9
  8
0
 10
3650.815277270450224
 20
163.9821637514025099
 30
0.0
 40
0.2992125984
 50
269.9999999995048938
 51
0.0
  0
ARC
  5
129FA
  8
0
 10
3648.4366116273649823
 20
164.9261260827198043
 30
0.0
 40
0.0393157436034548
 50
180.0860002807525007
 51
270.0545764443011763
  0
ARC
  5
129FB
  8
0
 10
3649.815277262950076
 20
164.9821637514025099
 30
0.0
 40
0.7480314961
 50
192.6954884973806941
 51
338.7910012444455106
  0
ARC
  5
129FC
  8
0
 10
3649.815277262950076
 20
164.9821637514025099
 30
0.0
 40
0.7480314961
 50
58.9224662550000886
 51
121.0775337449998972
  0
ARC
  5
129FD
  8
0
 10
3648.4366659389352208
 20
165.5834599480018028
 30
0.0
 40
0.0393700108855283
 50
90.0245399137728839
 51
179.9998945573620119
  0
ARC
  5
129FE
  8
0
 10
3648.8151887425419773
 20
165.982252279309705
 30
0.0
 40
0.2991240835930411
 50
89.9830429044142193
 51
180.0169570950776006
  0
ARC
  5
129FF
  8
0
 10
3651.7044030470879079
 20
164.9261261374516891
 30
0.0
 40
0.0393157812828297
 50
269.9885606440794277
 51
0.0374996710765613
  0
ARC
  5
12A00
  8
0
 10
3650.815277270450224
 20
165.9821637514025952
 30
0.0
 40
0.2992125984
 50
0.0
 51
90.0
  0
ARC
  5
12A01
  8
0
 10
3651.7044365622341502
 20
165.5835195040880876
 30
0.0
 40
0.0393162501668251
 50
2.3827261047621011
 51
90.9840555205114043
  0
ARC
  5
12A02
  8
0
 10
3656.7207890814502207
 20
163.9821637514025099
 30
0.0
 40
0.2992125984
 50
273.7672684975548805
 51
0.0
  0
ARC
  5
12A03
  8
0
 10
3654.7207890814502207
 20
163.9821637514025099
 30
0.0
 40
0.2992125984
 50
179.9999999995000053
 51
266.2327448586474929
  0
ARC
  5
12A04
  8
0
 10
3654.5013511099591597
 20
164.5717404754747974
 30
0.0
 40
0.3150698866319973
 50
50.5692574387898972
 51
89.9900465313789795
  0
ARC
  5
12A05
  8
0
 10
3652.6523928574501952
 20
164.4717607574025067
 30
0.0
 40
0.0299999426
 50
196.7006904695994081
 51
269.9999106565014131
  0
ARC
  5
12A06
  8
0
 10
3653.7885179931499806
 20
164.4717566692025059
 30
0.0
 40
0.0299997376
 50
270.0133168979068046
 51
343.2992329264985756
  0
ARC
  5
12A07
  8
0
 10
3654.5013518887139981
 20
165.9378295877770029
 30
0.0
 40
0.3149996338223839
 50
270.0052486335025037
 51
330.7460082865243862
  0
ARC
  5
12A08
  8
0
 10
3653.5803155956641604
 20
166.1637062257937885
 30
0.0
 40
0.03000124361059
 50
89.9628209514085455
 51
180.0000392225165058
  0
ARC
  5
12A09
  8
0
 10
3652.8605062268561596
 20
166.1636719437854879
 30
0.0
 40
0.0300895317421573
 50
0.0653159638239781
 51
93.4100611426881784
  0
ARC
  5
12A0A
  8
0
 10
3652.9205957381500411
 20
165.6725337248024914
 30
0.0
 40
0.03
 50
179.9999994729002992
 51
270.0000005849111062
  0
ARC
  5
12A0B
  8
0
 10
3653.5203143512499082
 20
165.6725337248024914
 30
0.0
 40
0.03
 50
269.9999994162874941
 51
0.0000001832992847
  0
ARC
  5
12A0C
  8
0
 10
3653.0728557593611185
 20
165.6327060179650061
 30
0.0
 40
0.0098761198119802
 50
180.0807188132687884
 51
269.8051272350148224
  0
ARC
  5
12A0D
  8
0
 10
3653.3680641693390498
 20
165.6327060179650061
 30
0.0
 40
0.0098761198119812
 50
270.1948727649852913
 51
359.9192811867263231
  0
ARC
  5
12A0E
  8
0
 10
3656.6689756059868159
 20
164.926761290732486
 30
0.0
 40
0.0791747522261097
 50
343.0910094973407922
 51
359.9963211375380752
  0
ARC
  5
12A0F
  8
0
 10
3654.7724444525501895
 20
164.9267300320024958
 30
0.0
 40
0.0790165816000586
 50
179.9810201240105982
 51
193.802123330004207
  0
ARC
  5
12A10
  8
0
 10
3654.8149094914087982
 20
164.9382629731071006
 30
0.0
 40
0.123011514189471
 50
194.3000772577296118
 51
202.7746739324695966
  0
ARC
  5
12A11
  8
0
 10
3656.5768185210740739
 20
164.9558634104531905
 30
0.0
 40
0.1758151924939939
 50
338.2255920623372845
 51
342.7521270775013136
  0
ARC
  5
12A12
  8
0
 10
3654.8533970323728681
 20
165.5677548572103888
 30
0.0
 40
0.1605895192440574
 50
163.0788618597636059
 51
174.9621922927389051
  0
ARC
  5
12A13
  8
0
 10
3654.7207890781710375
 20
165.9821637546812099
 30
0.0
 40
0.2992125951213432
 50
89.9999993716811844
 51
180.0000006278253863
  0
ARC
  5
12A14
  8
0
 10
3655.7207891154498611
 20
165.2548441051025065
 30
0.0
 40
1.0826758522999991
 50
19.7639063779030693
 51
150.7477191996040915
  0
ARC
  5
12A15
  8
0
 10
3656.5416310335408525
 20
165.5519521458259078
 30
0.0
 40
0.2097307806603494
 50
10.0395275070284296
 51
19.2058092222165193
  0
ARC
  5
12A16
  8
0
 10
3656.7207890812801452
 20
165.9821637513317967
 30
0.0
 40
0.2992125985707119
 50
0.0000000135405118
 51
89.9999999673008375
  0
ARC
  5
12A17
  8
0
 10
3653.5740640729150073
 20
166.3898722505356886
 30
0.0
 40
0.0400918059455895
 50
0.0913902889195961
 51
92.1360265882988756
  0
ARC
  5
12A18
  8
0
 10
3653.5842612252868093
 20
166.2233453437488038
 30
0.0
 40
0.0298968011236336
 50
262.4539029163543091
 51
359.3051418195738052
  0
ARC
  5
12A19
  8
0
 10
3652.8696146934930766
 20
166.3830971391701041
 30
0.0
 40
0.0469264425983011
 50
93.4971106315812364
 51
171.6198661070721982
  0
ARC
  5
12A1A
  8
0
 10
3652.8589170053910493
 20
166.2294895415282099
 30
0.0
 40
0.035781904622364
 50
183.1536204799108134
 51
269.6788612934437879
  0
ARC
  5
12A1B
  8
0
 10
3650.0733569470507973
 20
161.3464523097154881
 30
0.0
 40
3.5310716048056139
 50
90.0459640624270889
 51
95.0761720393314249
  0
ARC
  5
12A1C
  8
0
 10
3649.8493498560619628
 20
163.6646558964862948
 30
0.0
 40
1.202274929451578
 50
94.2176749825441107
 51
104.3551766005090968
  0
ARC
  5
12A1D
  8
0
 10
3649.5938661116751973
 20
164.6524665728562127
 30
0.0
 40
0.1819821681774633
 50
103.5375229515944966
 51
126.0567107224960068
  0
ARC
  5
12A1E
  8
0
 10
3649.5006594171131837
 20
164.7829879573666858
 30
0.0
 40
0.02165406214912
 50
129.9532070646014859
 51
225.5272417683787864
  0
ARC
  5
12A1F
  8
0
 10
3649.6541521679760081
 20
164.9997311252035104
 30
0.0
 40
0.2869874133617186
 50
234.0059299410648919
 51
258.0815190422060823
  0
ARC
  5
12A20
  8
0
 10
3649.9269032071001675
 20
166.1467075321064044
 30
0.0
 40
1.4658732487449591
 50
256.9089276246509144
 51
265.7913837014181127
  0
ARC
  5
12A21
  8
0
 10
3650.0621313311858103
 20
167.5557257009629097
 30
0.0
 40
2.8811878210585
 50
265.1657882273672158
 51
268.2629193942382244
  0
ARC
  5
12A22
  8
0
 10
3650.0785790871000245
 20
168.1600397064298136
 30
0.0
 40
3.4857232040282788
 50
268.293796032008288
 51
269.8676000840050051
  0
ARC
  5
12A23
  8
0
 10
3650.0666823303909041
 20
162.3944275973576055
 30
0.0
 40
2.4649315991931608
 50
89.9106972904342001
 51
95.2012232216008698
  0
ARC
  5
12A24
  8
0
 10
3649.9685890745840879
 20
163.4720174193813023
 30
0.0
 40
1.3828862621768361
 50
95.2011529424341632
 51
101.232108986441304
  0
ARC
  5
12A25
  8
0
 10
3649.7805658680049419
 20
164.4135901209301949
 30
0.0
 40
0.4227256063153094
 50
101.094063903086905
 51
111.6065117425254982
  0
ARC
  5
12A26
  8
0
 10
3649.6688364955698489
 20
164.698512809038391
 30
0.0
 40
0.1166856026112199
 50
112.1164383238944993
 51
125.6563399085525958
  0
ARC
  5
12A27
  8
0
 10
3649.613229398832118
 20
164.7739864391216997
 30
0.0
 40
0.0229772395718193
 50
122.6949715788475999
 51
224.0005897479616124
  0
ARC
  5
12A28
  8
0
 10
3649.7673208070841611
 20
165.0501747062577067
 30
0.0
 40
0.3383231666854158
 50
239.7144542594407994
 51
262.3593888629462754
  0
ARC
  5
12A29
  8
0
 10
3649.9668795858078738
 20
166.080706980294508
 30
0.0
 40
1.3875703464656191
 50
259.8493217016828112
 51
265.4446337412933872
  0
ARC
  5
12A2A
  8
0
 10
3650.096541858101773
 20
162.6103605643262995
 30
0.0
 40
2.192007361769666
 50
90.6800775303264714
 51
95.699585817074805
  0
ARC
  5
12A2B
  8
0
 10
3649.9619214713347901
 20
164.0789243983167864
 30
0.0
 40
0.7174327555285985
 50
96.649348279939403
 51
99.9952442220545947
  0
ARC
  5
12A2C
  8
0
 10
3649.9240465624361605
 20
164.2938279878397054
 30
0.0
 40
0.4992171247549373
 50
99.9952442220543247
 51
108.7648790846728986
  0
ARC
  5
12A2D
  8
0
 10
3649.7836822575231963
 20
164.7069753793903999
 30
0.0
 40
0.0628767699412801
 50
108.7648790846733959
 51
134.1912515019340049
  0
ARC
  5
12A2E
  8
0
 10
3649.7488589837071231
 20
164.74279587919861
 30
0.0
 40
0.0129191018032221
 50
134.1912515019340049
 51
234.4087317602659937
  0
ARC
  5
12A2F
  8
0
 10
3649.8451144132100126
 20
164.8971751682013007
 30
0.0
 40
0.1948234192030347
 50
237.8147499160070026
 51
261.0706038004967127
  0
ARC
  5
12A30
  8
0
 10
3650.0138540120619837
 20
165.7359881840467892
 30
0.0
 40
1.0502959080978631
 50
259.0792561859727812
 51
266.7439451589038981
  0
ARC
  5
12A31
  8
0
 10
3650.0699126116328443
 20
166.4970722738283087
 30
0.0
 40
1.8133801448709019
 50
266.3414127985327013
 51
270.0193248988725827
  0
ARC
  5
12A32
  8
0
 10
3649.9124887766352003
 20
164.3503789814822085
 30
0.0
 40
0.5042708802912061
 50
99.2636057867352548
 51
109.0074832983548987
  0
ARC
  5
12A33
  8
0
 10
3649.7781219258540659
 20
164.7428022323080086
 30
0.0
 40
0.0894852349085671
 50
109.4994403778396048
 51
128.1695137217051013
  0
ARC
  5
12A34
  8
0
 10
3649.7336814924519786
 20
164.7993378229296013
 30
0.0
 40
0.0175740040203836
 50
128.1695137217051013
 51
174.3281984974709928
  0
LINE
  5
12A35
  8
0
 10
3649.7161935249500857
 20
164.8010746620024918
 30
0.0
 11
3649.7161935249500857
 21
164.7783766919025084
 31
0.0
  0
ARC
  5
12A36
  8
0
 10
3649.7691755270479916
 20
164.7790669183274872
 30
0.0
 40
0.0529864978915126
 50
180.7463822137092961
 51
227.4133681606427047
  0
ARC
  5
12A37
  8
0
 10
3649.7732006829892271
 20
164.7759637458028976
 30
0.0
 40
0.0536650231682122
 50
221.9992697543385987
 51
229.8559607701272114
  0
ARC
  5
12A38
  8
0
 10
3649.7554678366541339
 20
165.014969786376497
 30
0.0
 40
0.2471867382077314
 50
237.7132092213282135
 51
261.0082886421744206
  0
ARC
  5
12A39
  8
0
 10
3650.0662456485101757
 20
163.2363897519427098
 30
0.0
 40
1.562343701570226
 50
89.8430913735573711
 51
96.0140697419250557
  0
ARC
  5
12A3A
  8
0
 10
3649.9800351183439489
 20
164.0546951141417082
 30
0.0
 40
0.7395096227212536
 50
96.0140697419250557
 51
102.9283393702110061
  0
ARC
  5
12A3B
  8
0
 10
3649.8560018220409802
 20
164.5950246779592874
 30
0.0
 40
0.1851268162354329
 50
102.9283393702110061
 51
119.9963086667915064
  0
ARC
  5
12A3C
  8
0
 10
3649.7705676098858021
 20
164.743023093282801
 30
0.0
 40
0.0142393224135876
 50
119.9963086667915064
 51
236.1387030116526091
  0
ARC
  5
12A3D
  8
0
 10
3649.9019634931109977
 20
165.0139286709110138
 30
0.0
 40
0.3151966192861387
 50
243.7658261011513048
 51
261.7640880152331988
  0
ARC
  5
12A3E
  8
0
 10
3650.0311286945061511
 20
165.8187349521026022
 30
0.0
 40
1.130275087768053
 50
261.1281374113544871
 51
268.285332618476275
  0
ARC
  5
12A3F
  8
0
 10
3650.0706903956061069
 20
165.2754957833101912
 30
0.0
 40
0.591098393309118
 50
240.2156009204894076
 51
265.0165751490422963
  0
ARC
  5
12A40
  8
0
 10
3649.1699659152591266
 20
164.4338424492918875
 30
0.0
 40
0.4592453916111924
 50
46.6031694960944733
 51
80.5157284744228434
  0
ARC
  5
12A41
  8
0
 10
3648.8408953938319428
 20
164.4211850654886007
 30
0.0
 40
0.4659689394112555
 50
35.4331663097601322
 51
87.7993918482912505
  0
ARC
  5
12A42
  8
0
 10
3649.8108307837460416
 20
165.0067408345346962
 30
0.0
 40
0.669252171632698
 50
208.1177804025136027
 51
328.014098571171985
  0
ARC
  5
12A43
  8
0
 10
3651.2991262734572047
 20
163.9664230422305877
 30
0.0
 40
1.1480109772839
 50
140.6617421778780965
 51
143.3169536336399972
  0
ARC
  5
12A44
  8
0
 10
3650.0676915228200414
 20
161.3464523087199893
 30
0.0
 40
3.5310716058030271
 50
84.9238279610348172
 51
89.9540358976304049
  0
ARC
  5
12A45
  8
0
 10
3650.2916986138770881
 20
163.6646558964862948
 30
0.0
 40
1.202274929451578
 50
75.644823399490889
 51
85.7823250174559035
  0
ARC
  5
12A46
  8
0
 10
3650.547182358262944
 20
164.6524665728562127
 30
0.0
 40
0.1819821681774633
 50
53.9432892775040074
 51
76.4624770484054039
  0
ARC
  5
12A47
  8
0
 10
3650.6403890528249576
 20
164.7829879573666858
 30
0.0
 40
0.02165406214912
 50
314.4727582316201051
 51
50.0467929353984715
  0
ARC
  5
12A48
  8
0
 10
3650.4868963019621333
 20
164.9997311252035104
 30
0.0
 40
0.2869874133617186
 50
281.9184809577939177
 51
305.9940700589351081
  0
ARC
  5
12A49
  8
0
 10
3650.2141452628379739
 20
166.1467075321064044
 30
0.0
 40
1.4658732487449591
 50
274.2086162985818873
 51
283.0910723753490856
  0
ARC
  5
12A4A
  8
0
 10
3650.0789171387518763
 20
167.5557257009629097
 30
0.0
 40
2.8811878210585
 50
271.7370806057617756
 51
274.8342117726327842
  0
ARC
  5
12A4B
  8
0
 10
3650.0624693828372074
 20
168.1600397064298136
 30
0.0
 40
3.4857232040282788
 50
270.1323999159948812
 51
271.7062039679915983
  0
ARC
  5
12A4C
  8
0
 10
3650.0743632180528948
 20
162.3943621501886128
 30
0.0
 40
2.4649970417275711
 50
84.7988470575658226
 51
90.0892323802150514
  0
ARC
  5
12A4D
  8
0
 10
3650.1724593953540534
 20
163.4720174193813023
 30
0.0
 40
1.3828862621768361
 50
78.7678910135586392
 51
84.7988470575658226
  0
ARC
  5
12A4E
  8
0
 10
3650.3604826019331995
 20
164.4135901209301949
 30
0.0
 40
0.4227256063153094
 50
68.3934882574744876
 51
78.9059360969131234
  0
ARC
  5
12A4F
  8
0
 10
3650.4722119743669282
 20
164.698512809038391
 30
0.0
 40
0.1166856026112199
 50
54.3436600914474113
 51
67.8835616761055292
  0
ARC
  5
12A50
  8
0
 10
3650.5278190711060233
 20
164.7739864391216997
 30
0.0
 40
0.0229772395718193
 50
315.9994102520383876
 51
57.3050284211524072
  0
ARC
  5
12A51
  8
0
 10
3650.3737276628539803
 20
165.0501747062577067
 30
0.0
 40
0.3383231666854158
 50
277.6406111370537246
 51
300.2855457405590869
  0
ARC
  5
12A52
  8
0
 10
3650.174168884131177
 20
166.080706980294508
 30
0.0
 40
1.3875703464656191
 50
274.5553662587066128
 51
280.1506782983171888
  0
ARC
  5
12A53
  8
0
 10
3650.0615494822700384
 20
162.9161683857018943
 30
0.0
 40
1.886066482379831
 50
83.8929767416440342
 51
89.7273598536370258
  0
ARC
  5
12A54
  8
0
 10
3650.179126998601987
 20
164.0789243983167864
 30
0.0
 40
0.7174327555285985
 50
80.0047557779453911
 51
83.3506517200606112
  0
ARC
  5
12A55
  8
0
 10
3650.2170019075010714
 20
164.2938279878397054
 30
0.0
 40
0.4992171247549373
 50
71.2351209153265899
 51
80.0047557779453911
  0
ARC
  5
12A56
  8
0
 10
3650.357366212414945
 20
164.7069753793903999
 30
0.0
 40
0.0628767699412801
 50
45.8087484980660307
 51
71.2351209153265899
  0
ARC
  5
12A57
  8
0
 10
3650.3921894862310182
 20
164.74279587919861
 30
0.0
 40
0.0129191018032221
 50
305.5912682397340063
 51
45.8087484980660307
  0
ARC
  5
12A58
  8
0
 10
3650.2959340567272193
 20
164.8971751682013007
 30
0.0
 40
0.1948234192030347
 50
278.929396199503401
 51
302.1852500839930258
  0
ARC
  5
12A59
  8
0
 10
3650.1271944578747934
 20
165.7359881840467892
 30
0.0
 40
1.0502959080978631
 50
273.2560548410961019
 51
280.9207438140271051
  0
ARC
  5
12A5A
  8
0
 10
3650.0711358582780122
 20
166.4970722743823046
 30
0.0
 40
1.813380145425489
 50
269.9806750484178792
 51
273.6585872012061031
  0
ARC
  5
12A5B
  8
0
 10
3650.228559693302941
 20
164.3503789814822085
 30
0.0
 40
0.5042708802912061
 50
70.9925167016451013
 51
80.7363942132647452
  0
ARC
  5
12A5C
  8
0
 10
3650.3629265440840754
 20
164.7428022323080086
 30
0.0
 40
0.0894852349085671
 50
51.8304862782948703
 51
70.500559622160381
  0
ARC
  5
12A5D
  8
0
 10
3650.4073669774861628
 20
164.7993378229296013
 30
0.0
 40
0.0175740040203836
 50
5.6718015025289414
 51
51.8304862782948703
  0
LINE
  5
12A5E
  8
0
 10
3650.4248549449880556
 20
164.8010746620024918
 30
0.0
 11
3650.4248549449880556
 21
164.7783766919025084
 31
0.0
  0
ARC
  5
12A5F
  8
0
 10
3650.3718729428901497
 20
164.7790669183274872
 30
0.0
 40
0.0529864978915126
 50
312.5866318393573238
 51
359.2536177862889986
  0
ARC
  5
12A60
  8
0
 10
3650.3678477869489143
 20
164.7759637458028976
 30
0.0
 40
0.0536650231682122
 50
310.1440392298727033
 51
318.0007302456613729
  0
ARC
  5
12A61
  8
0
 10
3650.3855806332840075
 20
165.014969786376497
 30
0.0
 40
0.2471867382077314
 50
278.9917113578255794
 51
302.2867907786717865
  0
ARC
  5
12A62
  8
0
 10
3650.0748057819350834
 20
163.2364476227492105
 30
0.0
 40
1.5622858390959791
 50
83.9858158684358074
 51
90.1570230750886878
  0
ARC
  5
12A63
  8
0
 10
3650.161013351595102
 20
164.0546951141417082
 30
0.0
 40
0.7395096227212536
 50
77.0716606297889655
 51
83.9859302580749443
  0
ARC
  5
12A64
  8
0
 10
3650.2850466478971612
 20
164.5950246779592874
 30
0.0
 40
0.1851268162354329
 50
60.0036913332084794
 51
77.0716606297889655
  0
ARC
  5
12A65
  8
0
 10
3650.3704808600518845
 20
164.743023093282801
 30
0.0
 40
0.0142393224135876
 50
303.8612969883474193
 51
60.0036913332084794
  0
ARC
  5
12A66
  8
0
 10
3650.2390849768280532
 20
165.0139286709110138
 30
0.0
 40
0.3151966192861387
 50
278.2359119847669149
 51
296.2341738988487236
  0
ARC
  5
12A67
  8
0
 10
3650.1099197754319903
 20
165.8187349521026022
 30
0.0
 40
1.130275087768053
 50
273.2893466568863801
 51
278.8718625886455129
  0
ARC
  5
12A68
  8
0
 10
3650.0745570444078112
 20
166.3166338939687137
 30
0.0
 40
1.6293967220881951
 50
272.3186833100158992
 51
273.5262046075117723
  0
ARC
  5
12A69
  8
0
 10
3650.9713508372151409
 20
164.4333029566872142
 30
0.0
 40
0.4598217501491108
 50
99.5061669304311778
 51
133.3749350990383107
  0
LINE
  5
12A6A
  8
0
 10
3656.4420023513589513
 20
161.5453379236147953
 30
0.0
 11
3654.9995758446998479
 21
161.5453379236147953
 31
0.0
  0
ARC
  5
12A6B
  8
0
 10
3654.999575881122837
 20
161.8443333374148949
 30
0.0
 40
0.2989954138000953
 50
179.7557937573565141
 51
269.9999930204369889
  0
LINE
  5
12A6C
  8
0
 10
3654.7005831831497744
 20
161.8456077127025026
 30
0.0
 11
3654.7014886495821884
 21
164.8906442240428021
 31
0.0
  0
ARC
  5
12A6D
  8
0
 10
3655.334251735926955
 20
165.4302087016297094
 30
0.0
 40
0.660712691047353
 50
149.644575640245904
 51
163.8041899473334979
  0
ARC
  5
12A6E
  8
0
 10
3654.6744625376641125
 20
164.2324533434183991
 30
0.0
 40
0.8877069714894469
 50
144.7802703722508113
 51
164.9380665139881899
  0
ARC
  5
12A6F
  8
0
 10
3654.230372788474142
 20
164.5459349431235978
 30
0.0
 40
0.3441203471960406
 50
97.8745765186740044
 51
144.7777770138546884
  0
ARC
  5
12A70
  8
0
 10
3656.4420023513771412
 20
161.8443333374148949
 30
0.0
 40
0.2989954138000912
 50
269.9999999965608026
 51
0.2442062426434322
  0
LINE
  5
12A71
  8
0
 10
3656.7409950493502038
 20
161.8456077127025026
 30
0.0
 11
3656.7400895829177898
 21
164.8906442240428021
 31
0.0
  0
ARC
  5
12A72
  8
0
 10
3651.7665936458738543
 20
164.2325343621114087
 30
0.0
 40
0.8875464346902155
 50
15.0595780781074904
 51
35.220643506994243
  0
ARC
  5
12A73
  8
0
 10
3652.2105636776709616
 20
164.545955918303406
 30
0.0
 40
0.344092240682173
 50
35.221251790118572
 51
82.1337730275452458
  0
ARC
  5
12A75
  8
0
 10
3653.2204121458198642
 20
164.5583656748505916
 30
0.0
 40
0.9840587095330799
 50
241.9626495604588001
 51
298.0432262421055043
  0
LINE
  5
12A76
  8
0
 10
3653.6830531273499219
 20
164.3000283218025004
 30
0.0
 11
3653.6830531273499219
 21
164.4417604356069091
 31
0.0
  0
LINE
  5
12A77
  8
0
 10
3650.0193431269499342
 20
164.6866318189057097
 30
0.0
 11
3650.0193431265270192
 21
164.701509339550995
 31
0.0
  0
LINE
  5
12A78
  8
0
 10
3650.0193431261459409
 20
164.7148975205498118
 30
0.0
 11
3650.019343125612977
 21
164.7336630649319034
 31
0.0
  0
LINE
  5
12A79
  8
0
 10
3650.0193431253201197
 20
164.7439615202009122
 30
0.0
 11
3650.0193431249149398
 21
164.7581670519832926
 31
0.0
  0
LINE
  5
12A7A
  8
0
 10
3650.0193431246998443
 20
164.76575352253451
 30
0.0
 11
3650.0193431241791586
 21
164.7840791081912926
 31
0.0
  0
LINE
  5
12A7B
  8
0
 10
3650.0193431241791586
 20
164.7840791081912926
 30
0.0
 11
3649.9977987831498467
 21
164.7830484441911949
 31
0.0
  0
LINE
  5
12A7C
  8
0
 10
3649.9977987831498467
 20
164.7830484441911949
 30
0.0
 11
3649.9977987830498023
 21
164.7867033156231003
 31
0.0
  0
LINE
  5
12A7D
  8
0
 10
3649.9977987830498023
 20
164.7867033156231003
 30
0.0
 11
3650.0148465274501177
 21
164.7907250597679933
 31
0.0
  0
LINE
  5
12A7E
  8
0
 10
3650.0148465274501177
 20
164.7907250597679933
 30
0.0
 11
3650.0318942714138757
 21
164.7832414729261075
 31
0.0
  0
LINE
  5
12A7F
  8
0
 10
3650.0318942714138757
 20
164.7832414729261075
 30
0.0
 11
3650.0318942740000239
 21
164.7680899535866104
 31
0.0
  0
LINE
  5
12A80
  8
0
 10
3650.0318942740000239
 20
164.7680899535866104
 30
0.0
 11
3650.0193431246998443
 21
164.76575352253451
 31
0.0
  0
LINE
  5
12A81
  8
0
 10
3649.9878470613498394
 20
164.7773298455024928
 30
0.0
 11
3649.9870076777501708
 21
164.7777297694024981
 31
0.0
  0
LINE
  5
12A82
  8
0
 10
3649.9870076777501708
 20
164.7777297694024981
 30
0.0
 11
3649.9699599336699976
 21
164.7750930499597075
 31
0.0
  0
LINE
  5
12A83
  8
0
 10
3649.9699599336699976
 20
164.7750930499597075
 30
0.0
 11
3649.9699599337500331
 21
164.7647205076025045
 31
0.0
  0
LINE
  5
12A84
  8
0
 10
3649.9699599337500331
 20
164.7647205076025045
 30
0.0
 11
3649.987007678018017
 21
164.7570486513095034
 31
0.0
  0
LINE
  5
12A85
  8
0
 10
3649.987007678018017
 20
164.7570486513095034
 30
0.0
 11
3649.9878470616499726
 21
164.7571614087025011
 31
0.0
  0
LINE
  5
12A86
  8
0
 10
3649.9878470616499726
 20
164.7571614087025011
 30
0.0
 11
3649.9878470613498394
 21
164.7773298455024928
 31
0.0
  0
LINE
  5
12A87
  8
0
 10
3649.9870076780498493
 20
164.7777297694489107
 30
0.0
 11
3649.987007678018017
 21
164.7570486513095034
 31
0.0
  0
LINE
  5
12A88
  8
0
 10
3649.987847061750017
 20
164.7490328554025041
 30
0.0
 11
3649.9870076781498938
 21
164.7494327793025093
 31
0.0
  0
LINE
  5
12A89
  8
0
 10
3649.9870076781498938
 20
164.7494327793025093
 30
0.0
 11
3649.9699599340501663
 21
164.7477261849024899
 31
0.0
  0
LINE
  5
12A8A
  8
0
 10
3649.9699599340501663
 20
164.7477261849024899
 30
0.0
 11
3649.9699599342498004
 21
164.7394667865025042
 31
0.0
  0
LINE
  5
12A8B
  8
0
 10
3649.9699599342498004
 20
164.7394667865025042
 30
0.0
 11
3649.9870076784250159
 21
164.7328983681456975
 31
0.0
  0
LINE
  5
12A8C
  8
0
 10
3649.9870076784250159
 20
164.7328983681456975
 30
0.0
 11
3649.9878470619892141
 21
164.732964037097787
 31
0.0
  0
LINE
  5
12A8D
  8
0
 10
3649.9878470619892141
 20
164.732964037097787
 30
0.0
 11
3649.987847061750017
 21
164.7490328554025041
 31
0.0
  0
LINE
  5
12A8E
  8
0
 10
3649.987007678450027
 20
164.7494327793488935
 30
0.0
 11
3649.9870076784250159
 21
164.7328983681456975
 31
0.0
  0
LINE
  5
12A8F
  8
0
 10
3649.9870076787419748
 20
164.714328156597503
 30
0.0
 11
3649.9878470625499176
 21
164.7143484379024869
 31
0.0
  0
LINE
  5
12A90
  8
0
 10
3649.9878470625499176
 20
164.7143484379024869
 30
0.0
 11
3649.9878470622497844
 21
164.7266056569025068
 31
0.0
  0
LINE
  5
12A91
  8
0
 10
3649.9878470622497844
 20
164.7266056569025068
 30
0.0
 11
3649.9870076785500714
 21
164.7268960754024931
 31
0.0
  0
LINE
  5
12A92
  8
0
 10
3649.9870076786392019
 20
164.7268960753553131
 30
0.0
 11
3649.9699599345499337
 21
164.7261832656024865
 31
0.0
  0
LINE
  5
12A93
  8
0
 10
3649.9699599345499337
 20
164.7261832656024865
 30
0.0
 11
3649.9699599346499781
 21
164.7198873421043004
 31
0.0
  0
LINE
  5
12A94
  8
0
 10
3649.9699599346499781
 20
164.7198873421043004
 30
0.0
 11
3649.9870076787419748
 21
164.714328156597503
 31
0.0
  0
LINE
  5
12A95
  8
0
 10
3649.9870076787419748
 20
164.714328156597503
 30
0.0
 11
3649.9870076787419748
 21
164.7268960753596048
 31
0.0
  0
LINE
  5
12A96
  8
0
 10
3649.9870076793231419
 20
164.7010845084033122
 30
0.0
 11
3649.9878470629491858
 21
164.7010845084325865
 31
0.0
  0
LINE
  5
12A97
  8
0
 10
3649.9878470629491858
 20
164.7010845084325865
 30
0.0
 11
3649.987847062649962
 21
164.7096623195025131
 31
0.0
  0
LINE
  5
12A98
  8
0
 10
3649.987847062649962
 20
164.7096623195025131
 30
0.0
 11
3649.9870076790498388
 21
164.7099046331024965
 31
0.0
  0
LINE
  5
12A99
  8
0
 10
3649.9870076790498388
 20
164.7099046331024965
 30
0.0
 11
3649.9699599349928576
 21
164.7101070180050044
 31
0.0
  0
LINE
  5
12A9A
  8
0
 10
3649.9699599349928576
 20
164.7101070180050044
 30
0.0
 11
3649.9699599351502002
 21
164.7056930693024981
 31
0.0
  0
LINE
  5
12A9B
  8
0
 10
3649.9699599351502002
 20
164.7056930693024981
 30
0.0
 11
3649.9870076793231419
 21
164.7010845084033122
 31
0.0
  0
LINE
  5
12A9C
  8
0
 10
3649.9870076793231419
 20
164.7010845084033122
 30
0.0
 11
3649.987007679349972
 21
164.7099046331674117
 31
0.0
  0
LINE
  5
12A9D
  8
0
 10
3649.9878470634498626
 20
164.6930024454024988
 30
0.0
 11
3649.9878470631501841
 21
164.6980002852025109
 31
0.0
  0
LINE
  5
12A9E
  8
0
 10
3649.9878470631501841
 20
164.6980002852025109
 30
0.0
 11
3649.9870076796419198
 21
164.6981966776810111
 31
0.0
  0
LINE
  5
12A9F
  8
0
 10
3649.9870076796419198
 20
164.6981966776810111
 30
0.0
 11
3649.9699599354498787
 21
164.6993193184389952
 31
0.0
  0
LINE
  5
12AA0
  8
0
 10
3649.9699599354498787
 20
164.6993193184389952
 30
0.0
 11
3649.9699599356281396
 21
164.6967614270209879
 31
0.0
  0
LINE
  5
12AA1
  8
0
 10
3649.9699599356281396
 20
164.6967614270209879
 30
0.0
 11
3649.9870076798501941
 21
164.6930731219349866
 31
0.0
  0
LINE
  5
12AA2
  8
0
 10
3649.9870076798501941
 20
164.6930731219349866
 30
0.0
 11
3649.9878470634462246
 21
164.6930731219854067
 31
0.0
  0
LINE
  5
12AA3
  8
0
 10
3649.987847063549907
 20
164.6915696283024886
 30
0.0
 11
3649.987847063854133
 21
164.6902314900573003
 31
0.0
  0
LINE
  5
12AA4
  8
0
 10
3649.987847063549907
 20
164.6915696283024886
 30
0.0
 11
3649.9870076800239076
 21
164.6917209840001988
 31
0.0
  0
LINE
  5
12AA5
  8
0
 10
3649.9870076800239076
 20
164.6917209840001988
 30
0.0
 11
3649.9870076806091674
 21
164.690350917671509
 31
0.0
  0
LINE
  5
12AA6
  8
0
 10
3649.9870076800239076
 20
164.6917209840001988
 30
0.0
 11
3649.9699599359501008
 21
164.6937942495025027
 31
0.0
  0
LINE
  5
12AA7
  8
0
 10
3649.9699599359501008
 20
164.6937942495025027
 30
0.0
 11
3649.9699599360610591
 21
164.6930434804625918
 31
0.0
  0
LINE
  5
12AA8
  8
0
 10
3649.9870076793390581
 20
164.6930731220454902
 30
0.0
 11
3649.9870076798279115
 21
164.6981966776687045
 31
0.0
  0
LINE
  5
12AA9
  8
0
 10
3650.0040554215088378
 20
164.7974951992144952
 30
0.0
 11
3650.004055421728026
 21
164.7908876749332023
 31
0.0
  0
LINE
  5
12AAA
  8
0
 10
3650.004055421728026
 20
164.7908876749332023
 30
0.0
 11
3649.987007677550082
 21
164.7872313710142862
 31
0.0
  0
LINE
  5
12AAB
  8
0
 10
3649.987007677550082
 20
164.7872313710142862
 30
0.0
 11
3649.9704322475809022
 21
164.7957927255318111
 31
0.0
  0
LINE
  5
12AAC
  8
0
 10
3649.987007677550082
 20
164.7872313710142862
 30
0.0
 11
3649.9870076776501264
 21
164.7967227887685056
 31
0.0
  0
LINE
  5
12AAD
  8
0
 10
3649.9762165722499958
 20
164.7785150872080919
 30
0.0
 11
3649.976216572049907
 21
164.79001138073221
 31
0.0
  0
LINE
  5
12AAE
  8
0
 10
3649.976216572049907
 20
164.79001138073221
 30
0.0
 11
3649.9659145734499361
 21
164.7955085791053875
 31
0.0
  0
LINE
  5
12AAF
  8
0
 10
3649.9762165722499958
 20
164.7785150872080919
 30
0.0
 11
3649.9591688281930146
 21
164.7762398226404912
 31
0.0
  0
LINE
  5
12AB0
  8
0
 10
3649.9591688281930146
 20
164.7762398226404912
 30
0.0
 11
3649.9421210839232117
 21
164.7854452134301937
 31
0.0
  0
LINE
  5
12AB1
  8
0
 10
3649.9421210839491323
 20
164.7854452134154997
 30
0.0
 11
3649.9421210838509069
 21
164.793794944653996
 31
0.0
  0
LINE
  5
12AB2
  8
0
 10
3649.93132997875
 20
164.7890705736602115
 30
0.0
 11
3649.9483777226500933
 21
164.7794529625213897
 31
0.0
  0
LINE
  5
12AB3
  8
0
 10
3649.9483777226500933
 20
164.7794529625213897
 30
0.0
 11
3649.9483777228610961
 21
164.7690246813550914
 31
0.0
  0
LINE
  5
12AB4
  8
0
 10
3649.9483777228610961
 20
164.7690246813550914
 30
0.0
 11
3649.9313299787700089
 21
164.7681003298588109
 31
0.0
  0
LINE
  5
12AB5
  8
0
 10
3649.9313299787700089
 20
164.7681003298588109
 30
0.0
 11
3649.93132997875
 21
164.7890705736602115
 31
0.0
  0
LINE
  5
12AB6
  8
0
 10
3649.93132997875
 20
164.7890705736602115
 30
0.0
 11
3649.9142822343501393
 21
164.7881694119828921
 31
0.0
  0
LINE
  5
12AB7
  8
0
 10
3649.9142822343501393
 20
164.7881694119828921
 30
0.0
 11
3649.9142822344501838
 21
164.7776269650024972
 31
0.0
  0
LINE
  5
12AB8
  8
0
 10
3649.9142822344501838
 20
164.7776269650024972
 30
0.0
 11
3649.9313299787700089
 21
164.7681003298588109
 31
0.0
  0
LINE
  5
12AB9
  8
0
 10
3649.9591688286109274
 20
164.7489920668431864
 30
0.0
 11
3649.9762165726501735
 21
164.7502889598025035
 31
0.0
  0
LINE
  5
12ABA
  8
0
 10
3649.9762165726501735
 20
164.7502889598025035
 30
0.0
 11
3649.9762165725501291
 21
164.7595697881025103
 31
0.0
  0
LINE
  5
12ABB
  8
0
 10
3649.9762165725501291
 20
164.7595697881025103
 30
0.0
 11
3649.9591688286500357
 21
164.7676254263024873
 31
0.0
  0
LINE
  5
12ABC
  8
0
 10
3649.9591688286500357
 20
164.7676254263024873
 30
0.0
 11
3649.942121084250175
 21
164.766338535742392
 31
0.0
  0
LINE
  5
12ABD
  8
0
 10
3649.942121084250175
 20
164.766338535742392
 30
0.0
 11
3649.9421210843502195
 21
164.7569858386025032
 31
0.0
  0
LINE
  5
12ABE
  8
0
 10
3649.9421210843502195
 20
164.7569858386025032
 30
0.0
 11
3649.9591688285449891
 21
164.748992066889997
 31
0.0
  0
LINE
  5
12ABF
  8
0
 10
3649.9591688285449891
 20
164.748992066889997
 30
0.0
 11
3649.9591688286500357
 21
164.7676254263024873
 31
0.0
  0
LINE
  5
12AC0
  8
0
 10
3649.9142822348098889
 20
164.7603791992283107
 30
0.0
 11
3649.9142822349499511
 21
164.7520091402024889
 31
0.0
  0
LINE
  5
12AC1
  8
0
 10
3649.9142822349499511
 20
164.7520091402024889
 30
0.0
 11
3649.9313299791501777
 21
164.7436640965078141
 31
0.0
  0
LINE
  5
12AC2
  8
0
 10
3649.9313299791501777
 20
164.7436640965078141
 30
0.0
 11
3649.9483777232499051
 21
164.743664096713303
 31
0.0
  0
LINE
  5
12AC3
  8
0
 10
3649.9483777232499051
 20
164.743664096713303
 30
0.0
 11
3649.9483777231498607
 21
164.7519471484025075
 31
0.0
  0
LINE
  5
12AC4
  8
0
 10
3649.9483777231498607
 20
164.7519471484025075
 30
0.0
 11
3649.9313299792502221
 21
164.7603293410024889
 31
0.0
  0
LINE
  5
12AC5
  8
0
 10
3649.9313299792502221
 20
164.7603293410024889
 30
0.0
 11
3649.9142822348098889
 21
164.7603791992283107
 31
0.0
  0
LINE
  5
12AC6
  8
0
 10
3649.9313299792502221
 20
164.7603293410024889
 30
0.0
 11
3649.9313299794512204
 21
164.7436640965078141
 31
0.0
  0
LINE
  5
12AC7
  8
0
 10
3649.9591688281930146
 20
164.7762398226404912
 30
0.0
 11
3649.9591688281930146
 21
164.7950598249173879
 31
0.0
  0
LINE
  5
12AC8
  8
0
 10
3649.9421210846658141
 20
164.7417922451647883
 30
0.0
 11
3649.9591688290502134
 21
164.7421357149025027
 31
0.0
  0
LINE
  5
12AC9
  8
0
 10
3649.9591688290502134
 20
164.7421357149025027
 30
0.0
 11
3649.976216572949852
 21
164.7352006007025125
 31
0.0
  0
LINE
  5
12ACA
  8
0
 10
3649.976216572949852
 20
164.7352006007025125
 30
0.0
 11
3649.9762165731008281
 21
164.7279440091269862
 31
0.0
  0
LINE
  5
12ACB
  8
0
 10
3649.9762165731008281
 20
164.7279440091269862
 30
0.0
 11
3649.9591688290947786
 21
164.7275782837384099
 31
0.0
  0
LINE
  5
12ACC
  8
0
 10
3649.9591688290947786
 20
164.7275782837384099
 30
0.0
 11
3649.9591688290502134
 21
164.7421357147742071
 31
0.0
  0
LINE
  5
12ACD
  8
0
 10
3649.9591688290947786
 20
164.7275782837384099
 30
0.0
 11
3649.9421210848499868
 21
164.7344911445024991
 31
0.0
  0
LINE
  5
12ACE
  8
0
 10
3649.9421210848499868
 20
164.7344911445024991
 30
0.0
 11
3649.9421210846658141
 21
164.7417922451647883
 31
0.0
  0
LINE
  5
12ACF
  8
0
 10
3649.886443384949871
 20
164.7821768756180916
 30
0.0
 11
3649.9034911293501864
 21
164.7817002340024999
 31
0.0
  0
LINE
  5
12AD0
  8
0
 10
3649.9034911293501864
 20
164.7817002340024999
 30
0.0
 11
3649.9205388732138999
 21
164.7717549867514037
 31
0.0
  0
LINE
  5
12AD1
  8
0
 10
3649.9205388732138999
 20
164.7717549867514037
 30
0.0
 11
3649.9205388733498694
 21
164.7623434892024932
 31
0.0
  0
LINE
  5
12AD2
  8
0
 10
3649.9205388733498694
 20
164.7623434892024932
 30
0.0
 11
3649.9034911293501864
 21
164.7627618726779986
 31
0.0
  0
LINE
  5
12AD3
  8
0
 10
3649.9034911293501864
 20
164.7627618726779986
 30
0.0
 11
3649.9034911293501864
 21
164.7817002340024999
 31
0.0
  0
LINE
  5
12AD4
  8
0
 10
3649.9034911293501864
 20
164.762761872728106
 30
0.0
 11
3649.8864433850499154
 21
164.7726488777175859
 31
0.0
  0
LINE
  5
12AD5
  8
0
 10
3649.8864433850499154
 20
164.7726488777175859
 30
0.0
 11
3649.886443384949871
 21
164.782176875702504
 31
0.0
  0
LINE
  5
12AD6
  8
0
 10
3649.8927000234489242
 20
164.7890295497342947
 30
0.0
 11
3649.8927000235498781
 21
164.7842556511025123
 31
0.0
  0
LINE
  5
12AD7
  8
0
 10
3649.8927000235498781
 20
164.7842556511025123
 30
0.0
 11
3649.8756522795220008
 21
164.785117337008387
 31
0.0
  0
LINE
  5
12AD8
  8
0
 10
3649.8756522795220008
 20
164.785117337008387
 30
0.0
 11
3649.8756522795220008
 21
164.7868007793682921
 31
0.0
  0
LINE
  5
12AD9
  8
0
 10
3649.8756522794501507
 20
164.7851173370025037
 30
0.0
 11
3649.8735436704600943
 21
164.7864970365394015
 31
0.0
  0
LINE
  5
12ADA
  8
0
 10
3649.8648611741500645
 20
164.7803898079529006
 30
0.0
 11
3649.8648611740491106
 21
164.7851808735190104
 31
0.0
  0
LINE
  5
12ADB
  8
0
 10
3649.8648611741500645
 20
164.7803898079529006
 30
0.0
 11
3649.8483721371248976
 21
164.7823896527179954
 31
0.0
  0
LINE
  5
12ADC
  8
0
 10
3649.8586045355500573
 20
164.7790532097999971
 30
0.0
 11
3649.8586045356501018
 21
164.7705101721024903
 31
0.0
  0
LINE
  5
12ADD
  8
0
 10
3649.8586045356501018
 20
164.7705101721024903
 30
0.0
 11
3649.8756522797871185
 21
164.7602180436728077
 31
0.0
  0
LINE
  5
12ADE
  8
0
 10
3649.8756522797871185
 20
164.7602180436728077
 30
0.0
 11
3649.8927000239500558
 21
164.7584441479025088
 31
0.0
  0
LINE
  5
12ADF
  8
0
 10
3649.8927000239500558
 20
164.7584441479025088
 30
0.0
 11
3649.8927000238500113
 21
164.7668730076024985
 31
0.0
  0
LINE
  5
12AE0
  8
0
 10
3649.8927000238500113
 20
164.7668730076024985
 30
0.0
 11
3649.8756522799508275
 21
164.7771883180024872
 31
0.0
  0
LINE
  5
12AE1
  8
0
 10
3649.8756522799508275
 20
164.7771883180024872
 30
0.0
 11
3649.8586045355500573
 21
164.7790532097999971
 31
0.0
  0
LINE
  5
12AE2
  8
0
 10
3649.8756522799508275
 20
164.7771883180024872
 30
0.0
 11
3649.8756522798971673
 21
164.7602180436091999
 31
0.0
  0
LINE
  5
12AE3
  8
0
 10
3649.8478134305501044
 20
164.7755416832025048
 30
0.0
 11
3649.8648611744501977
 21
164.7648077857419935
 31
0.0
  0
LINE
  5
12AE4
  8
0
 10
3649.8648611744501977
 20
164.7648077857419935
 30
0.0
 11
3649.8648611745688868
 21
164.7573427142089884
 31
0.0
  0
LINE
  5
12AE5
  8
0
 10
3649.8648611745688868
 20
164.7573427142089884
 30
0.0
 11
3649.8478134305169078
 21
164.7605065358987986
 31
0.0
  0
LINE
  5
12AE6
  8
0
 10
3649.8478134305169078
 20
164.7605065358987986
 30
0.0
 11
3649.8478134306178617
 21
164.7755416831595028
 31
0.0
  0
LINE
  5
12AE7
  8
0
 10
3649.8478134306178617
 20
164.7755416831595028
 30
0.0
 11
3649.8307656861079522
 21
164.7788284464155026
 31
0.0
  0
LINE
  5
12AE8
  8
0
 10
3649.8307656861079522
 20
164.7788284464155026
 30
0.0
 11
3649.8307656862498334
 21
164.7712564204747139
 31
0.0
  0
LINE
  5
12AE9
  8
0
 10
3649.8307656862498334
 20
164.7712564204747139
 30
0.0
 11
3649.84781343045006
 21
164.7605065360116896
 31
0.0
  0
LINE
  5
12AEA
  8
0
 10
3649.8370223246611204
 20
164.7802444390952132
 30
0.0
 11
3649.8370223247497961
 21
164.7794140086024868
 31
0.0
  0
LINE
  5
12AEB
  8
0
 10
3649.8370223247497961
 20
164.7794140086024868
 30
0.0
 11
3649.8349173196597803
 21
164.7798263481969059
 31
0.0
  0
LINE
  5
12AEC
  8
0
 10
3649.8055075890069929
 20
164.7731321469769057
 30
0.0
 11
3649.8199745810497916
 21
164.7637121954024906
 31
0.0
  0
LINE
  5
12AED
  8
0
 10
3649.8199745810497916
 20
164.7637121954024906
 30
0.0
 11
3649.8199745810497916
 21
164.7763697398690113
 31
0.0
  0
LINE
  5
12AEE
  8
0
 10
3649.8199745812198671
 20
164.7637121952921859
 30
0.0
 11
3649.8370223251499738
 21
164.7590999411474968
 31
0.0
  0
LINE
  5
12AEF
  8
0
 10
3649.8370223251499738
 20
164.7590999411474968
 30
0.0
 11
3649.8370223249498849
 21
164.7656053495088884
 31
0.0
  0
LINE
  5
12AF0
  8
0
 10
3649.8370223249498849
 20
164.7656053495088884
 30
0.0
 11
3649.8199933762821274
 21
164.7766792710974926
 31
0.0
  0
LINE
  5
12AF1
  8
0
 10
3649.8041221516350561
 20
164.7727335350485873
 30
0.0
 11
3649.8091834755500713
 21
164.7693607955148991
 31
0.0
  0
LINE
  5
12AF2
  8
0
 10
3649.8091834755869058
 20
164.7693607954902859
 30
0.0
 11
3649.8091834757501601
 21
164.7638262607025013
 31
0.0
  0
LINE
  5
12AF3
  8
0
 10
3649.8091834757501601
 20
164.7638262607025013
 30
0.0
 11
3649.7935041669220482
 21
164.7692830527772969
 31
0.0
  0
LINE
  5
12AF4
  8
0
 10
3649.7888732208198235
 20
164.7675520351743899
 30
0.0
 11
3649.7921357321502001
 21
164.7662271672188012
 31
0.0
  0
LINE
  5
12AF5
  8
0
 10
3649.7921357321502001
 20
164.7662271672188012
 30
0.0
 11
3649.8091834760498386
 21
164.7555866852783026
 31
0.0
  0
LINE
  5
12AF6
  8
0
 10
3649.8091834760498386
 20
164.7555866852783026
 30
0.0
 11
3649.8091834762499275
 21
164.7521007652024991
 31
0.0
  0
LINE
  5
12AF7
  8
0
 10
3649.8091834762499275
 20
164.7521007652024991
 30
0.0
 11
3649.7921357321502001
 21
164.7592553273015028
 31
0.0
  0
LINE
  5
12AF8
  8
0
 10
3649.7921357321502001
 20
164.7592553273015028
 30
0.0
 11
3649.7827534864109111
 21
164.7650441457178943
 31
0.0
  0
LINE
  5
12AF9
  8
0
 10
3649.7921357270902263
 20
164.7592553304237981
 30
0.0
 11
3649.7921357321502001
 21
164.7662271672188012
 31
0.0
  0
LINE
  5
12AFA
  8
0
 10
3649.8864433853500486
 20
164.7571990303025018
 30
0.0
 11
3649.9034911297499093
 21
164.7558047561024921
 31
0.0
  0
LINE
  5
12AFB
  8
0
 10
3649.9034911297499093
 20
164.7558047561024921
 30
0.0
 11
3649.9205388736500026
 21
164.7470638732455086
 31
0.0
  0
LINE
  5
12AFC
  8
0
 10
3649.9205388736500026
 20
164.7470638732455086
 30
0.0
 11
3649.9205388738500915
 21
164.7397264159025099
 31
0.0
  0
LINE
  5
12AFD
  8
0
 10
3649.9205388738500915
 20
164.7397264159025099
 30
0.0
 11
3649.9034911298281258
 21
164.7410588158435871
 31
0.0
  0
LINE
  5
12AFE
  8
0
 10
3649.9034911298281258
 20
164.7410588158435871
 30
0.0
 11
3649.9034911297499093
 21
164.755804755906496
 31
0.0
  0
LINE
  5
12AFF
  8
0
 10
3649.9034911297130748
 20
164.741058815854899
 30
0.0
 11
3649.8864433854819254
 21
164.7497896984451984
 31
0.0
  0
LINE
  5
12B00
  8
0
 10
3649.8864433854819254
 20
164.7497896984451984
 30
0.0
 11
3649.8864433862390797
 21
164.7571990302299128
 31
0.0
  0
LINE
  5
12B01
  8
0
 10
3649.8586045359770651
 20
164.7568253123037039
 30
0.0
 11
3649.8756522800649691
 21
164.7540579209675116
 31
0.0
  0
LINE
  5
12B02
  8
0
 10
3649.8756522800649691
 20
164.7540579209675116
 30
0.0
 11
3649.892700024250189
 21
164.7449206627254057
 31
0.0
  0
LINE
  5
12B03
  8
0
 10
3649.892700024250189
 20
164.7449206627254057
 30
0.0
 11
3649.8927000244498231
 21
164.7385289089025093
 31
0.0
  0
LINE
  5
12B04
  8
0
 10
3649.8927000244498231
 20
164.7385289089025093
 30
0.0
 11
3649.8756522803751068
 21
164.7412110593236036
 31
0.0
  0
LINE
  5
12B05
  8
0
 10
3649.8756522803751068
 20
164.7412110593236036
 30
0.0
 11
3649.8586045361489596
 21
164.7503692122114956
 31
0.0
  0
LINE
  5
12B06
  8
0
 10
3649.8586045361489596
 20
164.7503692122114956
 30
0.0
 11
3649.8586045359770651
 21
164.7568253123037039
 31
0.0
  0
LINE
  5
12B07
  8
0
 10
3649.8756522803751068
 20
164.7412110593236036
 30
0.0
 11
3649.8756522803500957
 21
164.7540579209212126
 31
0.0
  0
LINE
  5
12B08
  8
0
 10
3649.8307656865499666
 20
164.7593307962451945
 30
0.0
 11
3649.8478134309498273
 21
164.7551385821012957
 31
0.0
  0
LINE
  5
12B09
  8
0
 10
3649.8478134309498273
 20
164.7551385821012957
 30
0.0
 11
3649.864861174878115
 21
164.7455598560850945
 31
0.0
  0
LINE
  5
12B0A
  8
0
 10
3649.864861174878115
 20
164.7455598560850945
 30
0.0
 11
3649.8648611749767952
 21
164.7401151155445973
 31
0.0
  0
LINE
  5
12B0B
  8
0
 10
3649.8648611749767952
 20
164.7401151155445973
 30
0.0
 11
3649.8478134309498273
 21
164.7441990915270082
 31
0.0
  0
LINE
  5
12B0C
  8
0
 10
3649.8478134309498273
 20
164.7441990915270082
 30
0.0
 11
3649.8307656867500555
 21
164.7538350846025139
 31
0.0
  0
LINE
  5
12B0D
  8
0
 10
3649.8307656867500555
 20
164.7538350846025139
 30
0.0
 11
3649.8307656865499666
 21
164.7593307963024927
 31
0.0
  0
LINE
  5
12B0E
  8
0
 10
3649.8478134309498273
 20
164.7441990915270082
 30
0.0
 11
3649.8478134309498273
 21
164.755138582302493
 31
0.0
  0
LINE
  5
12B0F
  8
0
 10
3649.802926837150153
 20
164.7648397402464866
 30
0.0
 11
3649.8199745815500137
 21
164.7591439858024955
 31
0.0
  0
LINE
  5
12B10
  8
0
 10
3649.8199745815500137
 20
164.7591439858024955
 30
0.0
 11
3649.837022325450107
 21
164.7490687329598984
 31
0.0
  0
LINE
  5
12B11
  8
0
 10
3649.837022325450107
 20
164.7490687329598984
 30
0.0
 11
3649.8370223256501959
 21
164.7445870133024926
 31
0.0
  0
LINE
  5
12B12
  8
0
 10
3649.8370223256501959
 20
164.7445870133024926
 30
0.0
 11
3649.819974581499082
 21
164.7501508965771961
 31
0.0
  0
LINE
  5
12B13
  8
0
 10
3649.819974581499082
 20
164.7501508965771961
 30
0.0
 11
3649.8029268372501974
 21
164.7603276911096941
 31
0.0
  0
LINE
  5
12B14
  8
0
 10
3649.8029268372501974
 20
164.7603276911096941
 30
0.0
 11
3649.802926837150153
 21
164.7648397403025058
 31
0.0
  0
LINE
  5
12B15
  8
0
 10
3649.8199745812089532
 20
164.7591439858628917
 30
0.0
 11
3649.8199745830411302
 21
164.7501508960741887
 31
0.0
  0
LINE
  5
12B16
  8
0
 10
3649.8586045364500023
 20
164.7403969994664976
 30
0.0
 11
3649.8756522811909235
 21
164.7367120107950029
 31
0.0
  0
LINE
  5
12B17
  8
0
 10
3649.8756522811909235
 20
164.7367120107950029
 30
0.0
 11
3649.8927000247499564
 21
164.7286337376025074
 31
0.0
  0
LINE
  5
12B18
  8
0
 10
3649.8927000247499564
 20
164.7286337376025074
 30
0.0
 11
3649.8927000248831973
 21
164.7241887507913987
 31
0.0
  0
LINE
  5
12B19
  8
0
 10
3649.8927000248831973
 20
164.7241887507913987
 30
0.0
 11
3649.8756522811409013
 21
164.7277189215697035
 31
0.0
  0
LINE
  5
12B1A
  8
0
 10
3649.8756522811409013
 20
164.7277189215697035
 30
0.0
 11
3649.8586045365500468
 21
164.7359312055438068
 31
0.0
  0
LINE
  5
12B1B
  8
0
 10
3649.875652280849863
 20
164.7367120108553991
 30
0.0
 11
3649.8756522826829496
 21
164.7277189210666961
 31
0.0
  0
LINE
  5
12B1C
  8
0
 10
3649.8586045364500023
 20
164.7403969994664976
 30
0.0
 11
3649.8586045365500468
 21
164.7359312056024976
 31
0.0
  0
LINE
  5
12B1D
  8
0
 10
3649.8307656870501887
 20
164.745630610202511
 30
0.0
 11
3649.8307656871497784
 21
164.74214469014629
 31
0.0
  0
LINE
  5
12B1E
  8
0
 10
3649.8307656871497784
 20
164.74214469014629
 30
0.0
 11
3649.8478134313791088
 21
164.7335213512448036
 31
0.0
  0
LINE
  5
12B1F
  8
0
 10
3649.8478134313791088
 20
164.7335213512448036
 30
0.0
 11
3649.8478134314500494
 21
164.7404931912842017
 31
0.0
  0
LINE
  5
12B20
  8
0
 10
3649.8478134314500494
 20
164.7404931912842017
 30
0.0
 11
3649.8648611753501427
 21
164.7319567475979056
 31
0.0
  0
LINE
  5
12B21
  8
0
 10
3649.8648611753501427
 20
164.7319567475979056
 30
0.0
 11
3649.8648611754501871
 21
164.7284708275024911
 31
0.0
  0
LINE
  5
12B22
  8
0
 10
3649.8648611754501871
 20
164.7284708275024911
 30
0.0
 11
3649.8478134313791088
 21
164.7335213512448036
 31
0.0
  0
LINE
  5
12B23
  8
0
 10
3649.8478134314500494
 20
164.7404931912842017
 30
0.0
 11
3649.8307656870501887
 21
164.7456306102349117
 31
0.0
  0
LINE
  5
12B24
  8
0
 10
3649.8029268376499203
 20
164.7539539402623916
 30
0.0
 11
3649.819974582049781
 21
164.7472630656749004
 31
0.0
  0
LINE
  5
12B25
  8
0
 10
3649.819974582049781
 20
164.7472630656749004
 30
0.0
 11
3649.8370223258921214
 21
164.7382132624674966
 31
0.0
  0
LINE
  5
12B26
  8
0
 10
3649.8370223258921214
 20
164.7382132624674966
 30
0.0
 11
3649.8370223260499188
 21
164.7357231419584878
 31
0.0
  0
LINE
  5
12B27
  8
0
 10
3649.8370223260499188
 20
164.7357231419584878
 30
0.0
 11
3649.8199745839251591
 21
164.7423124739779894
 31
0.0
  0
LINE
  5
12B28
  8
0
 10
3649.8199745839251591
 20
164.7423124739779894
 30
0.0
 11
3649.8029268377499648
 21
164.7514941493566027
 31
0.0
  0
LINE
  5
12B29
  8
0
 10
3649.8029268377499648
 20
164.7514941493566027
 30
0.0
 11
3649.8029268376499203
 21
164.7539539402623916
 31
0.0
  0
LINE
  5
12B2A
  8
0
 10
3649.819974582049781
 20
164.7472630658025139
 30
0.0
 11
3649.8199745839551724
 21
164.7423124739661091
 31
0.0
  0
LINE
  5
12B2B
  8
0
 10
3649.8756522809908347
 20
164.724913732240708
 30
0.0
 11
3649.892700025150134
 21
164.7178149999639913
 31
0.0
  0
LINE
  5
12B2C
  8
0
 10
3649.892700025150134
 20
164.7178149999639913
 30
0.0
 11
3649.8927000253570441
 21
164.7152881466292058
 31
0.0
  0
LINE
  5
12B2D
  8
0
 10
3649.8927000253570441
 20
164.7152881466292058
 30
0.0
 11
3649.8756522813127958
 21
164.7198805000462016
 31
0.0
  0
LINE
  5
12B2E
  8
0
 10
3649.8756522813127958
 20
164.7198805000462016
 30
0.0
 11
3649.8756522812500407
 21
164.7249137322025092
 31
0.0
  0
LINE
  5
12B2F
  8
0
 10
3649.8756522812500407
 20
164.7249137322025092
 30
0.0
 11
3649.8586045369038402
 21
164.7295574547111983
 31
0.0
  0
LINE
  5
12B30
  8
0
 10
3649.8586045369038402
 20
164.7295574547111983
 30
0.0
 11
3649.8586045370598185
 21
164.7270514085373065
 31
0.0
  0
LINE
  5
12B31
  8
0
 10
3649.8586045370598185
 20
164.7270514085373065
 30
0.0
 11
3649.8756522812500407
 21
164.7198805000940922
 31
0.0
  0
LINE
  5
12B32
  8
0
 10
3649.8864433862599981
 20
164.7245289122033114
 30
0.0
 11
3649.9034911303410809
 21
164.7212990341377008
 31
0.0
  0
LINE
  5
12B33
  8
0
 10
3649.9034911303410809
 20
164.7212990341377008
 30
0.0
 11
3649.9205388745499476
 21
164.7146272301621082
 31
0.0
  0
LINE
  5
12B34
  8
0
 10
3649.9205388745499476
 20
164.7146272301621082
 30
0.0
 11
3649.9205388747500365
 21
164.711141310002489
 31
0.0
  0
LINE
  5
12B35
  8
0
 10
3649.9205388747500365
 20
164.711141310002489
 30
0.0
 11
3649.9034911306498543
 21
164.7143271938759881
 31
0.0
  0
LINE
  5
12B36
  8
0
 10
3649.9034911306498543
 20
164.7143271938759881
 30
0.0
 11
3649.8864433864500825
 21
164.7210429921024968
 31
0.0
  0
LINE
  5
12B37
  8
0
 10
3649.8864433864500825
 20
164.7210429921024968
 30
0.0
 11
3649.8864433862599981
 21
164.7245289122033114
 31
0.0
  0
LINE
  5
12B38
  8
0
 10
3649.9034911327858026
 20
164.7143271934768904
 30
0.0
 11
3649.9034911306498543
 21
164.7212990341024863
 31
0.0
  0
LINE
  5
12B39
  8
0
 10
3649.93132998054989
 20
164.7087318176058091
 30
0.0
 11
3649.9483777244499834
 21
164.703400441702513
 31
0.0
  0
LINE
  5
12B3A
  8
0
 10
3649.9483777244499834
 20
164.703400441702513
 30
0.0
 11
3649.9483777246500722
 21
164.7008492248025107
 31
0.0
  0
LINE
  5
12B3B
  8
0
 10
3649.9483777246500722
 20
164.7008492248025107
 30
0.0
 11
3649.9313299805621682
 21
164.7036428530396108
 31
0.0
  0
LINE
  5
12B3C
  8
0
 10
3649.9313299805621682
 20
164.7036428530396108
 30
0.0
 11
3649.93132998054989
 21
164.7087318176058091
 31
0.0
  0
LINE
  5
12B3D
  8
0
 10
3649.93132998054989
 20
164.7087318176058091
 30
0.0
 11
3649.9142822361532126
 21
164.7115469346557859
 31
0.0
  0
LINE
  5
12B3E
  8
0
 10
3649.9142822361532126
 20
164.7115469346557859
 30
0.0
 11
3649.9142822363501182
 21
164.7090093325024895
 31
0.0
  0
LINE
  5
12B3F
  8
0
 10
3649.9142822363501182
 20
164.7090093325024895
 30
0.0
 11
3649.9313299805621682
 21
164.7036428530284979
 31
0.0
  0
LINE
  5
12B40
  8
0
 10
3649.9142822352600888
 20
164.7385688582427861
 30
0.0
 11
3649.914282235355131
 21
164.7322103121007899
 31
0.0
  0
LINE
  5
12B41
  8
0
 10
3649.914282235355131
 20
164.7322103121007899
 30
0.0
 11
3649.9313299795799139
 21
164.7249268032626048
 31
0.0
  0
LINE
  5
12B42
  8
0
 10
3649.9313299795799139
 20
164.7249268032626048
 30
0.0
 11
3649.9483777237501272
 21
164.7239998295025032
 31
0.0
  0
LINE
  5
12B43
  8
0
 10
3649.9483777237501272
 20
164.7239998295025032
 30
0.0
 11
3649.9483777235500384
 21
164.7303163451782098
 31
0.0
  0
LINE
  5
12B44
  8
0
 10
3649.9483777235500384
 20
164.7303163451782098
 30
0.0
 11
3649.931329979649945
 21
164.7376014559067983
 31
0.0
  0
LINE
  5
12B45
  8
0
 10
3649.931329979649945
 20
164.7376014559067983
 30
0.0
 11
3649.9142822352600888
 21
164.7385688582427861
 31
0.0
  0
LINE
  5
12B46
  8
0
 10
3649.931329979649945
 20
164.7376014561025102
 30
0.0
 11
3649.931329979649945
 21
164.7249268032587963
 31
0.0
  0
LINE
  5
12B47
  8
0
 10
3649.9313299801501671
 20
164.7204743640174911
 30
0.0
 11
3649.9483777240498057
 21
164.7141948157619993
 31
0.0
  0
LINE
  5
12B48
  8
0
 10
3649.9483777240498057
 20
164.7141948157619993
 30
0.0
 11
3649.9483777241498501
 21
164.7097741925331036
 31
0.0
  0
LINE
  5
12B49
  8
0
 10
3649.9483777241498501
 20
164.7097741925331036
 30
0.0
 11
3649.9313299801037829
 21
164.7116196485293926
 31
0.0
  0
LINE
  5
12B4A
  8
0
 10
3649.9313299801037829
 20
164.7116196485293926
 30
0.0
 11
3649.9313299801501671
 21
164.7204743640174911
 31
0.0
  0
LINE
  5
12B4B
  8
0
 10
3649.9313299801501671
 20
164.7204743640174911
 30
0.0
 11
3649.9142822356498073
 21
164.7223549236024951
 31
0.0
  0
LINE
  5
12B4C
  8
0
 10
3649.9142822356498073
 20
164.7223549236024951
 30
0.0
 11
3649.9142822358498961
 21
164.7179206855024916
 31
0.0
  0
LINE
  5
12B4D
  8
0
 10
3649.9142822358498961
 20
164.7179206855024916
 30
0.0
 11
3649.9313299801037829
 21
164.7116196485293926
 31
0.0
  0
LINE
  5
12B4E
  8
0
 10
3649.9591688295499807
 20
164.7223546101959926
 30
0.0
 11
3649.9762165734409791
 21
164.7164400059861862
 31
0.0
  0
LINE
  5
12B4F
  8
0
 10
3649.9762165734409791
 20
164.7164400059861862
 30
0.0
 11
3649.9762165735501185
 21
164.7110949811024909
 31
0.0
  0
LINE
  5
12B50
  8
0
 10
3649.9762165735501185
 20
164.7110949811024909
 30
0.0
 11
3649.9591688295499807
 21
164.7116433999011917
 31
0.0
  0
LINE
  5
12B51
  8
0
 10
3649.9591688295499807
 20
164.7116433999011917
 30
0.0
 11
3649.9591688295499807
 21
164.7223546104025047
 31
0.0
  0
LINE
  5
12B52
  8
0
 10
3649.9591688295499807
 20
164.7223546104025047
 30
0.0
 11
3649.9421210850468924
 21
164.7229275457264919
 31
0.0
  0
LINE
  5
12B53
  8
0
 10
3649.9421210850468924
 20
164.7229275457264919
 30
0.0
 11
3649.9421210852501645
 21
164.7175611930024957
 31
0.0
  0
LINE
  5
12B54
  8
0
 10
3649.9421210852501645
 20
164.7175611930024957
 30
0.0
 11
3649.9591688295499807
 21
164.7116433999011917
 31
0.0
  0
LINE
  5
12B55
  8
0
 10
3649.886443385849816
 20
164.7380813227024987
 30
0.0
 11
3649.9034911298599582
 21
164.7357781499588043
 31
0.0
  0
LINE
  5
12B56
  8
0
 10
3649.9034911298599582
 20
164.7357781499588043
 30
0.0
 11
3649.9034911302492219
 21
164.7249767105058993
 31
0.0
  0
LINE
  5
12B57
  8
0
 10
3649.9034911302492219
 20
164.7249767105058993
 30
0.0
 11
3649.9205388742498144
 21
164.7227304036024975
 31
0.0
  0
LINE
  5
12B58
  8
0
 10
3649.9205388742498144
 20
164.7227304036024975
 30
0.0
 11
3649.920538874191152
 21
164.7281141620410096
 31
0.0
  0
LINE
  5
12B59
  8
0
 10
3649.920538874191152
 20
164.7281141620410096
 30
0.0
 11
3649.9034911302492219
 21
164.7357781499061957
 31
0.0
  0
LINE
  5
12B5A
  8
0
 10
3649.9034911302492219
 20
164.7249767104748912
 30
0.0
 11
3649.8864433859512246
 21
164.732663196202509
 31
0.0
  0
LINE
  5
12B5B
  8
0
 10
3649.8864433859512246
 20
164.732663196202509
 30
0.0
 11
3649.8864433858561824
 21
164.7380813226872078
 31
0.0
  0
LINE
  5
12B5C
  8
0
 10
3649.942121085549843
 20
164.7094737797307005
 30
0.0
 11
3649.9591688296382017
 21
164.7079841842086125
 31
0.0
  0
LINE
  5
12B5D
  8
0
 10
3649.9591688296382017
 20
164.7079841842086125
 30
0.0
 11
3649.976216573849797
 21
164.703026882988496
 31
0.0
  0
LINE
  5
12B5E
  8
0
 10
3649.976216573849797
 20
164.703026882988496
 30
0.0
 11
3649.9762165740498858
 21
164.6995409629024891
 31
0.0
  0
LINE
  5
12B5F
  8
0
 10
3649.9762165740498858
 20
164.6995409629024891
 30
0.0
 11
3649.9591688299988164
 21
164.7010123439887934
 31
0.0
  0
LINE
  5
12B60
  8
0
 10
3649.9591688299988164
 20
164.7010123439887934
 30
0.0
 11
3649.9421210856708058
 21
164.7059878596377871
 31
0.0
  0
LINE
  5
12B61
  8
0
 10
3649.9421210856708058
 20
164.7059878596377871
 30
0.0
 11
3649.942121085549843
 21
164.7094737797307005
 31
0.0
  0
LINE
  5
12B62
  8
0
 10
3649.9591688299501584
 20
164.7079841841812993
 30
0.0
 11
3649.9591688299988164
 21
164.7010123439887934
 31
0.0
  0
LINE
  5
12B63
  8
0
 10
3649.9421210859968596
 20
164.7013277711965884
 30
0.0
 11
3649.9591688301197792
 21
164.6988958982410054
 31
0.0
  0
LINE
  5
12B64
  8
0
 10
3649.9591688301197792
 20
164.6988958982410054
 30
0.0
 11
3649.9762165743500191
 21
164.6948615593024954
 31
0.0
  0
LINE
  5
12B65
  8
0
 10
3649.9762165743500191
 20
164.6948615593024954
 30
0.0
 11
3649.9762165743500191
 21
164.6932347441025115
 31
0.0
  0
LINE
  5
12B66
  8
0
 10
3649.9762165743500191
 20
164.6932347441025115
 30
0.0
 11
3649.9591688309419624
 21
164.6956634282948073
 31
0.0
  0
LINE
  5
12B67
  8
0
 10
3649.9591688309419624
 20
164.6956634282948073
 30
0.0
 11
3649.9421210861819418
 21
164.6997222838992059
 31
0.0
  0
LINE
  5
12B68
  8
0
 10
3649.9421210861819418
 20
164.6997222838992059
 30
0.0
 11
3649.9421210859968596
 21
164.7013277711965884
 31
0.0
  0
LINE
  5
12B69
  8
0
 10
3649.9591688309419624
 20
164.6956634282948073
 30
0.0
 11
3649.9591688304499257
 21
164.6988958981391988
 31
0.0
  0
LINE
  5
12B6A
  8
0
 10
3649.9142822366497967
 20
164.7060151721024965
 30
0.0
 11
3649.9313299810501121
 21
164.7023196305403872
 31
0.0
  0
LINE
  5
12B6B
  8
0
 10
3649.9313299810501121
 20
164.7023196305403872
 30
0.0
 11
3649.9408336051051265
 21
164.6997757513406953
 31
0.0
  0
LINE
  5
12B6C
  8
0
 10
3649.9408336051051265
 20
164.6997757513406953
 30
0.0
 11
3649.9408336051051265
 21
164.698837717786688
 31
0.0
  0
LINE
  5
12B6D
  8
0
 10
3649.9313299806708528
 20
164.7023196305808028
 30
0.0
 11
3649.9313299806708528
 21
164.7010604211311886
 31
0.0
  0
LINE
  5
12B6E
  8
0
 10
3649.9142822366497967
 20
164.7060151721024965
 30
0.0
 11
3649.9142822366497967
 21
164.7054661363754064
 31
0.0
  0
LINE
  5
12B6F
  8
0
 10
3649.9205388752498038
 20
164.7049089001025095
 30
0.0
 11
3649.9205388750278871
 21
164.7064969818131885
 31
0.0
  0
LINE
  5
12B70
  8
0
 10
3649.9205388750278871
 20
164.7064969818131885
 30
0.0
 11
3649.9034911308540359
 21
164.7122292087304913
 31
0.0
  0
LINE
  5
12B71
  8
0
 10
3649.9034911308540359
 20
164.7122292087304913
 30
0.0
 11
3649.9034911311500764
 21
164.7090869679682044
 31
0.0
  0
LINE
  5
12B72
  8
0
 10
3649.9034911311500764
 20
164.7090869679682044
 30
0.0
 11
3649.9205388752498038
 21
164.7049089020237886
 31
0.0
  0
LINE
  5
12B73
  8
0
 10
3649.9034911311500764
 20
164.7122292086249047
 30
0.0
 11
3649.8864433867502157
 21
164.7164297745136139
 31
0.0
  0
LINE
  5
12B74
  8
0
 10
3649.8864433867502157
 20
164.7164297745136139
 30
0.0
 11
3649.8864433867502157
 21
164.71487606080251
 31
0.0
  0
LINE
  5
12B75
  8
0
 10
3649.8864433867502157
 20
164.71487606080251
 30
0.0
 11
3649.9034911302728688
 21
164.7090869681831862
 31
0.0
  0
LINE
  5
12B76
  8
0
 10
3649.8586045373499473
 20
164.7240994937025107
 30
0.0
 11
3649.8756522814001073
 21
164.7186038867195066
 31
0.0
  0
LINE
  5
12B77
  8
0
 10
3649.8756522814001073
 20
164.7186038867195066
 30
0.0
 11
3649.8927000256499014
 21
164.7124358162024862
 31
0.0
  0
LINE
  5
12B78
  8
0
 10
3649.8927000256499014
 20
164.7124358162024862
 30
0.0
 11
3649.8927000256499014
 21
164.7118321080787098
 31
0.0
  0
LINE
  5
12B79
  8
0
 10
3649.8756522850230795
 20
164.718603885408811
 30
0.0
 11
3649.8756522850230795
 21
164.7175016561074017
 31
0.0
  0
LINE
  5
12B7A
  8
0
 10
3649.8586045373499473
 20
164.7240994937025107
 30
0.0
 11
3649.8586045373499473
 21
164.723755899578407
 31
0.0
  0
LINE
  5
12B7B
  8
0
 10
3649.8478134315628267
 20
164.7314515899562934
 30
0.0
 11
3649.8648611757498657
 21
164.7238816938929915
 31
0.0
  0
LINE
  5
12B7C
  8
0
 10
3649.8648611757498657
 20
164.7238816938929915
 30
0.0
 11
3649.8648611759499545
 21
164.7223545941025122
 31
0.0
  0
LINE
  5
12B7D
  8
0
 10
3649.8648611759499545
 20
164.7223545941025122
 30
0.0
 11
3649.8478134319129822
 21
164.728447400318089
 31
0.0
  0
LINE
  5
12B7E
  8
0
 10
3649.8478134319129822
 20
164.728447400318089
 30
0.0
 11
3649.8478134318502271
 21
164.7314515899024912
 31
0.0
  0
LINE
  5
12B7F
  8
0
 10
3649.8478134318502271
 20
164.7314515899024912
 30
0.0
 11
3649.8307659959291414
 21
164.7376015449652868
 31
0.0
  0
LINE
  5
12B80
  8
0
 10
3649.8307659959291414
 20
164.7376015449652868
 30
0.0
 11
3649.8307656876500005
 21
164.7361255344025039
 31
0.0
  0
LINE
  5
12B81
  8
0
 10
3649.8307656876500005
 20
164.7361255344025039
 30
0.0
 11
3649.8478134319129822
 21
164.728447400318089
 31
0.0
  0
LINE
  5
12B82
  8
0
 10
3649.8199745824499587
 20
164.7411050225821043
 30
0.0
 11
3649.8370223264500964
 21
164.7329189358025019
 31
0.0
  0
LINE
  5
12B83
  8
0
 10
3649.8370223264500964
 20
164.7329189358025019
 30
0.0
 11
3649.8370223264500964
 21
164.7325440874573133
 31
0.0
  0
LINE
  5
12B84
  8
0
 10
3649.8199745824499587
 20
164.7411050228024862
 30
0.0
 11
3649.8199745824499587
 21
164.7402025070531124
 31
0.0
  0
LINE
  5
12B85
  8
0
 10
3649.8199745824499587
 20
164.7411050225821043
 30
0.0
 11
3649.802926838050098
 21
164.7488902783024969
 31
0.0
  0
LINE
  5
12B86
  8
0
 10
3649.802926838050098
 20
164.7488902783024969
 30
0.0
 11
3649.802926838050098
 21
164.7485233098188928
 31
0.0
  0
LINE
  5
12B87
  8
0
 10
3649.8091834766501051
 20
164.7461555335025025
 30
0.0
 11
3649.8091834765500607
 21
164.7475928389025057
 31
0.0
  0
LINE
  5
12B88
  8
0
 10
3649.8091834765500607
 20
164.7475928389025057
 30
0.0
 11
3649.7921357322329641
 21
164.7572267332544982
 31
0.0
  0
LINE
  5
12B89
  8
0
 10
3649.7921357322329641
 20
164.7572267332544982
 30
0.0
 11
3649.7792031807739477
 21
164.763470238271708
 31
0.0
  0
LINE
  5
12B8A
  8
0
 10
3649.7921357326499674
 20
164.7544241372025056
 30
0.0
 11
3649.7775879747327963
 21
164.7627244294199045
 31
0.0
  0
LINE
  5
12B8B
  8
0
 10
3649.7921357326499674
 20
164.7544241372025056
 30
0.0
 11
3649.7921357322729818
 21
164.7572267333615059
 31
0.0
  0
LINE
  5
12B8C
  8
0
 10
3649.7921357326499674
 20
164.7544241372025056
 30
0.0
 11
3649.8091834766501051
 21
164.7461555336182926
 31
0.0
  0
LINE
  5
12B8D
  8
0
 10
3650.0318942742501349
 20
164.7553609871112883
 30
0.0
 11
3650.0318942743438129
 21
164.7471841416252971
 31
0.0
  0
LINE
  5
12B8E
  8
0
 10
3650.0318942743438129
 20
164.7471841416252971
 30
0.0
 11
3650.0193431253201197
 21
164.7439615202009122
 31
0.0
  0
LINE
  5
12B8F
  8
0
 10
3650.0318942742501349
 20
164.755360987102506
 30
0.0
 11
3650.0193431249149398
 21
164.7581670519832926
 31
0.0
  0
LINE
  5
12B90
  8
0
 10
3650.0256376357169756
 20
164.7435375272953877
 30
0.0
 11
3650.0426853802491678
 21
164.7479201751025073
 31
0.0
  0
LINE
  5
12B91
  8
0
 10
3650.0426853802491678
 20
164.7479201751025073
 30
0.0
 11
3650.0426853801500329
 21
164.7290133514069055
 31
0.0
  0
LINE
  5
12B92
  8
0
 10
3650.0426853801500329
 20
164.7290133514069055
 30
0.0
 11
3650.0597331242638575
 21
164.7340887592517049
 31
0.0
  0
LINE
  5
12B93
  8
0
 10
3650.0597331242638575
 20
164.7340887592517049
 30
0.0
 11
3650.0597331241501706
 21
164.7435375272335136
 31
0.0
  0
LINE
  5
12B94
  8
0
 10
3650.0597331241501706
 20
164.7435375272335136
 30
0.0
 11
3650.0426853802491678
 21
164.7479201751025073
 31
0.0
  0
LINE
  5
12B95
  8
0
 10
3650.0426853802027836
 20
164.7290133513693036
 30
0.0
 11
3650.0256376359511705
 21
164.7340887592085892
 31
0.0
  0
LINE
  5
12B96
  8
0
 10
3650.0256376359511705
 20
164.7340887592085892
 30
0.0
 11
3650.0256376357501722
 21
164.7435375273041132
 31
0.0
  0
LINE
  5
12B97
  8
0
 10
3650.0426853802418918
 20
164.7200707095028065
 30
0.0
 11
3650.0597331245498935
 21
164.7143413589024874
 31
0.0
  0
LINE
  5
12B98
  8
0
 10
3650.0597331245498935
 20
164.7143413589024874
 30
0.0
 11
3650.059733124649938
 21
164.7020996091654865
 31
0.0
  0
LINE
  5
12B99
  8
0
 10
3650.059733124649938
 20
164.7020996091654865
 30
0.0
 11
3650.0437380428497818
 21
164.6959819829025093
 31
0.0
  0
LINE
  5
12B9A
  8
0
 10
3650.0437380428497818
 20
164.6959819829025093
 30
0.0
 11
3650.0426853806498002
 21
164.6961590050024995
 31
0.0
  0
LINE
  5
12B9B
  8
0
 10
3650.0426853806498002
 20
164.6961590050024995
 30
0.0
 11
3650.041403111065847
 21
164.6960715488035873
 31
0.0
  0
LINE
  5
12B9C
  8
0
 10
3650.041403111065847
 20
164.6960715488035873
 30
0.0
 11
3650.0256376363499839
 21
164.7020996091198981
 31
0.0
  0
LINE
  5
12B9D
  8
0
 10
3650.0256376363499839
 20
164.7020996091198981
 30
0.0
 11
3650.0256376361207913
 21
164.7143413589359966
 31
0.0
  0
LINE
  5
12B9E
  8
0
 10
3650.0256376361207913
 20
164.7143413589359966
 30
0.0
 11
3650.0426853802418918
 21
164.7200707095028065
 31
0.0
  0
LINE
  5
12B9F
  8
0
 10
3650.0426853802418918
 20
164.7200707095028065
 30
0.0
 11
3650.0426853806498002
 21
164.6961590050024995
 31
0.0
  0
LINE
  5
12BA0
  8
0
 10
3650.0426853797498552
 20
164.7546938002747083
 30
0.0
 11
3650.0426853797498552
 21
164.7686182597742004
 31
0.0
  0
LINE
  5
12BA1
  8
0
 10
3650.0426853797498552
 20
164.7686182597742004
 30
0.0
 11
3650.0597331236499485
 21
164.7654529955918008
 31
0.0
  0
LINE
  5
12BA2
  8
0
 10
3650.0597331236499485
 20
164.7654529955918008
 30
0.0
 11
3650.0597331237618164
 21
164.7584931702039057
 31
0.0
  0
LINE
  5
12BA3
  8
0
 10
3650.0597331237618164
 20
164.7584931702039057
 30
0.0
 11
3650.0426853797498552
 21
164.7546938003482069
 31
0.0
  0
LINE
  5
12BA4
  8
0
 10
3650.0426853797498552
 20
164.7546938003482069
 30
0.0
 11
3650.0256376354500389
 21
164.7584931701591984
 31
0.0
  0
LINE
  5
12BA5
  8
0
 10
3650.0256376354500389
 20
164.7584931701591984
 30
0.0
 11
3650.0256376353499945
 21
164.7654529956396914
 31
0.0
  0
LINE
  5
12BA6
  8
0
 10
3650.0256376353499945
 20
164.7654529956396914
 30
0.0
 11
3650.0426853797498552
 21
164.7686182598025084
 31
0.0
  0
LINE
  5
12BA7
  8
0
 10
3650.0426853769240552
 20
164.7985557979951068
 30
0.0
 11
3650.0426853769240552
 21
164.7815810472941962
 31
0.0
  0
LINE
  5
12BA8
  8
0
 10
3650.0426853769240552
 20
164.7815810472941962
 30
0.0
 11
3650.059733120996043
 21
164.7869468760056861
 31
0.0
  0
LINE
  5
12BA9
  8
0
 10
3650.059733120996043
 20
164.7869468760056861
 30
0.0
 11
3650.0597331208368814
 21
164.7987198799307862
 31
0.0
  0
LINE
  5
12BAA
  8
0
 10
3650.0426853768499313
 20
164.7815810473753118
 30
0.0
 11
3650.0256376326378813
 21
164.7886823660201117
 31
0.0
  0
LINE
  5
12BAB
  8
0
 10
3650.0256376326378813
 20
164.7886823660201117
 30
0.0
 11
3650.0256376325542078
 21
164.7982056280548875
 31
0.0
  0
LINE
  5
12BAC
  8
0
 10
3650.0193431265270192
 20
164.701509339550995
 30
0.0
 11
3650.0318942750859605
 21
164.6967108235068906
 31
0.0
  0
LINE
  5
12BAD
  8
0
 10
3650.0318942751500799
 20
164.6967108234819079
 30
0.0
 11
3650.0318942751500799
 21
164.6965138391568928
 31
0.0
  0
LINE
  5
12BAE
  8
0
 10
3650.0318942751500799
 20
164.6965138391568928
 30
0.0
 11
3650.0414031110990436
 21
164.6960715487905986
 31
0.0
  0
LINE
  5
12BAF
  8
0
 10
3650.0437380428497818
 20
164.6959819829025093
 30
0.0
 11
3650.0534764860740324
 21
164.6956892232560961
 31
0.0
  0
LINE
  5
12BB0
  8
0
 10
3650.0534764860740324
 20
164.6956892232560961
 30
0.0
 11
3650.0534764860499308
 21
164.6967108235560886
 31
0.0
  0
LINE
  5
12BB1
  8
0
 10
3650.0534764860499308
 20
164.6967108235560886
 30
0.0
 11
3650.0705242341209669
 21
164.7031919107986084
 31
0.0
  0
LINE
  5
12BB2
  8
0
 10
3650.0705242341209669
 20
164.7020354231711963
 30
0.0
 11
3650.0655415260639529
 21
164.7012976224438034
 31
0.0
  0
LINE
  5
12BB3
  8
0
 10
3650.0534764856479342
 20
164.7299011278909973
 30
0.0
 11
3650.0705242341209669
 21
164.7349357362681985
 31
0.0
  0
LINE
  5
12BB4
  8
0
 10
3650.0534764856470247
 20
164.7299011278909973
 30
0.0
 11
3650.053476485804822
 21
164.7191057568813903
 31
0.0
  0
LINE
  5
12BB5
  8
0
 10
3650.053476485804822
 20
164.7191057568813903
 30
0.0
 11
3650.0705242341209669
 21
164.7133325939049939
 31
0.0
  0
LINE
  5
12BB6
  8
0
 10
3650.0534764852500302
 20
164.755360987102506
 30
0.0
 11
3650.0534764853500747
 21
164.7471841416025029
 31
0.0
  0
LINE
  5
12BB7
  8
0
 10
3650.0534764853500747
 20
164.7471841416025029
 30
0.0
 11
3650.0705242341209669
 21
164.7427629504877018
 31
0.0
  0
LINE
  5
12BB8
  8
0
 10
3650.0705242341209669
 20
164.7591234724395122
 30
0.0
 11
3650.0534764852500302
 21
164.7553609871908122
 31
0.0
  0
LINE
  5
12BB9
  8
0
 10
3650.0705242341209669
 20
164.7878846270828035
 30
0.0
 11
3650.0534764824051308
 21
164.7821504872117941
 31
0.0
  0
LINE
  5
12BBA
  8
0
 10
3650.0534764824051308
 20
164.7821504872117941
 30
0.0
 11
3650.053476484949897
 21
164.7680899535230878
 31
0.0
  0
LINE
  5
12BBB
  8
0
 10
3650.053476484949897
 20
164.7680899535230878
 30
0.0
 11
3650.0705242341209669
 21
164.7648889716743952
 31
0.0
  0
LINE
  5
12BBC
  8
0
 10
3650.0318942746498578
 20
164.7299011278024921
 30
0.0
 11
3650.019343125612977
 21
164.7336630649319034
 31
0.0
  0
LINE
  5
12BBD
  8
0
 10
3650.0318942746498578
 20
164.7299011278620071
 30
0.0
 11
3650.0318942748499467
 21
164.7191057569569921
 31
0.0
  0
LINE
  5
12BBE
  8
0
 10
3650.0318942748499467
 20
164.7191057569569921
 30
0.0
 11
3650.0193431261459409
 21
164.7148975205498118
 31
0.0
  0
ARC
  5
12BBF
  8
0
 10
3650.0703580726371911
 20
165.2754957833101912
 30
0.0
 40
0.591098393309118
 50
274.9834248509577037
 51
299.7843990795105924
  0
LINE
  5
12BC0
  8
0
 10
3650.121705341292909
 20
164.6866318189057097
 30
0.0
 11
3650.121705341715824
 21
164.701509339550995
 31
0.0
  0
LINE
  5
12BC1
  8
0
 10
3650.1217053420969023
 20
164.7148975205498118
 30
0.0
 11
3650.1217053426298662
 21
164.7336630649319034
 31
0.0
  0
LINE
  5
12BC2
  8
0
 10
3650.1217053429231783
 20
164.7439615202009122
 30
0.0
 11
3650.1217053433269939
 21
164.7581670519832926
 31
0.0
  0
LINE
  5
12BC3
  8
0
 10
3650.1217053435429989
 20
164.76575352253451
 30
0.0
 11
3650.1217053440641394
 21
164.7840791081912926
 31
0.0
  0
LINE
  5
12BC4
  8
0
 10
3650.1217053440641394
 20
164.7840791081912926
 30
0.0
 11
3650.143249685092087
 21
164.7830484441911949
 31
0.0
  0
LINE
  5
12BC5
  8
0
 10
3650.143249685092087
 20
164.7830484441911949
 30
0.0
 11
3650.1432496851930409
 21
164.7867033156231003
 31
0.0
  0
LINE
  5
12BC6
  8
0
 10
3650.1432496851930409
 20
164.7867033156231003
 30
0.0
 11
3650.1262019407931803
 21
164.7907250597679933
 31
0.0
  0
LINE
  5
12BC7
  8
0
 10
3650.1262019407931803
 20
164.7907250597679933
 30
0.0
 11
3650.1091541968289675
 21
164.7832414729261075
 31
0.0
  0
LINE
  5
12BC8
  8
0
 10
3650.1091541968289675
 20
164.7832414729261075
 30
0.0
 11
3650.1091541942419099
 21
164.7680899535866104
 31
0.0
  0
LINE
  5
12BC9
  8
0
 10
3650.1091541942419099
 20
164.7680899535866104
 30
0.0
 11
3650.1217053435429989
 21
164.76575352253451
 31
0.0
  0
LINE
  5
12BCA
  8
0
 10
3650.1532014068930039
 20
164.7773298455024928
 30
0.0
 11
3650.1540407904931271
 21
164.7777297694024981
 31
0.0
  0
LINE
  5
12BCB
  8
0
 10
3650.1540407904931271
 20
164.7777297694024981
 30
0.0
 11
3650.1710885345728457
 21
164.7750930499597075
 31
0.0
  0
LINE
  5
12BCC
  8
0
 10
3650.1710885345728457
 20
164.7750930499597075
 30
0.0
 11
3650.1710885344928101
 21
164.7647205076025045
 31
0.0
  0
LINE
  5
12BCD
  8
0
 10
3650.1710885344928101
 20
164.7647205076025045
 30
0.0
 11
3650.1540407902248262
 21
164.7570486513095034
 31
0.0
  0
LINE
  5
12BCE
  8
0
 10
3650.1540407902248262
 20
164.7570486513095034
 30
0.0
 11
3650.1532014065928706
 21
164.7571614087025011
 31
0.0
  0
LINE
  5
12BCF
  8
0
 10
3650.1532014065928706
 20
164.7571614087025011
 30
0.0
 11
3650.1532014068930039
 21
164.7773298455024928
 31
0.0
  0
LINE
  5
12BD0
  8
0
 10
3650.1540407901929939
 20
164.7777297694489107
 30
0.0
 11
3650.1540407902248262
 21
164.7570486513095034
 31
0.0
  0
LINE
  5
12BD1
  8
0
 10
3650.1532014064928262
 20
164.7490328554025041
 30
0.0
 11
3650.1540407900929495
 21
164.7494327793025093
 31
0.0
  0
LINE
  5
12BD2
  8
0
 10
3650.1540407900929495
 20
164.7494327793025093
 30
0.0
 11
3650.1710885341931316
 21
164.7477261849024899
 31
0.0
  0
LINE
  5
12BD3
  8
0
 10
3650.1710885341931316
 20
164.7477261849024899
 30
0.0
 11
3650.1710885339930428
 21
164.7394667865025042
 31
0.0
  0
LINE
  5
12BD4
  8
0
 10
3650.1710885339930428
 20
164.7394667865025042
 30
0.0
 11
3650.1540407898178273
 21
164.7328983681456975
 31
0.0
  0
LINE
  5
12BD5
  8
0
 10
3650.1540407898178273
 20
164.7328983681456975
 30
0.0
 11
3650.1532014062540838
 21
164.732964037097787
 31
0.0
  0
LINE
  5
12BD6
  8
0
 10
3650.1532014062540838
 20
164.732964037097787
 30
0.0
 11
3650.1532014064928262
 21
164.7490328554025041
 31
0.0
  0
LINE
  5
12BD7
  8
0
 10
3650.1540407897928162
 20
164.7494327793488935
 30
0.0
 11
3650.1540407898178273
 21
164.7328983681456975
 31
0.0
  0
LINE
  5
12BD8
  8
0
 10
3650.1540407895017779
 20
164.714328156597503
 30
0.0
 11
3650.1532014056929256
 21
164.7143484379024869
 31
0.0
  0
LINE
  5
12BD9
  8
0
 10
3650.1532014056929256
 20
164.7143484379024869
 30
0.0
 11
3650.1532014059930589
 21
164.7266056569025068
 31
0.0
  0
LINE
  5
12BDA
  8
0
 10
3650.1532014059930589
 20
164.7266056569025068
 30
0.0
 11
3650.1540407896932265
 21
164.7268960754024931
 31
0.0
  0
LINE
  5
12BDB
  8
0
 10
3650.1540407896040961
 20
164.7268960753553131
 30
0.0
 11
3650.1710885336929096
 21
164.7261832656024865
 31
0.0
  0
LINE
  5
12BDC
  8
0
 10
3650.1710885336929096
 20
164.7261832656024865
 30
0.0
 11
3650.1710885335928651
 21
164.7198873421043004
 31
0.0
  0
LINE
  5
12BDD
  8
0
 10
3650.1710885335928651
 20
164.7198873421043004
 30
0.0
 11
3650.1540407895017779
 21
164.714328156597503
 31
0.0
  0
LINE
  5
12BDE
  8
0
 10
3650.1540407895017779
 20
164.714328156597503
 30
0.0
 11
3650.1540407895017779
 21
164.7268960753596048
 31
0.0
  0
LINE
  5
12BDF
  8
0
 10
3650.1540407889187918
 20
164.7010845084033122
 30
0.0
 11
3650.1532014052941122
 21
164.7010845084325865
 31
0.0
  0
LINE
  5
12BE0
  8
0
 10
3650.1532014052941122
 20
164.7010845084325865
 30
0.0
 11
3650.1532014055928812
 21
164.7096623195025131
 31
0.0
  0
LINE
  5
12BE1
  8
0
 10
3650.1532014055928812
 20
164.7096623195025131
 30
0.0
 11
3650.1540407891930045
 21
164.7099046331024965
 31
0.0
  0
LINE
  5
12BE2
  8
0
 10
3650.1540407891930045
 20
164.7099046331024965
 30
0.0
 11
3650.1710885332490761
 21
164.7101070180050044
 31
0.0
  0
LINE
  5
12BE3
  8
0
 10
3650.1710885332490761
 20
164.7101070180050044
 30
0.0
 11
3650.1710885330930978
 21
164.7056930693024981
 31
0.0
  0
LINE
  5
12BE4
  8
0
 10
3650.1710885330930978
 20
164.7056930693024981
 30
0.0
 11
3650.1540407889187918
 21
164.7010845084033122
 31
0.0
  0
LINE
  5
12BE5
  8
0
 10
3650.1540407889187918
 20
164.7010845084033122
 30
0.0
 11
3650.1540407888928712
 21
164.7099046331674117
 31
0.0
  0
LINE
  5
12BE6
  8
0
 10
3650.1532014047929806
 20
164.6930024454024988
 30
0.0
 11
3650.1532014050931139
 21
164.6980002852025109
 31
0.0
  0
LINE
  5
12BE7
  8
0
 10
3650.1532014050931139
 20
164.6980002852025109
 30
0.0
 11
3650.1540407886009234
 21
164.6981966776810111
 31
0.0
  0
LINE
  5
12BE8
  8
0
 10
3650.1540407886009234
 20
164.6981966776810111
 30
0.0
 11
3650.171088532792055
 21
164.6993193184389952
 31
0.0
  0
LINE
  5
12BE9
  8
0
 10
3650.171088532792055
 20
164.6993193184389952
 30
0.0
 11
3650.1710885326160678
 21
164.6967614270209879
 31
0.0
  0
LINE
  5
12BEA
  8
0
 10
3650.1710885326160678
 20
164.6967614270209879
 30
0.0
 11
3650.1540407883931039
 21
164.6930731219349866
 31
0.0
  0
LINE
  5
12BEB
  8
0
 10
3650.1540407883931039
 20
164.6930731219349866
 30
0.0
 11
3650.1532014047979828
 21
164.6930731219854067
 31
0.0
  0
LINE
  5
12BEC
  8
0
 10
3650.1532014046929362
 20
164.6915696283024886
 30
0.0
 11
3650.153201404389165
 21
164.6902314900573003
 31
0.0
  0
LINE
  5
12BED
  8
0
 10
3650.1532014046929362
 20
164.6915696283024886
 30
0.0
 11
3650.1540407882189356
 21
164.6917209840001988
 31
0.0
  0
LINE
  5
12BEE
  8
0
 10
3650.1540407882189356
 20
164.6917209840001988
 30
0.0
 11
3650.1540407876341305
 21
164.690350917671509
 31
0.0
  0
LINE
  5
12BEF
  8
0
 10
3650.1540407882189356
 20
164.6917209840001988
 30
0.0
 11
3650.1710885322931972
 21
164.6937942495025027
 31
0.0
  0
LINE
  5
12BF0
  8
0
 10
3650.1710885322931972
 20
164.6937942495025027
 30
0.0
 11
3650.1710885321817841
 21
164.6930434804625918
 31
0.0
  0
LINE
  5
12BF1
  8
0
 10
3650.1540407889037851
 20
164.6930731220454902
 30
0.0
 11
3650.1540407884140222
 21
164.6981966776687045
 31
0.0
  0
LINE
  5
12BF2
  8
0
 10
3650.1369930467340055
 20
164.7974951992144952
 30
0.0
 11
3650.1369930465148173
 21
164.7908876749332023
 31
0.0
  0
LINE
  5
12BF3
  8
0
 10
3650.1369930465148173
 20
164.7908876749332023
 30
0.0
 11
3650.154040790693216
 21
164.7872313710142862
 31
0.0
  0
LINE
  5
12BF4
  8
0
 10
3650.154040790693216
 20
164.7872313710142862
 30
0.0
 11
3650.1706162206628505
 21
164.7957927255318111
 31
0.0
  0
LINE
  5
12BF5
  8
0
 10
3650.154040790693216
 20
164.7872313710142862
 30
0.0
 11
3650.1540407905918073
 21
164.7967227887685056
 31
0.0
  0
LINE
  5
12BF6
  8
0
 10
3650.1648318959928474
 20
164.7785150872080919
 30
0.0
 11
3650.1648318961929363
 21
164.79001138073221
 31
0.0
  0
LINE
  5
12BF7
  8
0
 10
3650.1648318961929363
 20
164.79001138073221
 30
0.0
 11
3650.1751338947929071
 21
164.7955085791053875
 31
0.0
  0
LINE
  5
12BF8
  8
0
 10
3650.1648318959928474
 20
164.7785150872080919
 30
0.0
 11
3650.1818796400498286
 21
164.7762398226404912
 31
0.0
  0
LINE
  5
12BF9
  8
0
 10
3650.1818796400498286
 20
164.7762398226404912
 30
0.0
 11
3650.1989273843200863
 21
164.7854452134301937
 31
0.0
  0
LINE
  5
12BFA
  8
0
 10
3650.1989273842928014
 20
164.7854452134154997
 30
0.0
 11
3650.1989273843928459
 21
164.793794944653996
 31
0.0
  0
LINE
  5
12BFB
  8
0
 10
3650.2097184894928432
 20
164.7890705736602115
 30
0.0
 11
3650.1926707455932046
 21
164.7794529625213897
 31
0.0
  0
LINE
  5
12BFC
  8
0
 10
3650.1926707455932046
 20
164.7794529625213897
 30
0.0
 11
3650.1926707453822019
 21
164.7690246813550914
 31
0.0
  0
LINE
  5
12BFD
  8
0
 10
3650.1926707453822019
 20
164.7690246813550914
 30
0.0
 11
3650.2097184894741986
 21
164.7681003298588109
 31
0.0
  0
LINE
  5
12BFE
  8
0
 10
3650.2097184894741986
 20
164.7681003298588109
 30
0.0
 11
3650.2097184894928432
 21
164.7890705736602115
 31
0.0
  0
LINE
  5
12BFF
  8
0
 10
3650.2097184894928432
 20
164.7890705736602115
 30
0.0
 11
3650.2267662338931586
 21
164.7881694119828921
 31
0.0
  0
LINE
  5
12C00
  8
0
 10
3650.2267662338931586
 20
164.7881694119828921
 30
0.0
 11
3650.2267662337931142
 21
164.7776269650024972
 31
0.0
  0
LINE
  5
12C01
  8
0
 10
3650.2267662337931142
 20
164.7776269650024972
 30
0.0
 11
3650.2097184894741986
 21
164.7681003298588109
 31
0.0
  0
LINE
  5
12C02
  8
0
 10
3650.1818796396319158
 20
164.7489920668431864
 30
0.0
 11
3650.1648318955931245
 21
164.7502889598025035
 31
0.0
  0
LINE
  5
12C03
  8
0
 10
3650.1648318955931245
 20
164.7502889598025035
 30
0.0
 11
3650.1648318956931689
 21
164.7595697881025103
 31
0.0
  0
LINE
  5
12C04
  8
0
 10
3650.1648318956931689
 20
164.7595697881025103
 30
0.0
 11
3650.1818796395928075
 21
164.7676254263024873
 31
0.0
  0
LINE
  5
12C05
  8
0
 10
3650.1818796395928075
 20
164.7676254263024873
 30
0.0
 11
3650.1989273839931229
 21
164.766338535742392
 31
0.0
  0
LINE
  5
12C06
  8
0
 10
3650.1989273839931229
 20
164.766338535742392
 30
0.0
 11
3650.1989273838930785
 21
164.7569858386025032
 31
0.0
  0
LINE
  5
12C07
  8
0
 10
3650.1989273838930785
 20
164.7569858386025032
 30
0.0
 11
3650.1818796396978541
 21
164.748992066889997
 31
0.0
  0
LINE
  5
12C08
  8
0
 10
3650.1818796396978541
 20
164.748992066889997
 30
0.0
 11
3650.1818796395928075
 21
164.7676254263024873
 31
0.0
  0
LINE
  5
12C09
  8
0
 10
3650.2267662334338638
 20
164.7603791992283107
 30
0.0
 11
3650.2267662332938016
 21
164.7520091402024889
 31
0.0
  0
LINE
  5
12C0A
  8
0
 10
3650.2267662332938016
 20
164.7520091402024889
 30
0.0
 11
3650.2097184890931203
 21
164.7436640965078141
 31
0.0
  0
LINE
  5
12C0B
  8
0
 10
3650.2097184890931203
 20
164.7436640965078141
 30
0.0
 11
3650.1926707449929381
 21
164.743664096713303
 31
0.0
  0
LINE
  5
12C0C
  8
0
 10
3650.1926707449929381
 20
164.743664096713303
 30
0.0
 11
3650.1926707450929825
 21
164.7519471484025075
 31
0.0
  0
LINE
  5
12C0D
  8
0
 10
3650.1926707450929825
 20
164.7519471484025075
 30
0.0
 11
3650.2097184889930759
 21
164.7603293410024889
 31
0.0
  0
LINE
  5
12C0E
  8
0
 10
3650.2097184889930759
 20
164.7603293410024889
 30
0.0
 11
3650.2267662334338638
 21
164.7603791992283107
 31
0.0
  0
LINE
  5
12C0F
  8
0
 10
3650.2097184889930759
 20
164.7603293410024889
 30
0.0
 11
3650.2097184887920776
 21
164.7436640965078141
 31
0.0
  0
LINE
  5
12C10
  8
0
 10
3650.1818796400498286
 20
164.7762398226404912
 30
0.0
 11
3650.1818796400498286
 21
164.7950598249173879
 31
0.0
  0
LINE
  5
12C11
  8
0
 10
3650.1989273835770291
 20
164.7417922451647883
 30
0.0
 11
3650.1818796391930846
 21
164.7421357149025027
 31
0.0
  0
LINE
  5
12C12
  8
0
 10
3650.1818796391930846
 20
164.7421357149025027
 30
0.0
 11
3650.1648318952920818
 21
164.7352006007025125
 31
0.0
  0
LINE
  5
12C13
  8
0
 10
3650.1648318952920818
 20
164.7352006007025125
 30
0.0
 11
3650.1648318951420151
 21
164.7279440091269862
 31
0.0
  0
LINE
  5
12C14
  8
0
 10
3650.1648318951420151
 20
164.7279440091269862
 30
0.0
 11
3650.1818796391480646
 21
164.7275782837384099
 31
0.0
  0
LINE
  5
12C15
  8
0
 10
3650.1818796391480646
 20
164.7275782837384099
 30
0.0
 11
3650.1818796391930846
 21
164.7421357147742071
 31
0.0
  0
LINE
  5
12C16
  8
0
 10
3650.1818796391480646
 20
164.7275782837384099
 30
0.0
 11
3650.1989273833928564
 21
164.7344911445024991
 31
0.0
  0
LINE
  5
12C17
  8
0
 10
3650.1989273833928564
 20
164.7344911445024991
 30
0.0
 11
3650.1989273835770291
 21
164.7417922451647883
 31
0.0
  0
LINE
  5
12C18
  8
0
 10
3650.2546050832929723
 20
164.7821768756180916
 30
0.0
 11
3650.2375573388922021
 21
164.7817002340024999
 31
0.0
  0
LINE
  5
12C19
  8
0
 10
3650.2375573388922021
 20
164.7817002340024999
 30
0.0
 11
3650.2205095950289433
 21
164.7717549867514037
 31
0.0
  0
LINE
  5
12C1A
  8
0
 10
3650.2205095950289433
 20
164.7717549867514037
 30
0.0
 11
3650.2205095948920643
 21
164.7623434892024932
 31
0.0
  0
LINE
  5
12C1B
  8
0
 10
3650.2205095948920643
 20
164.7623434892024932
 30
0.0
 11
3650.2375573388922021
 21
164.7627618726779986
 31
0.0
  0
LINE
  5
12C1C
  8
0
 10
3650.2375573388922021
 20
164.7627618726779986
 30
0.0
 11
3650.2375573388922021
 21
164.7817002340024999
 31
0.0
  0
LINE
  5
12C1D
  8
0
 10
3650.2375573388922021
 20
164.762761872728106
 30
0.0
 11
3650.2546050831929279
 21
164.7726488777175859
 31
0.0
  0
LINE
  5
12C1E
  8
0
 10
3650.2546050831929279
 20
164.7726488777175859
 30
0.0
 11
3650.2546050832929723
 21
164.782176875702504
 31
0.0
  0
LINE
  5
12C1F
  8
0
 10
3650.248348444793919
 20
164.7890295497342947
 30
0.0
 11
3650.2483484446929651
 21
164.7842556511025123
 31
0.0
  0
LINE
  5
12C20
  8
0
 10
3650.2483484446929651
 20
164.7842556511025123
 30
0.0
 11
3650.2653961887208425
 21
164.785117337008387
 31
0.0
  0
LINE
  5
12C21
  8
0
 10
3650.2653961887208425
 20
164.785117337008387
 30
0.0
 11
3650.2653961887208425
 21
164.7868007793682921
 31
0.0
  0
LINE
  5
12C22
  8
0
 10
3650.2653961887931473
 20
164.7851173370025037
 30
0.0
 11
3650.2675047977832037
 21
164.7864970365394015
 31
0.0
  0
LINE
  5
12C23
  8
0
 10
3650.2761872940927788
 20
164.7803898079529006
 30
0.0
 11
3650.2761872941928232
 21
164.7851808735190104
 31
0.0
  0
LINE
  5
12C24
  8
0
 10
3650.2761872940927788
 20
164.7803898079529006
 30
0.0
 11
3650.2926763311188552
 21
164.7823896527179954
 31
0.0
  0
LINE
  5
12C25
  8
0
 10
3650.2824439326927859
 20
164.7790532097999971
 30
0.0
 11
3650.2824439325931962
 21
164.7705101721024903
 31
0.0
  0
LINE
  5
12C26
  8
0
 10
3650.2824439325931962
 20
164.7705101721024903
 30
0.0
 11
3650.2653961884548153
 21
164.7602180436728077
 31
0.0
  0
LINE
  5
12C27
  8
0
 10
3650.2653961884548153
 20
164.7602180436728077
 30
0.0
 11
3650.2483484442927875
 21
164.7584441479025088
 31
0.0
  0
LINE
  5
12C28
  8
0
 10
3650.2483484442927875
 20
164.7584441479025088
 30
0.0
 11
3650.2483484443928319
 21
164.7668730076024985
 31
0.0
  0
LINE
  5
12C29
  8
0
 10
3650.2483484443928319
 20
164.7668730076024985
 30
0.0
 11
3650.2653961882929252
 21
164.7771883180024872
 31
0.0
  0
LINE
  5
12C2A
  8
0
 10
3650.2653961882929252
 20
164.7771883180024872
 30
0.0
 11
3650.2824439326927859
 21
164.7790532097999971
 31
0.0
  0
LINE
  5
12C2B
  8
0
 10
3650.2653961882929252
 20
164.7771883180024872
 30
0.0
 11
3650.2653961883461307
 21
164.7602180436091999
 31
0.0
  0
LINE
  5
12C2C
  8
0
 10
3650.2932350376931936
 20
164.7755416832025048
 30
0.0
 11
3650.2761872937931003
 21
164.7648077857419935
 31
0.0
  0
LINE
  5
12C2D
  8
0
 10
3650.2761872937931003
 20
164.7648077857419935
 30
0.0
 11
3650.276187293673047
 21
164.7573427142089884
 31
0.0
  0
LINE
  5
12C2E
  8
0
 10
3650.276187293673047
 20
164.7573427142089884
 30
0.0
 11
3650.2932350377259354
 21
164.7605065358987986
 31
0.0
  0
LINE
  5
12C2F
  8
0
 10
3650.2932350377259354
 20
164.7605065358987986
 30
0.0
 11
3650.293235037624072
 21
164.7755416831595028
 31
0.0
  0
LINE
  5
12C30
  8
0
 10
3650.293235037624072
 20
164.7755416831595028
 30
0.0
 11
3650.310282782134891
 21
164.7788284464155026
 31
0.0
  0
LINE
  5
12C31
  8
0
 10
3650.310282782134891
 20
164.7788284464155026
 30
0.0
 11
3650.3102827819930098
 21
164.7712564204747139
 31
0.0
  0
LINE
  5
12C32
  8
0
 10
3650.3102827819930098
 20
164.7712564204747139
 30
0.0
 11
3650.2932350377927833
 21
164.7605065360116896
 31
0.0
  0
LINE
  5
12C33
  8
0
 10
3650.3040261435821776
 20
164.7802444390952132
 30
0.0
 11
3650.3040261434930471
 21
164.7794140086024868
 31
0.0
  0
LINE
  5
12C34
  8
0
 10
3650.3040261434930471
 20
164.7794140086024868
 30
0.0
 11
3650.3061311485830629
 21
164.7798263481969059
 31
0.0
  0
LINE
  5
12C35
  8
0
 10
3650.3355408792349408
 20
164.7731321469769057
 30
0.0
 11
3650.3210738871930516
 21
164.7637121954024906
 31
0.0
  0
LINE
  5
12C36
  8
0
 10
3650.3210738871930516
 20
164.7637121954024906
 30
0.0
 11
3650.3210738871930516
 21
164.7763697398690113
 31
0.0
  0
LINE
  5
12C37
  8
0
 10
3650.3210738870238856
 20
164.7637121952921859
 30
0.0
 11
3650.3040261430928695
 21
164.7590999411474968
 31
0.0
  0
LINE
  5
12C38
  8
0
 10
3650.3040261430928695
 20
164.7590999411474968
 30
0.0
 11
3650.3040261432929583
 21
164.7656053495088884
 31
0.0
  0
LINE
  5
12C39
  8
0
 10
3650.3040261432929583
 20
164.7656053495088884
 30
0.0
 11
3650.3210550919611705
 21
164.7766792710974926
 31
0.0
  0
LINE
  5
12C3A
  8
0
 10
3650.3369263166077872
 20
164.7727335350485873
 30
0.0
 11
3650.3318649926932267
 21
164.7693607955148991
 31
0.0
  0
LINE
  5
12C3B
  8
0
 10
3650.3318649926559374
 20
164.7693607954902859
 30
0.0
 11
3650.3318649924931378
 21
164.7638262607025013
 31
0.0
  0
LINE
  5
12C3C
  8
0
 10
3650.3318649924931378
 20
164.7638262607025013
 30
0.0
 11
3650.3475443013198856
 21
164.7692830527772969
 31
0.0
  0
LINE
  5
12C3D
  8
0
 10
3650.3521752474230198
 20
164.7675520351743899
 30
0.0
 11
3650.3489127360930979
 21
164.7662271672188012
 31
0.0
  0
LINE
  5
12C3E
  8
0
 10
3650.3489127360930979
 20
164.7662271672188012
 30
0.0
 11
3650.3318649921930046
 21
164.7555866852783026
 31
0.0
  0
LINE
  5
12C3F
  8
0
 10
3650.3318649921930046
 20
164.7555866852783026
 30
0.0
 11
3650.3318649919938252
 21
164.7521007652024991
 31
0.0
  0
LINE
  5
12C40
  8
0
 10
3650.3318649919938252
 20
164.7521007652024991
 30
0.0
 11
3650.3489127360930979
 21
164.7592553273015028
 31
0.0
  0
LINE
  5
12C41
  8
0
 10
3650.3489127360930979
 20
164.7592553273015028
 30
0.0
 11
3650.3582949818319321
 21
164.7650441457178943
 31
0.0
  0
LINE
  5
12C42
  8
0
 10
3650.3489127411530717
 20
164.7592553304237981
 30
0.0
 11
3650.3489127360930979
 21
164.7662271672188012
 31
0.0
  0
LINE
  5
12C43
  8
0
 10
3650.2546050828927946
 20
164.7571990303025018
 30
0.0
 11
3650.2375573384929339
 21
164.7558047561024921
 31
0.0
  0
LINE
  5
12C44
  8
0
 10
3650.2375573384929339
 20
164.7558047561024921
 30
0.0
 11
3650.2205095945928406
 21
164.7470638732455086
 31
0.0
  0
LINE
  5
12C45
  8
0
 10
3650.2205095945928406
 20
164.7470638732455086
 30
0.0
 11
3650.2205095943932065
 21
164.7397264159025099
 31
0.0
  0
LINE
  5
12C46
  8
0
 10
3650.2205095943932065
 20
164.7397264159025099
 30
0.0
 11
3650.2375573384160816
 21
164.7410588158435871
 31
0.0
  0
LINE
  5
12C47
  8
0
 10
3650.2375573384160816
 20
164.7410588158435871
 30
0.0
 11
3650.2375573384929339
 21
164.755804755906496
 31
0.0
  0
LINE
  5
12C48
  8
0
 10
3650.2375573385302232
 20
164.741058815854899
 30
0.0
 11
3650.2546050827609179
 21
164.7497896984451984
 31
0.0
  0
LINE
  5
12C49
  8
0
 10
3650.2546050827609179
 20
164.7497896984451984
 30
0.0
 11
3650.2546050820042183
 21
164.7571990302299128
 31
0.0
  0
LINE
  5
12C4A
  8
0
 10
3650.2824439322648686
 20
164.7568253123037039
 30
0.0
 11
3650.2653961881778741
 21
164.7540579209675116
 31
0.0
  0
LINE
  5
12C4B
  8
0
 10
3650.2653961881778741
 20
164.7540579209675116
 30
0.0
 11
3650.248348443993109
 21
164.7449206627254057
 31
0.0
  0
LINE
  5
12C4C
  8
0
 10
3650.248348443993109
 20
164.7449206627254057
 30
0.0
 11
3650.2483484437921106
 21
164.7385289089025093
 31
0.0
  0
LINE
  5
12C4D
  8
0
 10
3650.2483484437921106
 20
164.7385289089025093
 30
0.0
 11
3650.2653961878681912
 21
164.7412110593236036
 31
0.0
  0
LINE
  5
12C4E
  8
0
 10
3650.2653961878681912
 20
164.7412110593236036
 30
0.0
 11
3650.2824439320947931
 21
164.7503692122114956
 31
0.0
  0
LINE
  5
12C4F
  8
0
 10
3650.2824439320947931
 20
164.7503692122114956
 30
0.0
 11
3650.2824439322648686
 21
164.7568253123037039
 31
0.0
  0
LINE
  5
12C50
  8
0
 10
3650.2653961878681912
 20
164.7412110593236036
 30
0.0
 11
3650.2653961878932023
 21
164.7540579209212126
 31
0.0
  0
LINE
  5
12C51
  8
0
 10
3650.3102827816928766
 20
164.7593307962451945
 30
0.0
 11
3650.2932350372921064
 21
164.7551385821012957
 31
0.0
  0
LINE
  5
12C52
  8
0
 10
3650.2932350372921064
 20
164.7551385821012957
 30
0.0
 11
3650.276187293365183
 21
164.7455598560850945
 31
0.0
  0
LINE
  5
12C53
  8
0
 10
3650.276187293365183
 20
164.7455598560850945
 30
0.0
 11
3650.2761872932660481
 21
164.7401151155445973
 31
0.0
  0
LINE
  5
12C54
  8
0
 10
3650.2761872932660481
 20
164.7401151155445973
 30
0.0
 11
3650.2932350372921064
 21
164.7441990915270082
 31
0.0
  0
LINE
  5
12C55
  8
0
 10
3650.2932350372921064
 20
164.7441990915270082
 30
0.0
 11
3650.3102827814927878
 21
164.7538350846025139
 31
0.0
  0
LINE
  5
12C56
  8
0
 10
3650.3102827814927878
 20
164.7538350846025139
 30
0.0
 11
3650.3102827816928766
 21
164.7593307963024927
 31
0.0
  0
LINE
  5
12C57
  8
0
 10
3650.2932350372921064
 20
164.7441990915270082
 30
0.0
 11
3650.2932350372921064
 21
164.755138582302493
 31
0.0
  0
LINE
  5
12C58
  8
0
 10
3650.338121631093145
 20
164.7648397402464866
 30
0.0
 11
3650.3210738866928295
 21
164.7591439858024955
 31
0.0
  0
LINE
  5
12C59
  8
0
 10
3650.3210738866928295
 20
164.7591439858024955
 30
0.0
 11
3650.304026142793191
 21
164.7490687329598984
 31
0.0
  0
LINE
  5
12C5A
  8
0
 10
3650.304026142793191
 20
164.7490687329598984
 30
0.0
 11
3650.3040261425931021
 21
164.7445870133024926
 31
0.0
  0
LINE
  5
12C5B
  8
0
 10
3650.3040261425931021
 20
164.7445870133024926
 30
0.0
 11
3650.3210738867428518
 21
164.7501508965771961
 31
0.0
  0
LINE
  5
12C5C
  8
0
 10
3650.3210738867428518
 20
164.7501508965771961
 30
0.0
 11
3650.3381216309931006
 21
164.7603276911096941
 31
0.0
  0
LINE
  5
12C5D
  8
0
 10
3650.3381216309931006
 20
164.7603276911096941
 30
0.0
 11
3650.338121631093145
 21
164.7648397403025058
 31
0.0
  0
LINE
  5
12C5E
  8
0
 10
3650.3210738870338901
 20
164.7591439858628917
 30
0.0
 11
3650.3210738852008035
 21
164.7501508960741887
 31
0.0
  0
LINE
  5
12C5F
  8
0
 10
3650.2824439317928409
 20
164.7403969994664976
 30
0.0
 11
3650.2653961870519197
 21
164.7367120107950029
 31
0.0
  0
LINE
  5
12C60
  8
0
 10
3650.2653961870519197
 20
164.7367120107950029
 30
0.0
 11
3650.2483484434928869
 21
164.7286337376025074
 31
0.0
  0
LINE
  5
12C61
  8
0
 10
3650.2483484434928869
 20
164.7286337376025074
 30
0.0
 11
3650.2483484433610101
 21
164.7241887507913987
 31
0.0
  0
LINE
  5
12C62
  8
0
 10
3650.2483484433610101
 20
164.7241887507913987
 30
0.0
 11
3650.2653961871019419
 21
164.7277189215697035
 31
0.0
  0
LINE
  5
12C63
  8
0
 10
3650.2653961871019419
 20
164.7277189215697035
 30
0.0
 11
3650.2824439316927965
 21
164.7359312055438068
 31
0.0
  0
LINE
  5
12C64
  8
0
 10
3650.2653961873929802
 20
164.7367120108553991
 30
0.0
 11
3650.2653961855608031
 21
164.7277189210666961
 31
0.0
  0
LINE
  5
12C65
  8
0
 10
3650.2824439317928409
 20
164.7403969994664976
 30
0.0
 11
3650.2824439316927965
 21
164.7359312056024976
 31
0.0
  0
LINE
  5
12C66
  8
0
 10
3650.3102827811931093
 20
164.745630610202511
 30
0.0
 11
3650.3102827810930648
 21
164.74214469014629
 31
0.0
  0
LINE
  5
12C67
  8
0
 10
3650.3102827810930648
 20
164.74214469014629
 30
0.0
 11
3650.2932350368628249
 21
164.7335213512448036
 31
0.0
  0
LINE
  5
12C68
  8
0
 10
3650.2932350368628249
 20
164.7335213512448036
 30
0.0
 11
3650.2932350367927938
 21
164.7404931912842017
 31
0.0
  0
LINE
  5
12C69
  8
0
 10
3650.2932350367927938
 20
164.7404931912842017
 30
0.0
 11
3650.2761872928931552
 21
164.7319567475979056
 31
0.0
  0
LINE
  5
12C6A
  8
0
 10
3650.2761872928931552
 20
164.7319567475979056
 30
0.0
 11
3650.2761872927931108
 21
164.7284708275024911
 31
0.0
  0
LINE
  5
12C6B
  8
0
 10
3650.2761872927931108
 20
164.7284708275024911
 30
0.0
 11
3650.2932350368628249
 21
164.7335213512448036
 31
0.0
  0
LINE
  5
12C6C
  8
0
 10
3650.2932350367927938
 20
164.7404931912842017
 30
0.0
 11
3650.3102827811931093
 21
164.7456306102349117
 31
0.0
  0
LINE
  5
12C6D
  8
0
 10
3650.3381216305929229
 20
164.7539539402623916
 30
0.0
 11
3650.3210738861930622
 21
164.7472630656749004
 31
0.0
  0
LINE
  5
12C6E
  8
0
 10
3650.3210738861930622
 20
164.7472630656749004
 30
0.0
 11
3650.3040261423511765
 21
164.7382132624674966
 31
0.0
  0
LINE
  5
12C6F
  8
0
 10
3650.3040261423511765
 20
164.7382132624674966
 30
0.0
 11
3650.3040261421929245
 21
164.7357231419584878
 31
0.0
  0
LINE
  5
12C70
  8
0
 10
3650.3040261421929245
 20
164.7357231419584878
 30
0.0
 11
3650.3210738843181389
 21
164.7423124739779894
 31
0.0
  0
LINE
  5
12C71
  8
0
 10
3650.3210738843181389
 20
164.7423124739779894
 30
0.0
 11
3650.3381216304928785
 21
164.7514941493566027
 31
0.0
  0
LINE
  5
12C72
  8
0
 10
3650.3381216304928785
 20
164.7514941493566027
 30
0.0
 11
3650.3381216305929229
 21
164.7539539402623916
 31
0.0
  0
LINE
  5
12C73
  8
0
 10
3650.3210738861930622
 20
164.7472630658025139
 30
0.0
 11
3650.3210738842872161
 21
164.7423124739661091
 31
0.0
  0
LINE
  5
12C74
  8
0
 10
3650.2653961872520085
 20
164.724913732240708
 30
0.0
 11
3650.2483484430917997
 21
164.7178149999639913
 31
0.0
  0
LINE
  5
12C75
  8
0
 10
3650.2483484430917997
 20
164.7178149999639913
 30
0.0
 11
3650.2483484428857992
 21
164.7152881466292058
 31
0.0
  0
LINE
  5
12C76
  8
0
 10
3650.2483484428857992
 20
164.7152881466292058
 30
0.0
 11
3650.2653961869300474
 21
164.7198805000462016
 31
0.0
  0
LINE
  5
12C77
  8
0
 10
3650.2653961869300474
 20
164.7198805000462016
 30
0.0
 11
3650.2653961869928025
 21
164.7249137322025092
 31
0.0
  0
LINE
  5
12C78
  8
0
 10
3650.2653961869928025
 20
164.7249137322025092
 30
0.0
 11
3650.282443931339003
 21
164.7295574547111983
 31
0.0
  0
LINE
  5
12C79
  8
0
 10
3650.282443931339003
 20
164.7295574547111983
 30
0.0
 11
3650.2824439311830247
 21
164.7270514085373065
 31
0.0
  0
LINE
  5
12C7A
  8
0
 10
3650.2824439311830247
 20
164.7270514085373065
 30
0.0
 11
3650.2653961869928025
 21
164.7198805000940922
 31
0.0
  0
LINE
  5
12C7B
  8
0
 10
3650.2546050819828451
 20
164.7245289122033114
 30
0.0
 11
3650.2375573379008529
 21
164.7212990341377008
 31
0.0
  0
LINE
  5
12C7C
  8
0
 10
3650.2375573379008529
 20
164.7212990341377008
 30
0.0
 11
3650.2205095936928956
 21
164.7146272301621082
 31
0.0
  0
LINE
  5
12C7D
  8
0
 10
3650.2205095936928956
 20
164.7146272301621082
 30
0.0
 11
3650.2205095934928067
 21
164.711141310002489
 31
0.0
  0
LINE
  5
12C7E
  8
0
 10
3650.2205095934928067
 20
164.711141310002489
 30
0.0
 11
3650.2375573375929889
 21
164.7143271938759881
 31
0.0
  0
LINE
  5
12C7F
  8
0
 10
3650.2375573375929889
 20
164.7143271938759881
 30
0.0
 11
3650.2546050817932155
 21
164.7210429921024968
 31
0.0
  0
LINE
  5
12C80
  8
0
 10
3650.2546050817932155
 20
164.7210429921024968
 30
0.0
 11
3650.2546050819828451
 21
164.7245289122033114
 31
0.0
  0
LINE
  5
12C81
  8
0
 10
3650.2375573354570406
 20
164.7143271934768904
 30
0.0
 11
3650.2375573375929889
 21
164.7212990341024863
 31
0.0
  0
LINE
  5
12C82
  8
0
 10
3650.2097184876929532
 20
164.7087318176058091
 30
0.0
 11
3650.1926707437928599
 21
164.703400441702513
 31
0.0
  0
LINE
  5
12C83
  8
0
 10
3650.1926707437928599
 20
164.703400441702513
 30
0.0
 11
3650.1926707435932258
 21
164.7008492248025107
 31
0.0
  0
LINE
  5
12C84
  8
0
 10
3650.1926707435932258
 20
164.7008492248025107
 30
0.0
 11
3650.2097184876802203
 21
164.7036428530396108
 31
0.0
  0
LINE
  5
12C85
  8
0
 10
3650.2097184876802203
 20
164.7036428530396108
 30
0.0
 11
3650.2097184876929532
 21
164.7087318176058091
 31
0.0
  0
LINE
  5
12C86
  8
0
 10
3650.2097184876929532
 20
164.7087318176058091
 30
0.0
 11
3650.2267662320909949
 21
164.7115469346557859
 31
0.0
  0
LINE
  5
12C87
  8
0
 10
3650.2267662320909949
 20
164.7115469346557859
 30
0.0
 11
3650.2267662318931798
 21
164.7090093325024895
 31
0.0
  0
LINE
  5
12C88
  8
0
 10
3650.2267662318931798
 20
164.7090093325024895
 30
0.0
 11
3650.2097184876802203
 21
164.7036428530284979
 31
0.0
  0
LINE
  5
12C89
  8
0
 10
3650.2267662329841187
 20
164.7385688582427861
 30
0.0
 11
3650.226766232888167
 21
164.7322103121007899
 31
0.0
  0
LINE
  5
12C8A
  8
0
 10
3650.226766232888167
 20
164.7322103121007899
 30
0.0
 11
3650.2097184886629293
 21
164.7249268032626048
 31
0.0
  0
LINE
  5
12C8B
  8
0
 10
3650.2097184886629293
 20
164.7249268032626048
 30
0.0
 11
3650.1926707444931708
 21
164.7239998295025032
 31
0.0
  0
LINE
  5
12C8C
  8
0
 10
3650.1926707444931708
 20
164.7239998295025032
 30
0.0
 11
3650.1926707446928049
 21
164.7303163451782098
 31
0.0
  0
LINE
  5
12C8D
  8
0
 10
3650.1926707446928049
 20
164.7303163451782098
 30
0.0
 11
3650.2097184885928982
 21
164.7376014559067983
 31
0.0
  0
LINE
  5
12C8E
  8
0
 10
3650.2097184885928982
 20
164.7376014559067983
 30
0.0
 11
3650.2267662329841187
 21
164.7385688582427861
 31
0.0
  0
LINE
  5
12C8F
  8
0
 10
3650.2097184885928982
 20
164.7376014561025102
 30
0.0
 11
3650.2097184885928982
 21
164.7249268032587963
 31
0.0
  0
LINE
  5
12C90
  8
0
 10
3650.2097184880931309
 20
164.7204743640174911
 30
0.0
 11
3650.1926707441930375
 21
164.7141948157619993
 31
0.0
  0
LINE
  5
12C91
  8
0
 10
3650.1926707441930375
 20
164.7141948157619993
 30
0.0
 11
3650.1926707440920836
 21
164.7097741925331036
 31
0.0
  0
LINE
  5
12C92
  8
0
 10
3650.1926707440920836
 20
164.7097741925331036
 30
0.0
 11
3650.2097184881390604
 21
164.7116196485293926
 31
0.0
  0
LINE
  5
12C93
  8
0
 10
3650.2097184881390604
 20
164.7116196485293926
 30
0.0
 11
3650.2097184880931309
 21
164.7204743640174911
 31
0.0
  0
LINE
  5
12C94
  8
0
 10
3650.2097184880931309
 20
164.7204743640174911
 30
0.0
 11
3650.226766232593036
 21
164.7223549236024951
 31
0.0
  0
LINE
  5
12C95
  8
0
 10
3650.226766232593036
 20
164.7223549236024951
 30
0.0
 11
3650.2267662323929471
 21
164.7179206855024916
 31
0.0
  0
LINE
  5
12C96
  8
0
 10
3650.2267662323929471
 20
164.7179206855024916
 30
0.0
 11
3650.2097184881390604
 21
164.7116196485293926
 31
0.0
  0
LINE
  5
12C97
  8
0
 10
3650.1818796386928625
 20
164.7223546101959926
 30
0.0
 11
3650.1648318948018641
 21
164.7164400059861862
 31
0.0
  0
LINE
  5
12C98
  8
0
 10
3650.1648318948018641
 20
164.7164400059861862
 30
0.0
 11
3650.1648318946931795
 21
164.7110949811024909
 31
0.0
  0
LINE
  5
12C99
  8
0
 10
3650.1648318946931795
 20
164.7110949811024909
 30
0.0
 11
3650.1818796386928625
 21
164.7116433999011917
 31
0.0
  0
LINE
  5
12C9A
  8
0
 10
3650.1818796386928625
 20
164.7116433999011917
 30
0.0
 11
3650.1818796386928625
 21
164.7223546104025047
 31
0.0
  0
LINE
  5
12C9B
  8
0
 10
3650.1818796386928625
 20
164.7223546104025047
 30
0.0
 11
3650.1989273831968603
 21
164.7229275457264919
 31
0.0
  0
LINE
  5
12C9C
  8
0
 10
3650.1989273831968603
 20
164.7229275457264919
 30
0.0
 11
3650.1989273829931335
 21
164.7175611930024957
 31
0.0
  0
LINE
  5
12C9D
  8
0
 10
3650.1989273829931335
 20
164.7175611930024957
 30
0.0
 11
3650.1818796386928625
 21
164.7116433999011917
 31
0.0
  0
LINE
  5
12C9E
  8
0
 10
3650.2546050823921178
 20
164.7380813227024987
 30
0.0
 11
3650.2375573383819756
 21
164.7357781499588043
 31
0.0
  0
LINE
  5
12C9F
  8
0
 10
3650.2375573383819756
 20
164.7357781499588043
 30
0.0
 11
3650.2375573379931666
 21
164.7249767105058993
 31
0.0
  0
LINE
  5
12CA0
  8
0
 10
3650.2375573379931666
 20
164.7249767105058993
 30
0.0
 11
3650.2205095939930288
 21
164.7227304036024975
 31
0.0
  0
LINE
  5
12CA1
  8
0
 10
3650.2205095939930288
 20
164.7227304036024975
 30
0.0
 11
3650.2205095940507817
 21
164.7281141620410096
 31
0.0
  0
LINE
  5
12CA2
  8
0
 10
3650.2205095940507817
 20
164.7281141620410096
 30
0.0
 11
3650.2375573379931666
 21
164.7357781499061957
 31
0.0
  0
LINE
  5
12CA3
  8
0
 10
3650.2375573379931666
 20
164.7249767104748912
 30
0.0
 11
3650.2546050822929828
 21
164.732663196202509
 31
0.0
  0
LINE
  5
12CA4
  8
0
 10
3650.2546050822929828
 20
164.732663196202509
 30
0.0
 11
3650.2546050823871155
 21
164.7380813226872078
 31
0.0
  0
LINE
  5
12CA5
  8
0
 10
3650.1989273826930003
 20
164.7094737797307005
 30
0.0
 11
3650.1818796386050963
 21
164.7079841842086125
 31
0.0
  0
LINE
  5
12CA6
  8
0
 10
3650.1818796386050963
 20
164.7079841842086125
 30
0.0
 11
3650.1648318943930462
 21
164.703026882988496
 31
0.0
  0
LINE
  5
12CA7
  8
0
 10
3650.1648318943930462
 20
164.703026882988496
 30
0.0
 11
3650.1648318941929574
 21
164.6995409629024891
 31
0.0
  0
LINE
  5
12CA8
  8
0
 10
3650.1648318941929574
 20
164.6995409629024891
 30
0.0
 11
3650.1818796382449364
 21
164.7010123439887934
 31
0.0
  0
LINE
  5
12CA9
  8
0
 10
3650.1818796382449364
 20
164.7010123439887934
 30
0.0
 11
3650.1989273825720375
 21
164.7059878596377871
 31
0.0
  0
LINE
  5
12CAA
  8
0
 10
3650.1989273825720375
 20
164.7059878596377871
 30
0.0
 11
3650.1989273826930003
 21
164.7094737797307005
 31
0.0
  0
LINE
  5
12CAB
  8
0
 10
3650.1818796382931396
 20
164.7079841841812993
 30
0.0
 11
3650.1818796382449364
 21
164.7010123439887934
 31
0.0
  0
LINE
  5
12CAC
  8
0
 10
3650.1989273822459836
 20
164.7013277711965884
 30
0.0
 11
3650.1818796381221546
 21
164.6988958982410054
 31
0.0
  0
LINE
  5
12CAD
  8
0
 10
3650.1818796381221546
 20
164.6988958982410054
 30
0.0
 11
3650.1648318938928242
 21
164.6948615593024954
 31
0.0
  0
LINE
  5
12CAE
  8
0
 10
3650.1648318938928242
 20
164.6948615593024954
 30
0.0
 11
3650.1648318938928242
 21
164.6932347441025115
 31
0.0
  0
LINE
  5
12CAF
  8
0
 10
3650.1648318938928242
 20
164.6932347441025115
 30
0.0
 11
3650.1818796373008809
 21
164.6956634282948073
 31
0.0
  0
LINE
  5
12CB0
  8
0
 10
3650.1818796373008809
 20
164.6956634282948073
 30
0.0
 11
3650.1989273820599919
 21
164.6997222838992059
 31
0.0
  0
LINE
  5
12CB1
  8
0
 10
3650.1989273820599919
 20
164.6997222838992059
 30
0.0
 11
3650.1989273822459836
 21
164.7013277711965884
 31
0.0
  0
LINE
  5
12CB2
  8
0
 10
3650.1818796373008809
 20
164.6956634282948073
 30
0.0
 11
3650.181879637793827
 21
164.6988958981391988
 31
0.0
  0
LINE
  5
12CB3
  8
0
 10
3650.2267662315930465
 20
164.7060151721024965
 30
0.0
 11
3650.2097184871931859
 21
164.7023196305403872
 31
0.0
  0
LINE
  5
12CB4
  8
0
 10
3650.2097184871931859
 20
164.7023196305403872
 30
0.0
 11
3650.2002148631381715
 21
164.6997757513406953
 31
0.0
  0
LINE
  5
12CB5
  8
0
 10
3650.2002148631381715
 20
164.6997757513406953
 30
0.0
 11
3650.2002148631381715
 21
164.698837717786688
 31
0.0
  0
LINE
  5
12CB6
  8
0
 10
3650.2097184875719904
 20
164.7023196305808028
 30
0.0
 11
3650.2097184875719904
 21
164.7010604211311886
 31
0.0
  0
LINE
  5
12CB7
  8
0
 10
3650.2267662315930465
 20
164.7060151721024965
 30
0.0
 11
3650.2267662315930465
 21
164.7054661363754064
 31
0.0
  0
LINE
  5
12CB8
  8
0
 10
3650.2205095929930394
 20
164.7049089001025095
 30
0.0
 11
3650.2205095932149561
 21
164.7064969818131885
 31
0.0
  0
LINE
  5
12CB9
  8
0
 10
3650.2205095932149561
 20
164.7064969818131885
 30
0.0
 11
3650.2375573373878979
 21
164.7122292087304913
 31
0.0
  0
LINE
  5
12CBA
  8
0
 10
3650.2375573373878979
 20
164.7122292087304913
 30
0.0
 11
3650.2375573370932216
 21
164.7090869679682044
 31
0.0
  0
LINE
  5
12CBB
  8
0
 10
3650.2375573370932216
 20
164.7090869679682044
 30
0.0
 11
3650.2205095929930394
 21
164.7049089020237886
 31
0.0
  0
LINE
  5
12CBC
  8
0
 10
3650.2375573370932216
 20
164.7122292086249047
 30
0.0
 11
3650.2546050814930823
 21
164.7164297745136139
 31
0.0
  0
LINE
  5
12CBD
  8
0
 10
3650.2546050814930823
 20
164.7164297745136139
 30
0.0
 11
3650.2546050814930823
 21
164.71487606080251
 31
0.0
  0
LINE
  5
12CBE
  8
0
 10
3650.2546050814930823
 20
164.71487606080251
 30
0.0
 11
3650.2375573379699745
 21
164.7090869681831862
 31
0.0
  0
LINE
  5
12CBF
  8
0
 10
3650.2824439308928959
 20
164.7240994937025107
 30
0.0
 11
3650.2653961868418264
 21
164.7186038867195066
 31
0.0
  0
LINE
  5
12CC0
  8
0
 10
3650.2653961868418264
 20
164.7186038867195066
 30
0.0
 11
3650.2483484425920324
 21
164.7124358162024862
 31
0.0
  0
LINE
  5
12CC1
  8
0
 10
3650.2483484425920324
 20
164.7124358162024862
 30
0.0
 11
3650.2483484425920324
 21
164.7118321080787098
 31
0.0
  0
LINE
  5
12CC2
  8
0
 10
3650.2653961832202185
 20
164.718603885408811
 30
0.0
 11
3650.2653961832202185
 21
164.7175016561074017
 31
0.0
  0
LINE
  5
12CC3
  8
0
 10
3650.2824439308928959
 20
164.7240994937025107
 30
0.0
 11
3650.2824439308928959
 21
164.723755899578407
 31
0.0
  0
LINE
  5
12CC4
  8
0
 10
3650.293235036679107
 20
164.7314515899562934
 30
0.0
 11
3650.2761872924929776
 21
164.7238816938929915
 31
0.0
  0
LINE
  5
12CC5
  8
0
 10
3650.2761872924929776
 20
164.7238816938929915
 30
0.0
 11
3650.2761872922928887
 21
164.7223545941025122
 31
0.0
  0
LINE
  5
12CC6
  8
0
 10
3650.2761872922928887
 20
164.7223545941025122
 30
0.0
 11
3650.293235036329861
 21
164.728447400318089
 31
0.0
  0
LINE
  5
12CC7
  8
0
 10
3650.293235036329861
 20
164.728447400318089
 30
0.0
 11
3650.2932350363930709
 21
164.7314515899024912
 31
0.0
  0
LINE
  5
12CC8
  8
0
 10
3650.2932350363930709
 20
164.7314515899024912
 30
0.0
 11
3650.3102824723141566
 21
164.7376015449652868
 31
0.0
  0
LINE
  5
12CC9
  8
0
 10
3650.3102824723141566
 20
164.7376015449652868
 30
0.0
 11
3650.3102827805928428
 21
164.7361255344025039
 31
0.0
  0
LINE
  5
12CCA
  8
0
 10
3650.3102827805928428
 20
164.7361255344025039
 30
0.0
 11
3650.293235036329861
 21
164.728447400318089
 31
0.0
  0
LINE
  5
12CCB
  8
0
 10
3650.3210738857928845
 20
164.7411050225821043
 30
0.0
 11
3650.3040261417932015
 21
164.7329189358025019
 31
0.0
  0
LINE
  5
12CCC
  8
0
 10
3650.3040261417932015
 20
164.7329189358025019
 30
0.0
 11
3650.3040261417932015
 21
164.7325440874573133
 31
0.0
  0
LINE
  5
12CCD
  8
0
 10
3650.3210738857928845
 20
164.7411050228024862
 30
0.0
 11
3650.3210738857928845
 21
164.7402025070531124
 31
0.0
  0
LINE
  5
12CCE
  8
0
 10
3650.3210738857928845
 20
164.7411050225821043
 30
0.0
 11
3650.3381216301932
 21
164.7488902783024969
 31
0.0
  0
LINE
  5
12CCF
  8
0
 10
3650.3381216301932
 20
164.7488902783024969
 30
0.0
 11
3650.3381216301932
 21
164.7485233098188928
 31
0.0
  0
LINE
  5
12CD0
  8
0
 10
3650.3318649915931928
 20
164.7461555335025025
 30
0.0
 11
3650.3318649916927825
 21
164.7475928389025057
 31
0.0
  0
LINE
  5
12CD1
  8
0
 10
3650.3318649916927825
 20
164.7475928389025057
 30
0.0
 11
3650.3489127360098792
 21
164.7572267332544982
 31
0.0
  0
LINE
  5
12CD2
  8
0
 10
3650.3489127360098792
 20
164.7572267332544982
 30
0.0
 11
3650.361845287469805
 21
164.763470238271708
 31
0.0
  0
LINE
  5
12CD3
  8
0
 10
3650.3489127355928758
 20
164.7544241372025056
 30
0.0
 11
3650.3634604935100469
 21
164.7627244294199045
 31
0.0
  0
LINE
  5
12CD4
  8
0
 10
3650.3489127355928758
 20
164.7544241372025056
 30
0.0
 11
3650.3489127359712256
 21
164.7572267333615059
 31
0.0
  0
LINE
  5
12CD5
  8
0
 10
3650.3489127355928758
 20
164.7544241372025056
 30
0.0
 11
3650.3318649915931928
 21
164.7461555336182926
 31
0.0
  0
LINE
  5
12CD6
  8
0
 10
3650.1091541939931631
 20
164.7553609871112883
 30
0.0
 11
3650.1091541938990304
 21
164.7471841416252971
 31
0.0
  0
LINE
  5
12CD7
  8
0
 10
3650.1091541938990304
 20
164.7471841416252971
 30
0.0
 11
3650.1217053429231783
 21
164.7439615202009122
 31
0.0
  0
LINE
  5
12CD8
  8
0
 10
3650.1091541939931631
 20
164.755360987102506
 30
0.0
 11
3650.1217053433269939
 21
164.7581670519832926
 31
0.0
  0
LINE
  5
12CD9
  8
0
 10
3650.1154108325249581
 20
164.7435375272953877
 30
0.0
 11
3650.0983630879932207
 21
164.7479201751025073
 31
0.0
  0
LINE
  5
12CDA
  8
0
 10
3650.0983630879932207
 20
164.7479201751025073
 30
0.0
 11
3650.0983630880928104
 21
164.7290133514069055
 31
0.0
  0
LINE
  5
12CDB
  8
0
 10
3650.0983630880928104
 20
164.7290133514069055
 30
0.0
 11
3650.0813153439789858
 21
164.7340887592517049
 31
0.0
  0
LINE
  5
12CDC
  8
0
 10
3650.0813153439789858
 20
164.7340887592517049
 30
0.0
 11
3650.0813153440931274
 21
164.7435375272335136
 31
0.0
  0
LINE
  5
12CDD
  8
0
 10
3650.0813153440931274
 20
164.7435375272335136
 30
0.0
 11
3650.0983630879932207
 21
164.7479201751025073
 31
0.0
  0
LINE
  5
12CDE
  8
0
 10
3650.0983630880400597
 20
164.7290133513693036
 30
0.0
 11
3650.1154108322930369
 21
164.7340887592085892
 31
0.0
  0
LINE
  5
12CDF
  8
0
 10
3650.1154108322930369
 20
164.7340887592085892
 30
0.0
 11
3650.1154108324931258
 21
164.7435375273041132
 31
0.0
  0
LINE
  5
12CE0
  8
0
 10
3650.0983630880000419
 20
164.7200707095028065
 30
0.0
 11
3650.0813153436929497
 21
164.7143413589024874
 31
0.0
  0
LINE
  5
12CE1
  8
0
 10
3650.0813153436929497
 20
164.7143413589024874
 30
0.0
 11
3650.0813153435929053
 21
164.7020996091654865
 31
0.0
  0
LINE
  5
12CE2
  8
0
 10
3650.0813153435929053
 20
164.7020996091654865
 30
0.0
 11
3650.0973104253930615
 21
164.6959819829025093
 31
0.0
  0
LINE
  5
12CE3
  8
0
 10
3650.0973104253930615
 20
164.6959819829025093
 30
0.0
 11
3650.098363087593043
 21
164.6961590050024995
 31
0.0
  0
LINE
  5
12CE4
  8
0
 10
3650.098363087593043
 20
164.6961590050024995
 30
0.0
 11
3650.0996453571769962
 21
164.6960715488035873
 31
0.0
  0
LINE
  5
12CE5
  8
0
 10
3650.0996453571769962
 20
164.6960715488035873
 30
0.0
 11
3650.1154108318928593
 21
164.7020996091198981
 31
0.0
  0
LINE
  5
12CE6
  8
0
 10
3650.1154108318928593
 20
164.7020996091198981
 30
0.0
 11
3650.1154108321220519
 21
164.7143413589359966
 31
0.0
  0
LINE
  5
12CE7
  8
0
 10
3650.1154108321220519
 20
164.7143413589359966
 30
0.0
 11
3650.0983630880000419
 21
164.7200707095028065
 31
0.0
  0
LINE
  5
12CE8
  8
0
 10
3650.0983630880000419
 20
164.7200707095028065
 30
0.0
 11
3650.098363087593043
 21
164.6961590050024995
 31
0.0
  0
LINE
  5
12CE9
  8
0
 10
3650.0983630884920785
 20
164.7546938002747083
 30
0.0
 11
3650.0983630884920785
 21
164.7686182597742004
 31
0.0
  0
LINE
  5
12CEA
  8
0
 10
3650.0983630884920785
 20
164.7686182597742004
 30
0.0
 11
3650.0813153445928947
 21
164.7654529955918008
 31
0.0
  0
LINE
  5
12CEB
  8
0
 10
3650.0813153445928947
 20
164.7654529955918008
 30
0.0
 11
3650.0813153444810268
 21
164.7584931702039057
 31
0.0
  0
LINE
  5
12CEC
  8
0
 10
3650.0813153444810268
 20
164.7584931702039057
 30
0.0
 11
3650.0983630884920785
 21
164.7546938003482069
 31
0.0
  0
LINE
  5
12CED
  8
0
 10
3650.0983630884920785
 20
164.7546938003482069
 30
0.0
 11
3650.1154108327928043
 21
164.7584931701591984
 31
0.0
  0
LINE
  5
12CEE
  8
0
 10
3650.1154108327928043
 20
164.7584931701591984
 30
0.0
 11
3650.1154108328928487
 21
164.7654529956396914
 31
0.0
  0
LINE
  5
12CEF
  8
0
 10
3650.1154108328928487
 20
164.7654529956396914
 30
0.0
 11
3650.0983630884920785
 21
164.7686182598025084
 31
0.0
  0
LINE
  5
12CF0
  8
0
 10
3650.0983630913187881
 20
164.7985557979951068
 30
0.0
 11
3650.0983630913187881
 21
164.7815810472941962
 31
0.0
  0
LINE
  5
12CF1
  8
0
 10
3650.0983630913187881
 20
164.7815810472941962
 30
0.0
 11
3650.0813153472468002
 21
164.7869468760056861
 31
0.0
  0
LINE
  5
12CF2
  8
0
 10
3650.0813153472468002
 20
164.7869468760056861
 30
0.0
 11
3650.0813153474059618
 21
164.7987198799307862
 31
0.0
  0
LINE
  5
12CF3
  8
0
 10
3650.0983630913929119
 20
164.7815810473753118
 30
0.0
 11
3650.1154108356040524
 21
164.7886823660201117
 31
0.0
  0
LINE
  5
12CF4
  8
0
 10
3650.1154108356040524
 20
164.7886823660201117
 30
0.0
 11
3650.1154108356890902
 21
164.7982056280548875
 31
0.0
  0
LINE
  5
12CF5
  8
0
 10
3650.121705341715824
 20
164.701509339550995
 30
0.0
 11
3650.1091541931568827
 21
164.6967108235068906
 31
0.0
  0
LINE
  5
12CF6
  8
0
 10
3650.1091541930932181
 20
164.6967108234819079
 30
0.0
 11
3650.1091541930932181
 21
164.6965138391568928
 31
0.0
  0
LINE
  5
12CF7
  8
0
 10
3650.1091541930932181
 20
164.6965138391568928
 30
0.0
 11
3650.0996453571428901
 21
164.6960715487905986
 31
0.0
  0
LINE
  5
12CF8
  8
0
 10
3650.0973104253930615
 20
164.6959819829025093
 30
0.0
 11
3650.0875719821688108
 21
164.6956892232560961
 31
0.0
  0
LINE
  5
12CF9
  8
0
 10
3650.0875719821688108
 20
164.6956892232560961
 30
0.0
 11
3650.0875719821929124
 21
164.6967108235560886
 31
0.0
  0
LINE
  5
12CFA
  8
0
 10
3650.0875719821929124
 20
164.6967108235560886
 30
0.0
 11
3650.0705242341209669
 21
164.7031919107986084
 31
0.0
  0
LINE
  5
12CFB
  8
0
 10
3650.0705242341209669
 20
164.7020354231711963
 30
0.0
 11
3650.0755069421788903
 21
164.7012976224438034
 31
0.0
  0
LINE
  5
12CFC
  8
0
 10
3650.0875719825958186
 20
164.7299011278909973
 30
0.0
 11
3650.0705242341209669
 21
164.7349357362681985
 31
0.0
  0
LINE
  5
12CFD
  8
0
 10
3650.0875719825958186
 20
164.7299011278909973
 30
0.0
 11
3650.0875719824371117
 21
164.7191057568813903
 31
0.0
  0
LINE
  5
12CFE
  8
0
 10
3650.0875719824371117
 20
164.7191057568813903
 30
0.0
 11
3650.0705242341209669
 21
164.7133325939049939
 31
0.0
  0
LINE
  5
12CFF
  8
0
 10
3650.087571982992813
 20
164.755360987102506
 30
0.0
 11
3650.0875719828932233
 21
164.7471841416025029
 31
0.0
  0
LINE
  5
12D00
  8
0
 10
3650.0875719828932233
 20
164.7471841416025029
 30
0.0
 11
3650.0705242341209669
 21
164.7427629504877018
 31
0.0
  0
LINE
  5
12D01
  8
0
 10
3650.0705242341209669
 20
164.7591234724395122
 30
0.0
 11
3650.087571982992813
 21
164.7553609871908122
 31
0.0
  0
LINE
  5
12D02
  8
0
 10
3650.0705242341209669
 20
164.7878846270828035
 30
0.0
 11
3650.0875719858381672
 21
164.7821504872117941
 31
0.0
  0
LINE
  5
12D03
  8
0
 10
3650.0875719858381672
 20
164.7821504872117941
 30
0.0
 11
3650.0875719832929462
 21
164.7680899535230878
 31
0.0
  0
LINE
  5
12D04
  8
0
 10
3650.0875719832929462
 20
164.7680899535230878
 30
0.0
 11
3650.0705242341209669
 21
164.7648889716743952
 31
0.0
  0
LINE
  5
12D05
  8
0
 10
3650.1091541935929854
 20
164.7299011278024921
 30
0.0
 11
3650.1217053426298662
 21
164.7336630649319034
 31
0.0
  0
LINE
  5
12D06
  8
0
 10
3650.1091541935929854
 20
164.7299011278620071
 30
0.0
 11
3650.1091541933928966
 21
164.7191057569569921
 31
0.0
  0
LINE
  5
12D07
  8
0
 10
3650.1091541933928966
 20
164.7191057569569921
 30
0.0
 11
3650.1217053420969023
 21
164.7148975205498118
 31
0.0
  0
LINE
  5
12D08
  8
0
 10
3650.0705242341209669
 20
164.7878846270828035
 30
0.0
 11
3650.0705242341209669
 21
164.7648889716743952
 31
0.0
  0
LINE
  5
12D09
  8
0
 10
3650.0705242341209669
 20
164.7591234724395122
 30
0.0
 11
3650.0705242341209669
 21
164.7427629504877018
 31
0.0
  0
LINE
  5
12D0A
  8
0
 10
3650.0705242341209669
 20
164.7349357362681985
 30
0.0
 11
3650.0705242341209669
 21
164.7133325939049939
 31
0.0
  0
ENDSEC
  0
EOF
