  0
SECTION
  2
HEADER
  9
$ACADVER
  1
AC1009
  9
$INSBASE
 10
2337.0406225892188559
 20
145.6482886508277943
 30
0.0
  9
$EXTMIN
 10
2332.158644095460204
 20
139.5310965893202138
 30
0.0
  9
$EXTMAX
 10
2338.5763026662671109
 20
152.157080841320095
 30
0.0
  9
$LIMMIN
 10
0.0
 20
0.0
  9
$LIMMAX
 10
11.6929133858000007
 20
8.2677165353999982
  9
$ORTHOMODE
 70
     0
  9
$REGENMODE
 70
     1
  9
$FILLMODE
 70
     1
  9
$QTEXTMODE
 70
     0
  9
$MIRRTEXT
 70
     0
  9
$DRAGMODE
 70
     2
  9
$LTSCALE
 40
0.6431102362
  9
$OSMODE
 70
  2039
  9
$ATTMODE
 70
     1
  9
$TEXTSIZE
 40
0.2
  9
$TRACEWID
 40
0.05
  9
$TEXTSTYLE
  7
STANDARD
  9
$CLAYER
  8
0
  9
$CELTYPE
  6
BYLAYER
  9
$CECOLOR
 62
   256
  9
$DIMSCALE
 40
1.0
  9
$DIMASZ
 40
0.1875
  9
$DIMEXO
 40
0.0625
  9
$DIMDLI
 40
0.4443307087
  9
$DIMRND
 40
0.0
  9
$DIMDLE
 40
0.0
  9
$DIMEXE
 40
0.125
  9
$DIMTP
 40
0.01
  9
$DIMTM
 40
0.01
  9
$DIMTXT
 40
2.0
  9
$DIMCEN
 40
0.1052362205
  9
$DIMTSZ
 40
0.0
  9
$DIMTOL
 70
     1
  9
$DIMLIM
 70
     0
  9
$DIMTIH
 70
     1
  9
$DIMTOH
 70
     1
  9
$DIMSE1
 70
     0
  9
$DIMSE2
 70
     0
  9
$DIMTAD
 70
     0
  9
$DIMZIN
 70
     0
  9
$DIMBLK
  1

  9
$DIMASO
 70
     1
  9
$DIMSHO
 70
     1
  9
$DIMPOST
  1
\X
  9
$DIMAPOST
  1

  9
$DIMALT
 70
     1
  9
$DIMALTD
 70
     2
  9
$DIMALTF
 40
25.3999999999999986
  9
$DIMLFAC
 40
1.0
  9
$DIMTOFL
 70
     0
  9
$DIMTVP
 40
0.0
  9
$DIMTIX
 70
     0
  9
$DIMSOXD
 70
     0
  9
$DIMSAH
 70
     0
  9
$DIMBLK1
  1

  9
$DIMBLK2
  1

  9
$DIMSTYLE
  2
STANDARD
  9
$DIMCLRD
 70
     0
  9
$DIMCLRE
 70
     0
  9
$DIMCLRT
 70
     0
  9
$DIMTFAC
 40
1.0
  9
$DIMGAP
 40
0.09
  9
$LUNITS
 70
     2
  9
$LUPREC
 70
     4
  9
$SKETCHINC
 40
0.1
  9
$FILLETRAD
 40
0.0
  9
$AUNITS
 70
     0
  9
$AUPREC
 70
     0
  9
$MENU
  1
.
  9
$ELEVATION
 40
0.0
  9
$PELEVATION
 40
0.0
  9
$THICKNESS
 40
0.0
  9
$LIMCHECK
 70
     0
  9
$BLIPMODE
 70
     0
  9
$CHAMFERA
 40
0.0
  9
$CHAMFERB
 40
0.0
  9
$SKPOLY
 70
     0
  9
$TDCREATE
 40
2458060.468368056230247
  9
$TDUPDATE
 40
2459674.7277314821258187
  9
$TDINDWG
 40
0.2962917824
  9
$TDUSRTIMER
 40
0.2962917824
  9
$USRTIMER
 70
     1
  9
$ANGBASE
 50
0.0
  9
$ANGDIR
 70
     0
  9
$PDMODE
 70
     0
  9
$PDSIZE
 40
0.3125
  9
$PLINEWID
 40
0.0
  9
$COORDS
 70
     1
  9
$SPLFRAME
 70
     0
  9
$SPLINETYPE
 70
     6
  9
$SPLINESEGS
 70
     8
  9
$ATTDIA
 70
     1
  9
$ATTREQ
 70
     1
  9
$HANDLING
 70
     1
  9
$HANDSEED
  5
778D
  9
$SURFTAB1
 70
     6
  9
$SURFTAB2
 70
     6
  9
$SURFTYPE
 70
     6
  9
$SURFU
 70
     6
  9
$SURFV
 70
     6
  9
$UCSNAME
  2

  9
$UCSORG
 10
0.0
 20
0.0
 30
0.0
  9
$UCSXDIR
 10
1.0
 20
0.0
 30
0.0
  9
$UCSYDIR
 10
0.0
 20
1.0
 30
0.0
  9
$PUCSNAME
  2

  9
$PUCSORG
 10
0.0
 20
0.0
 30
0.0
  9
$PUCSXDIR
 10
1.0
 20
0.0
 30
0.0
  9
$PUCSYDIR
 10
0.0
 20
1.0
 30
0.0
  9
$USERI1
 70
     0
  9
$USERI2
 70
     0
  9
$USERI3
 70
     0
  9
$USERI4
 70
     0
  9
$USERI5
 70
     0
  9
$USERR1
 40
0.0
  9
$USERR2
 40
0.0
  9
$USERR3
 40
0.0
  9
$USERR4
 40
0.0
  9
$USERR5
 40
0.0
  9
$WORLDVIEW
 70
     1
  9
$SHADEDGE
 70
     3
  9
$SHADEDIF
 70
    70
  9
$TILEMODE
 70
     1
  9
$MAXACTVP
 70
    64
  9
$PLIMCHECK
 70
     0
  9
$PEXTMIN
 10
1.0000000000000000E+20
 20
1.0000000000000000E+20
 30
1.0000000000000000E+20
  9
$PEXTMAX
 10
-1.0000000000000000E+20
 20
-1.0000000000000000E+20
 30
-1.0000000000000000E+20
  9
$PLIMMIN
 10
0.0
 20
0.0
  9
$PLIMMAX
 10
12.0
 20
9.0
  9
$UNITMODE
 70
     0
  9
$VISRETAIN
 70
     1
  9
$PLINEGEN
 70
     0
  9
$PSLTSCALE
 70
     1
  0
ENDSEC
  0
SECTION
  2
TABLES
  0
TABLE
  2
VPORT
 70
     1
  0
VPORT
  2
*ACTIVE
 70
     0
 10
0.0
 20
0.0
 11
1.0
 21
1.0
 12
14.0439503506476608
 22
-5.4069349630895287
 13
0.0
 23
0.0
 14
1.0
 24
1.0
 15
0.0
 25
0.0
 16
0.0
 26
0.0
 36
29.8530885553989087
 17
2329.5430908203129547
 27
146.113953940553813
 37
0.0
 40
32.2918357872348594
 41
2.0416666666666661
 42
50.0
 43
0.0
 44
0.0
 50
0.0
 51
0.0
 71
     0
 72
   100
 73
     1
 74
     1
 75
     0
 76
     0
 77
     0
 78
     0
  0
ENDTAB
  0
TABLE
  2
LTYPE
 70
     2
  0
LTYPE
  2
CONTINUOUS
 70
     0
  3
Solid line
 72
    65
 73
     0
 40
0.0
  0
LTYPE
  2
PHANTOM2
 70
     0
  3
___ _ _ ___ _ _ ___ _ _ ___ _ _
 72
    65
 73
     6
 40
1.25
 49
0.625
 49
-0.125
 49
0.125
 49
-0.125
 49
0.125
 49
-0.125
  0
ENDTAB
  0
TABLE
  2
LAYER
 70
     2
  0
LAYER
  2
0
 70
     0
 62
   255
  6
CONTINUOUS
  0
LAYER
  2
DEFPOINTS
 70
     0
 62
     7
  6
CONTINUOUS
  0
ENDTAB
  0
TABLE
  2
STYLE
 70
     1
  0
STYLE
  2
STANDARD
 70
     0
 40
0.0
 41
0.8
 50
0.0
 71
     0
 42
0.2
  3
txt
  4

  0
ENDTAB
  0
TABLE
  2
VIEW
 70
     0
  0
ENDTAB
  0
TABLE
  2
UCS
 70
     0
  0
ENDTAB
  0
TABLE
  2
APPID
 70
     9
  0
APPID
  2
ACAD
 70
     0
  0
APPID
  2
ACAD_MLEADERVER
 70
     0
  0
APPID
  2
ACAD_EXEMPT_FROM_CAD_STANDARDS
 70
     0
  0
APPID
  2
ACAD_NAV_VCDISPLAY
 70
     0
  0
APPID
  2
ACAECLAYERSTANDARD
 70
     0
  0
APPID
  2
ACCMTRANSPARENCY
 70
     0
  0
APPID
  2
ACAD_DSTYLE_DIMJAG
 70
     0
  0
APPID
  2
ACAD_DSTYLE_DIMTALN
 70
     0
  0
APPID
  2
ACDBATTR
 70
     0
  0
ENDTAB
  0
TABLE
  2
DIMSTYLE
 70
     1
  0
DIMSTYLE
  2
STANDARD
 70
     0
  3

  4

  5

  6

  7

 40
1.0
 41
0.1875
 42
0.0625
 43
0.38
 44
0.125
 45
0.0
 46
0.0
 47
0.01
 48
0.01
140
0.15625
141
0.09
142
0.0
143
25.3999999999999986
144
1.0
145
0.0
146
1.0
147
0.09
 71
     1
 72
     0
 73
     1
 74
     1
 75
     0
 76
     0
 77
     0
 78
     4
170
     0
171
     2
172
     0
173
     0
174
     0
175
     0
176
     0
177
     0
178
     0
  0
ENDTAB
  0
ENDSEC
  0
SECTION
  2
BLOCKS
  0
BLOCK
  8
0
  2
$MODEL_SPACE
 70
     0
 10
0.0
 20
0.0
 30
0.0
  3
$MODEL_SPACE
  1

  0
ENDBLK
  5
21
  8
0
  0
BLOCK
 67
     1
  8
0
  2
$PAPER_SPACE
 70
     0
 10
0.0
 20
0.0
 30
0.0
  3
$PAPER_SPACE
  1

  0
ENDBLK
  5
1D
 67
     1
  8
0
  0
BLOCK
  8
0
  2
_FILLED
 70
     0
 10
0.0
 20
0.0
 30
0.0
  3
_FILLED
  1

  0
SOLID
  5
7356
  8
0
  6
BYBLOCK
 62
     0
 10
0.0
 20
0.0
 30
0.0
 11
-1.0
 21
0.1666666667
 31
0.0
 12
-1.0
 22
-0.1666666667
 32
0.0
 13
-1.0
 23
-0.1666666667
 33
0.0
  0
ENDBLK
  5
7357
  8
0
  6
BYBLOCK
 62
     0
  0
ENDSEC
  0
SECTION
  2
ENTITIES
  0
ATTDEF
  5
3930
  8
DEFPOINTS
 10
2337.0413910279389711
 20
145.6521039463167142
 30
0.0
 40
0.001
  1
K-23478T-4
  3

  2
MODELNUMBER
 70
     0
1001
ACDBATTR
1070
     0
1070
     1
  0
ATTDEF
  5
3931
  8
DEFPOINTS
 10
2337.0413910279389711
 20
145.6504372796499922
 30
0.0
 40
0.001
  1
PARALLEL
  3

  2
TRADENAME
 70
     0
1001
ACDBATTR
1070
     0
1070
     1
  0
ATTDEF
  5
3932
  8
DEFPOINTS
 10
2337.0413910279389711
 20
145.6487706129832986
 30
0.0
 40
0.001
  1
BATHROOM SINK FAUCET
  3

  2
PRODUCT
 70
     0
1001
ACDBATTR
1070
     0
1070
     1
  0
LINE
  5
76A5
  8
0
 10
2337.676449360918923
 20
139.6246506472276963
 30
0.0
 11
2336.4047958175187887
 21
139.6246506472276963
 31
0.0
  0
LINE
  5
76A6
  8
0
 10
2336.408549818469055
 20
141.7240629971277883
 30
0.0
 11
2337.6726953600691559
 21
141.7240629971277883
 31
0.0
  0
LINE
  5
76A7
  8
0
 10
2336.1055832191191257
 20
139.9226170475278082
 30
0.0
 11
2336.1055832191191257
 21
145.3420009782037141
 31
0.0
  0
LINE
  5
76A8
  8
0
 10
2336.1025777018189729
 20
145.3635775263277026
 30
0.0
 11
2336.1025777018189729
 21
145.9380871720159973
 31
0.0
  0
LINE
  5
76A9
  8
0
 10
2336.8240871561188214
 20
146.9004184160278044
 30
0.0
 11
2336.8240871561188214
 21
147.1983771435278072
 31
0.0
  0
LINE
  5
76AA
  8
0
 10
2336.9520399120187903
 20
146.7181800513255041
 30
0.0
 11
2336.9520399120187903
 21
146.6282844917849957
 31
0.0
  0
ARC
  5
76AB
  8
0
 10
2336.4047976564279452
 20
139.9238676982429013
 30
0.0
 40
0.2992170510207788
 50
180.2394823957812946
 51
269.9996478751971267
  0
ARC
  5
76AC
  8
0
 10
2336.2311983554241124
 20
145.3704962103126093
 30
0.0
 40
0.1288066020120376
 50
183.0790522580336983
 51
192.780989195825299
  0
ARC
  5
76AD
  8
0
 10
2336.2782183745071052
 20
145.9118293962037001
 30
0.0
 40
0.1775925581018521
 50
161.4396738269963123
 51
171.4974149956657072
  0
ARC
  5
76AE
  8
0
 10
2337.0398607240790625
 20
145.6488672249491003
 30
0.0
 40
0.9833466721391491
 50
89.9557275953200417
 51
161.0404171651977094
  0
ARC
  5
76AF
  8
0
 10
2336.4246071833790666
 20
142.0432643130210124
 30
0.0
 40
0.3196049421329854
 50
183.4552262752559955
 51
267.1201736627032233
  0
ARC
  5
76B0
  8
0
 10
2337.0413765885441535
 20
147.1680772993165931
 30
0.0
 40
0.2296125895018571
 50
90.188147596148994
 51
142.8140815015428871
  0
ARC
  5
76B1
  8
0
 10
2337.0148628070278392
 20
147.1976282314035984
 30
0.0
 40
0.1907771208751411
 50
145.0724068114132024
 51
179.7750798721575052
  0
ARC
  5
76B2
  8
0
 10
2337.0131231189179744
 20
147.2002462356221884
 30
0.0
 40
0.1890452028926327
 50
180.5664932604333046
 51
229.8192136197029924
  0
ARC
  5
76B3
  8
0
 10
2337.0483244345718958
 20
147.2547729987549872
 30
0.0
 40
0.2535517151188833
 50
231.692072059949794
 51
268.2593250351707184
  0
ARC
  5
76B4
  8
0
 10
2337.0429962157008958
 20
146.9534459374596054
 30
0.0
 40
0.252236171787486
 50
248.8629659350561099
 51
269.4608196516396106
  0
ARC
  5
76B5
  8
0
 10
2337.0289072999858035
 20
146.9109058812344983
 30
0.0
 40
0.2074893752630329
 50
206.3054142111938916
 51
248.2557506984460929
  0
ARC
  5
76B6
  8
0
 10
2337.0324727655038259
 20
146.9056496284117088
 30
0.0
 40
0.2084512599669244
 50
181.4380237426929057
 51
204.5757072292618943
  0
LINE
  5
76B7
  8
0
 10
2337.9756619593190408
 20
139.9226170475278082
 30
0.0
 11
2337.9756619593190408
 21
145.3420009794517966
 31
0.0
  0
LINE
  5
76B8
  8
0
 10
2337.9786674766191936
 20
145.3635775263277026
 30
0.0
 11
2337.9786674766191936
 21
145.9380871720159973
 31
0.0
  0
LINE
  5
76B9
  8
0
 10
2337.2571580223188903
 20
146.9004184160278044
 30
0.0
 11
2337.2571580223188903
 21
147.1983771435278072
 31
0.0
  0
LINE
  5
76BA
  8
0
 10
2337.1292052664189214
 20
146.7181800513255041
 30
0.0
 11
2337.1292052664189214
 21
146.6283002173329066
 31
0.0
  0
ARC
  5
76BB
  8
0
 10
2337.6764475220102213
 20
139.9238676982429013
 30
0.0
 40
0.2992170510208095
 50
270.0003521248290212
 51
359.7605176042121116
  0
ARC
  5
76BC
  8
0
 10
2337.8500467838748591
 20
145.3704962174126933
 30
0.0
 40
0.1288066414754667
 50
347.2190115477260974
 51
356.9209455233822155
  0
ARC
  5
76BD
  8
0
 10
2337.8256034931428076
 20
145.9162248176918979
 30
0.0
 40
0.1546174167876479
 50
8.1286610270506579
 51
17.1721491001765294
  0
ARC
  5
76BE
  8
0
 10
2337.0415864390702154
 20
145.6495044888281996
 30
0.0
 40
0.9827095893727918
 50
18.5339293665718898
 51
90.0563147827662647
  0
ARC
  5
76BF
  8
0
 10
2337.6565290400299091
 20
142.0433743632883079
 30
0.0
 40
0.319720344149254
 50
272.8983362421283232
 51
356.5262770958455008
  0
ARC
  5
76C0
  8
0
 10
2337.0398685898931035
 20
147.1680772993165931
 30
0.0
 40
0.2296125895018586
 50
37.1859184984570703
 51
89.8118524038510202
  0
ARC
  5
76C1
  8
0
 10
2337.0663823714089631
 20
147.1976282314035984
 30
0.0
 40
0.1907771208751411
 50
0.2249201278424812
 51
34.9275931885868189
  0
ARC
  5
76C2
  8
0
 10
2337.0681220595201921
 20
147.2002462356221884
 30
0.0
 40
0.1890452028926327
 50
310.1807863802969223
 51
359.4335067395667238
  0
ARC
  5
76C3
  8
0
 10
2337.0329207438649064
 20
147.2547729987549872
 30
0.0
 40
0.2535517151188833
 50
271.7406749648293953
 51
308.307927940050206
  0
ARC
  5
76C4
  8
0
 10
2337.0382489627381801
 20
146.9534459374573032
 30
0.0
 40
0.2522361717850905
 50
270.5391803464323175
 51
291.1370340649995114
  0
ARC
  5
76C5
  8
0
 10
2337.0523378784519082
 20
146.9109058812344983
 30
0.0
 40
0.2074893752630329
 50
291.7442493015537934
 51
333.69458578880608
  0
ARC
  5
76C6
  8
0
 10
2337.0487724129338858
 20
146.9056496284117088
 30
0.0
 40
0.2084512599669244
 50
335.4242927707380773
 51
358.5619762573070943
  0
ENDSEC
  0
EOF
