  0
SECTION
  2
HEADER
  9
$ACADVER
  1
AC1009
  9
$INSBASE
 10
2333.096111040229971
 20
139.5310965893202138
 30
0.0
  9
$EXTMIN
 10
2328.6050820415480302
 20
137.0567861706844042
 30
0.0
  9
$EXTMAX
 10
2334.0336082098137922
 20
152.157080841320095
 30
0.0
  9
$LIMMIN
 10
0.0
 20
0.0
  9
$LIMMAX
 10
11.6929133858000007
 20
8.2677165353999982
  9
$ORTHOMODE
 70
     0
  9
$REGENMODE
 70
     1
  9
$FILLMODE
 70
     1
  9
$QTEXTMODE
 70
     0
  9
$MIRRTEXT
 70
     0
  9
$DRAGMODE
 70
     2
  9
$LTSCALE
 40
0.6431102362
  9
$OSMODE
 70
  2039
  9
$ATTMODE
 70
     1
  9
$TEXTSIZE
 40
0.2
  9
$TRACEWID
 40
0.05
  9
$TEXTSTYLE
  7
STANDARD
  9
$CLAYER
  8
0
  9
$CELTYPE
  6
BYLAYER
  9
$CECOLOR
 62
   256
  9
$DIMSCALE
 40
1.0
  9
$DIMASZ
 40
0.1875
  9
$DIMEXO
 40
0.0625
  9
$DIMDLI
 40
0.4443307087
  9
$DIMRND
 40
0.0
  9
$DIMDLE
 40
0.0
  9
$DIMEXE
 40
0.125
  9
$DIMTP
 40
0.01
  9
$DIMTM
 40
0.01
  9
$DIMTXT
 40
2.0
  9
$DIMCEN
 40
0.1052362205
  9
$DIMTSZ
 40
0.0
  9
$DIMTOL
 70
     1
  9
$DIMLIM
 70
     0
  9
$DIMTIH
 70
     1
  9
$DIMTOH
 70
     1
  9
$DIMSE1
 70
     0
  9
$DIMSE2
 70
     0
  9
$DIMTAD
 70
     0
  9
$DIMZIN
 70
     0
  9
$DIMBLK
  1

  9
$DIMASO
 70
     1
  9
$DIMSHO
 70
     1
  9
$DIMPOST
  1
\X
  9
$DIMAPOST
  1

  9
$DIMALT
 70
     1
  9
$DIMALTD
 70
     2
  9
$DIMALTF
 40
25.3999999999999986
  9
$DIMLFAC
 40
1.0
  9
$DIMTOFL
 70
     0
  9
$DIMTVP
 40
0.0
  9
$DIMTIX
 70
     0
  9
$DIMSOXD
 70
     0
  9
$DIMSAH
 70
     0
  9
$DIMBLK1
  1

  9
$DIMBLK2
  1

  9
$DIMSTYLE
  2
STANDARD
  9
$DIMCLRD
 70
     0
  9
$DIMCLRE
 70
     0
  9
$DIMCLRT
 70
     0
  9
$DIMTFAC
 40
1.0
  9
$DIMGAP
 40
0.09
  9
$LUNITS
 70
     2
  9
$LUPREC
 70
     4
  9
$SKETCHINC
 40
0.1
  9
$FILLETRAD
 40
0.0
  9
$AUNITS
 70
     0
  9
$AUPREC
 70
     0
  9
$MENU
  1
.
  9
$ELEVATION
 40
0.0
  9
$PELEVATION
 40
0.0
  9
$THICKNESS
 40
0.0
  9
$LIMCHECK
 70
     0
  9
$BLIPMODE
 70
     0
  9
$CHAMFERA
 40
0.0
  9
$CHAMFERB
 40
0.0
  9
$SKPOLY
 70
     0
  9
$TDCREATE
 40
2458060.468368056230247
  9
$TDUPDATE
 40
2459674.7278009261935949
  9
$TDINDWG
 40
0.2966274306
  9
$TDUSRTIMER
 40
0.2966274306
  9
$USRTIMER
 70
     1
  9
$ANGBASE
 50
0.0
  9
$ANGDIR
 70
     0
  9
$PDMODE
 70
     0
  9
$PDSIZE
 40
0.3125
  9
$PLINEWID
 40
0.0
  9
$COORDS
 70
     1
  9
$SPLFRAME
 70
     0
  9
$SPLINETYPE
 70
     6
  9
$SPLINESEGS
 70
     8
  9
$ATTDIA
 70
     1
  9
$ATTREQ
 70
     1
  9
$HANDLING
 70
     1
  9
$HANDSEED
  5
76FD
  9
$SURFTAB1
 70
     6
  9
$SURFTAB2
 70
     6
  9
$SURFTYPE
 70
     6
  9
$SURFU
 70
     6
  9
$SURFV
 70
     6
  9
$UCSNAME
  2

  9
$UCSORG
 10
0.0
 20
0.0
 30
0.0
  9
$UCSXDIR
 10
1.0
 20
0.0
 30
0.0
  9
$UCSYDIR
 10
0.0
 20
1.0
 30
0.0
  9
$PUCSNAME
  2

  9
$PUCSORG
 10
0.0
 20
0.0
 30
0.0
  9
$PUCSXDIR
 10
1.0
 20
0.0
 30
0.0
  9
$PUCSYDIR
 10
0.0
 20
1.0
 30
0.0
  9
$USERI1
 70
     0
  9
$USERI2
 70
     0
  9
$USERI3
 70
     0
  9
$USERI4
 70
     0
  9
$USERI5
 70
     0
  9
$USERR1
 40
0.0
  9
$USERR2
 40
0.0
  9
$USERR3
 40
0.0
  9
$USERR4
 40
0.0
  9
$USERR5
 40
0.0
  9
$WORLDVIEW
 70
     1
  9
$SHADEDGE
 70
     3
  9
$SHADEDIF
 70
    70
  9
$TILEMODE
 70
     1
  9
$MAXACTVP
 70
    64
  9
$PLIMCHECK
 70
     0
  9
$PEXTMIN
 10
1.0000000000000000E+20
 20
1.0000000000000000E+20
 30
1.0000000000000000E+20
  9
$PEXTMAX
 10
-1.0000000000000000E+20
 20
-1.0000000000000000E+20
 30
-1.0000000000000000E+20
  9
$PLIMMIN
 10
0.0
 20
0.0
  9
$PLIMMAX
 10
12.0
 20
9.0
  9
$UNITMODE
 70
     0
  9
$VISRETAIN
 70
     1
  9
$PLINEGEN
 70
     0
  9
$PSLTSCALE
 70
     1
  0
ENDSEC
  0
SECTION
  2
TABLES
  0
TABLE
  2
VPORT
 70
     1
  0
VPORT
  2
*ACTIVE
 70
     0
 10
0.0
 20
0.0
 11
1.0
 21
1.0
 12
17.4530533924163507
 22
-1.1396582429094719
 13
0.0
 23
0.0
 14
1.0
 24
1.0
 15
0.0
 25
0.0
 16
0.0
 26
0.0
 36
29.8530885553989087
 17
2329.5430908203129547
 27
146.113953940553813
 37
0.0
 40
49.581576515335982
 41
2.0416666666666661
 42
50.0
 43
0.0
 44
0.0
 50
0.0
 51
0.0
 71
     0
 72
   100
 73
     1
 74
     1
 75
     0
 76
     0
 77
     0
 78
     0
  0
ENDTAB
  0
TABLE
  2
LTYPE
 70
     2
  0
LTYPE
  2
CONTINUOUS
 70
     0
  3
Solid line
 72
    65
 73
     0
 40
0.0
  0
LTYPE
  2
PHANTOM2
 70
     0
  3
___ _ _ ___ _ _ ___ _ _ ___ _ _
 72
    65
 73
     6
 40
1.25
 49
0.625
 49
-0.125
 49
0.125
 49
-0.125
 49
0.125
 49
-0.125
  0
ENDTAB
  0
TABLE
  2
LAYER
 70
     2
  0
LAYER
  2
0
 70
     0
 62
   255
  6
CONTINUOUS
  0
LAYER
  2
DEFPOINTS
 70
     0
 62
     7
  6
CONTINUOUS
  0
ENDTAB
  0
TABLE
  2
STYLE
 70
     1
  0
STYLE
  2
STANDARD
 70
     0
 40
0.0
 41
0.8
 50
0.0
 71
     0
 42
0.2
  3
txt
  4

  0
ENDTAB
  0
TABLE
  2
VIEW
 70
     0
  0
ENDTAB
  0
TABLE
  2
UCS
 70
     0
  0
ENDTAB
  0
TABLE
  2
APPID
 70
     9
  0
APPID
  2
ACAD
 70
     0
  0
APPID
  2
ACAD_MLEADERVER
 70
     0
  0
APPID
  2
ACAD_EXEMPT_FROM_CAD_STANDARDS
 70
     0
  0
APPID
  2
ACAD_NAV_VCDISPLAY
 70
     0
  0
APPID
  2
ACAECLAYERSTANDARD
 70
     0
  0
APPID
  2
ACCMTRANSPARENCY
 70
     0
  0
APPID
  2
ACAD_DSTYLE_DIMJAG
 70
     0
  0
APPID
  2
ACAD_DSTYLE_DIMTALN
 70
     0
  0
APPID
  2
ACDBATTR
 70
     0
  0
ENDTAB
  0
TABLE
  2
DIMSTYLE
 70
     1
  0
DIMSTYLE
  2
STANDARD
 70
     0
  3

  4

  5

  6

  7

 40
1.0
 41
0.1875
 42
0.0625
 43
0.38
 44
0.125
 45
0.0
 46
0.0
 47
0.01
 48
0.01
140
0.15625
141
0.09
142
0.0
143
25.3999999999999986
144
1.0
145
0.0
146
1.0
147
0.09
 71
     1
 72
     0
 73
     1
 74
     1
 75
     0
 76
     0
 77
     0
 78
     4
170
     0
171
     2
172
     0
173
     0
174
     0
175
     0
176
     0
177
     0
178
     0
  0
ENDTAB
  0
ENDSEC
  0
SECTION
  2
BLOCKS
  0
BLOCK
  8
0
  2
$MODEL_SPACE
 70
     0
 10
0.0
 20
0.0
 30
0.0
  3
$MODEL_SPACE
  1

  0
ENDBLK
  5
21
  8
0
  0
BLOCK
 67
     1
  8
0
  2
$PAPER_SPACE
 70
     0
 10
0.0
 20
0.0
 30
0.0
  3
$PAPER_SPACE
  1

  0
ENDBLK
  5
1D
 67
     1
  8
0
  0
BLOCK
  8
0
  2
_FILLED
 70
     0
 10
0.0
 20
0.0
 30
0.0
  3
_FILLED
  1

  0
SOLID
  5
7356
  8
0
  6
BYBLOCK
 62
     0
 10
0.0
 20
0.0
 30
0.0
 11
-1.0
 21
0.1666666667
 31
0.0
 12
-1.0
 22
-0.1666666667
 32
0.0
 13
-1.0
 23
-0.1666666667
 33
0.0
  0
ENDBLK
  5
7357
  8
0
  6
BYBLOCK
 62
     0
  0
ENDSEC
  0
SECTION
  2
ENTITIES
  0
ATTDEF
  5
3930
  8
DEFPOINTS
 10
2333.0979079541370993
 20
139.534581513545902
 30
0.0
 40
0.001
  1
K-23478T-4
  3

  2
MODELNUMBER
 70
     0
1001
ACDBATTR
1070
     0
1070
     1
  0
ATTDEF
  5
3931
  8
DEFPOINTS
 10
2333.0979079541370993
 20
139.5329148468792084
 30
0.0
 40
0.001
  1
PARALLEL
  3

  2
TRADENAME
 70
     0
1001
ACDBATTR
1070
     0
1070
     1
  0
ATTDEF
  5
3932
  8
DEFPOINTS
 10
2333.0979079541370993
 20
139.5312481802124864
 30
0.0
 40
0.001
  1
BATHROOM SINK FAUCET
  3

  2
PRODUCT
 70
     0
1001
ACDBATTR
1070
     0
1070
     1
  0
LINE
  5
74CB
  8
0
 10
2332.1807567095302147
 20
141.893317060820209
 30
0.0
 11
2334.011465370930182
 21
141.893317060820209
 31
0.0
  0
LINE
  5
74CC
  8
0
 10
2332.1610716701297861
 20
141.9130021002202966
 30
0.0
 11
2332.1610716701297861
 21
150.7791438334201928
 31
0.0
  0
LINE
  5
74CD
  8
0
 10
2332.4212547690299289
 20
150.8496664107202037
 30
0.0
 11
2332.4216699228300058
 21
150.8972383216201933
 31
0.0
  0
LINE
  5
74CE
  8
0
 10
2332.1925678100310506
 20
150.2594587940201905
 30
0.0
 11
2333.9996542704298008
 21
150.2594587940201905
 31
0.0
  0
LINE
  5
74CF
  8
0
 10
2332.1925677331300903
 20
150.8106398964202128
 30
0.0
 11
2333.9996543473298516
 21
150.8106398964202128
 31
0.0
  0
LINE
  5
74D0
  8
0
 10
2332.1876459221298319
 20
150.8972383216201933
 30
0.0
 11
2334.00457615833011
 21
150.8972383216201933
 31
0.0
  0
LINE
  5
74D1
  8
0
 10
2332.1977615506298207
 20
151.9799154870202074
 30
0.0
 11
2333.9944606610301889
 21
151.9799154856200971
 31
0.0
  0
ARC
  5
74D2
  8
0
 10
2332.1807298799139971
 20
141.9129752706039937
 30
0.0
 40
0.019658228092379
 50
179.921802502015197
 51
270.0781974979751112
  0
ARC
  5
74D3
  8
0
 10
2332.2079159158151924
 20
152.1177007711305009
 30
0.0
 40
0.039380071417286
 50
90.0143062927229636
 51
179.6199382440858869
  0
ARC
  5
74D4
  8
0
 10
2332.3819133385268287
 20
150.8499825880631988
 30
0.0
 40
0.0393427010104271
 50
269.9604620746853811
 51
359.5395379252923931
  0
ARC
  5
74D5
  8
0
 10
2332.1964974094657919
 20
150.7752141570846902
 30
0.0
 40
0.0356430268574493
 50
96.3297799342670231
 51
173.670220065724294
  0
ARC
  5
74D6
  8
0
 10
2332.1952287386397984
 20
150.2936158690274908
 30
0.0
 40
0.034260565000094
 50
184.4546395565124044
 51
265.5455003352711856
  0
ARC
  5
74D7
  8
0
 10
2332.2033440888922087
 20
152.0157885913498035
 30
0.0
 40
0.0363048804940182
 50
190.0247517803223047
 51
261.1546337018475015
  0
ARC
  5
74D8
  8
0
 10
2332.1881338775888253
 20
150.9267240664727012
 30
0.0
 40
0.0294897821294272
 50
179.4198248281859094
 51
269.0519067188275812
  0
LINE
  5
74D9
  8
0
 10
2332.1586456073177942
 20
150.9270226739299972
 30
0.0
 11
2332.1685367107779712
 21
152.1179619901845967
 31
0.0
  0
LINE
  5
74DA
  8
0
 10
2334.0311504103301559
 20
141.9130021002200124
 30
0.0
 11
2334.0311504103301559
 21
150.7791438334201928
 31
0.0
  0
LINE
  5
74DB
  8
0
 10
2333.7709673114300131
 20
150.8496664107202037
 30
0.0
 11
2333.7705521576299361
 21
150.8972383216201933
 31
0.0
  0
ARC
  5
74DC
  8
0
 10
2334.0114922162720177
 20
141.912975254878404
 30
0.0
 40
0.0196582123882727
 50
269.9217566057341742
 51
0.0782433942625263
  0
ARC
  5
74DD
  8
0
 10
2333.9843235734037989
 20
152.1177103099074088
 30
0.0
 40
0.0393626009132339
 50
0.3663456065125217
 51
89.9997181597258873
  0
ARC
  5
74DE
  8
0
 10
2333.8103087419340227
 20
150.8499825880631988
 30
0.0
 40
0.0393427010104253
 50
180.4604620747043953
 51
270.0395379253145052
  0
ARC
  5
74DF
  8
0
 10
2333.9957246709950596
 20
150.7752141570846902
 30
0.0
 40
0.0356430268574493
 50
6.3297799342756607
 51
83.6702200657329769
  0
ARC
  5
74E0
  8
0
 10
2333.9969933418201435
 20
150.2936158690274908
 30
0.0
 40
0.034260565000094
 50
274.4544996647288144
 51
355.5453604434874819
  0
ARC
  5
74E1
  8
0
 10
2333.9886378822011466
 20
152.0159997603983015
 30
0.0
 40
0.0365510552454077
 50
279.1665788488757016
 51
349.9429372570191958
  0
ARC
  5
74E2
  8
0
 10
2334.0044400666502042
 20
150.9264061472960066
 30
0.0
 40
0.0291681431633882
 50
270.2673295698048719
 51
1.2109529305999529
  0
LINE
  5
74E3
  8
0
 10
2334.0336016954520346
 20
150.9270225734825885
 30
0.0
 11
2334.0236853697001607
 21
152.1179619901841988
 31
0.0
  0
LINE
  5
74E4
  8
0
 10
2332.2079060829300943
 20
152.157080841320095
 30
0.0
 11
2333.9843237670302187
 21
152.1570729108202045
 31
0.0
  0
CIRCLE
  5
74E5
  8
0
 10
2333.096111040229971
 20
151.460230447620205
 30
0.0
 40
0.1318897636999998
  0
LINE
  5
74E6
  8
0
 10
2332.9641889599802198
 20
149.9642872059064018
 30
0.0
 11
2332.9927365402800206
 21
149.9772513753063947
 31
0.0
  0
LINE
  5
74E7
  8
0
 10
2332.9956898811801693
 20
149.9785925611064101
 30
0.0
 11
2333.0242414295798881
 21
149.9915585324064011
 31
0.0
  0
LINE
  5
74E8
  8
0
 10
2333.0271954454801744
 20
149.9929000248064028
 30
0.0
 11
2333.0587184102801075
 21
150.0072153905063885
 31
0.0
  0
LINE
  5
74E9
  8
0
 10
2333.0616764531800982
 20
150.0085587117063994
 30
0.0
 11
2333.0794727448801495
 21
150.0166404523064045
 31
0.0
  0
LINE
  5
74EA
  8
0
 10
2333.0862918424800228
 20
150.015608211406402
 30
0.0
 11
2333.0684955507799714
 21
150.0075264708063969
 31
0.0
  0
LINE
  5
74EB
  8
0
 10
2333.0655375078799807
 20
150.006183149706402
 30
0.0
 11
2333.034014543180092
 21
149.9918677840063879
 31
0.0
  0
LINE
  5
74EC
  8
0
 10
2333.0310605272798057
 20
149.9905262916063862
 30
0.0
 11
2333.0025089788800869
 21
149.9775603203063952
 31
0.0
  0
LINE
  5
74ED
  8
0
 10
2332.9995556379799382
 20
149.9762191344063922
 30
0.0
 11
2332.971008057580093
 21
149.9632549651063869
 31
0.0
  0
LINE
  5
74EE
  8
0
 10
2333.0222031882799456
 20
149.9575745952064096
 30
0.0
 11
2333.0369871453799533
 21
149.9720407465063943
 31
0.0
  0
LINE
  5
74EF
  8
0
 10
2333.0521985757800394
 20
149.9709720922064093
 30
0.0
 11
2333.0374146185799873
 21
149.9565059408064087
 31
0.0
  0
LINE
  5
74F0
  8
0
 10
2332.8455115168799239
 20
150.021285536206392
 30
0.0
 11
2332.8455115168799239
 21
150.0068208574064101
 31
0.0
  0
LINE
  5
74F1
  8
0
 10
2332.8712525650798852
 20
150.004354635502807
 30
0.0
 11
2332.8712525650798852
 21
149.989409775706406
 31
0.0
  0
LINE
  5
74F2
  8
0
 10
2332.8957716892800818
 20
150.0233500179064094
 30
0.0
 11
2332.8957716892800818
 21
150.0342837497557866
 31
0.0
  0
LINE
  5
74F3
  8
0
 10
2332.9047618865811273
 20
150.0379267755064063
 30
0.0
 11
2332.9047618865811273
 21
150.050153305033291
 31
0.0
  0
LINE
  5
74F4
  8
0
 10
2332.908693277780003
 20
149.9926935051514931
 30
0.0
 11
2332.908693277780003
 21
149.9759911328063993
 31
0.0
  0
LINE
  5
74F5
  8
0
 10
2332.9246354325800894
 20
150.0495288053064087
 30
0.0
 11
2332.9246354325800894
 21
150.0644645607391965
 31
0.0
  0
LINE
  5
74F6
  8
0
 10
2332.9258137611800521
 20
150.021285536206392
 30
0.0
 11
2332.9258137611800521
 21
149.997668976406402
 31
0.0
  0
LINE
  5
74F7
  8
0
 10
2332.9587814678798168
 20
150.0233500179064094
 30
0.0
 11
2332.9587814678798168
 21
150.0419760912594995
 31
0.0
  0
LINE
  5
74F8
  8
0
 10
2332.9602193396799521
 20
150.0609740815064015
 30
0.0
 11
2332.9602193396799521
 21
150.0797223518397061
 31
0.0
  0
LINE
  5
74F9
  8
0
 10
2332.9641889599802198
 20
149.9827318542727141
 30
0.0
 11
2332.9641889599802198
 21
149.9642872059064018
 31
0.0
  0
LINE
  5
74FA
  8
0
 10
2332.9792035015798319
 20
150.0412685642064048
 30
0.0
 11
2332.9792035015798319
 21
150.0632060563555115
 31
0.0
  0
LINE
  5
74FB
  8
0
 10
2332.9956898811801693
 20
149.9977628989065011
 30
0.0
 11
2332.9956898811801693
 21
149.9785925611064101
 31
0.0
  0
LINE
  5
74FC
  8
0
 10
2332.9995556379799382
 20
150.0684164196063932
 30
0.0
 11
2332.9995556379799382
 21
150.084965513506404
 31
0.0
  0
LINE
  5
74FD
  8
0
 10
2333.0222026090978034
 20
149.9734103556795048
 30
0.0
 11
2333.0222031882799456
 21
149.9575745952064096
 31
0.0
  0
LINE
  5
74FE
  8
0
 10
2333.0271954454801744
 20
150.021285536206392
 30
0.0
 11
2333.0271954454801744
 21
149.9929000248064028
 31
0.0
  0
LINE
  5
74FF
  8
0
 10
2333.0277354291802112
 20
150.0233500179064094
 30
0.0
 11
2333.0277354291802112
 21
150.0514903091205099
 31
0.0
  0
LINE
  5
7500
  8
0
 10
2333.0310605272798057
 20
150.0541092625063868
 30
0.0
 11
2333.0310605272798057
 21
150.0704446411064055
 31
0.0
  0
LINE
  5
7501
  8
0
 10
2333.0521985757800394
 20
150.0736634619063921
 30
0.0
 11
2333.0521985757800394
 21
150.088948113487902
 31
0.0
  0
LINE
  5
7502
  8
0
 10
2333.0616764531800982
 20
150.021285536206392
 30
0.0
 11
2333.0616764531800982
 21
150.0085587117063994
 31
0.0
  0
LINE
  5
7503
  8
0
 10
2333.0655375078799807
 20
150.0384524044063994
 30
0.0
 11
2333.0655375078799807
 21
150.0557902669337977
 31
0.0
  0
LINE
  5
7504
  8
0
 10
2333.0692440983798406
 20
150.0233500179064094
 30
0.0
 11
2333.0692440983798406
 21
150.0326401856291056
 31
0.0
  0
LINE
  5
7505
  8
0
 10
2333.0862918424800228
 20
150.0290273426064118
 30
0.0
 11
2333.0862947664791136
 21
150.0385493307566946
 31
0.0
  0
LINE
  5
7506
  8
0
 10
2333.0925834811800996
 20
149.9547138808063949
 30
0.0
 11
2333.0925834811800996
 21
149.9696836141064011
 31
0.0
  0
LINE
  5
7507
  8
0
 10
2333.0925834811800996
 20
149.9712322821063992
 30
0.0
 11
2333.0925834811800996
 21
149.9863853751789975
 31
0.0
  0
LINE
  5
7508
  8
0
 10
2333.0925834811800996
 20
150.0584314578063925
 30
0.0
 11
2333.0925834811800996
 21
150.0734032719063862
 31
0.0
  0
LINE
  5
7509
  8
0
 10
2333.0925834811800996
 20
150.0749519399064127
 30
0.0
 11
2333.0925834811800996
 21
150.0899216732063906
 31
0.0
  0
LINE
  5
750A
  8
0
 10
2333.0369871453799533
 20
150.0725948075063911
 30
0.0
 11
2333.0222031882799456
 21
150.0870609589063918
 31
0.0
  0
LINE
  5
750B
  8
0
 10
2333.0374146185799873
 20
150.0881296132064051
 30
0.0
 11
2333.0521985757800394
 21
150.0736634619063921
 31
0.0
  0
LINE
  5
750C
  8
0
 10
2332.9602193396799521
 20
149.9836614726063999
 30
0.0
 11
2332.9198288176798997
 21
149.9730715148064064
 31
0.0
  0
LINE
  5
750D
  8
0
 10
2332.908693277780003
 20
149.9759911328063993
 30
0.0
 11
2332.9490837998800998
 21
149.9865810906063928
 31
0.0
  0
LINE
  5
750E
  8
0
 10
2332.9792035015798319
 20
150.003366989806409
 30
0.0
 11
2332.9297507690798739
 21
149.9958810828063918
 31
0.0
  0
LINE
  5
750F
  8
0
 10
2332.9246354325800894
 20
149.9951067487064051
 30
0.0
 11
2332.8751895729801618
 21
149.9876218821063958
 31
0.0
  0
LINE
  5
7510
  8
0
 10
2332.8712525650798852
 20
149.989409775706406
 30
0.0
 11
2332.9206984246798129
 21
149.9968946424064029
 31
0.0
  0
LINE
  5
7511
  8
0
 10
2332.9258137611800521
 20
149.997668976406402
 30
0.0
 11
2332.9752664936800102
 21
150.0051548834063908
 31
0.0
  0
LINE
  5
7512
  8
0
 10
2332.9047618865811273
 20
150.0067087785064075
 30
0.0
 11
2332.8495874073801133
 21
150.0028325850063879
 31
0.0
  0
LINE
  5
7513
  8
0
 10
2332.8455115168799239
 20
150.0068208574064101
 30
0.0
 11
2332.9006859960800284
 21
150.0106970510063888
 31
0.0
  0
LINE
  5
7514
  8
0
 10
2333.0692440983798406
 20
150.021285536206392
 30
0.0
 11
2333.0336515148801482
 21
150.021285536206392
 31
0.0
  0
LINE
  5
7515
  8
0
 10
2333.0277354291802112
 20
150.021285536206392
 30
0.0
 11
2332.9646894996799347
 21
150.021285536206392
 31
0.0
  0
LINE
  5
7516
  8
0
 10
2332.9587814678798168
 20
150.021285536206392
 30
0.0
 11
2332.9016783710799245
 21
150.021285536206392
 31
0.0
  0
LINE
  5
7517
  8
0
 10
2332.8957716892800818
 20
150.021285536206392
 30
0.0
 11
2332.8386765284799367
 21
150.021285536206392
 31
0.0
  0
LINE
  5
7518
  8
0
 10
2332.8386765284799367
 20
150.0233500179064094
 30
0.0
 11
2332.8957716892800818
 21
150.0233500179064094
 31
0.0
  0
LINE
  5
7519
  8
0
 10
2332.9016783710799245
 20
150.0233500179064094
 30
0.0
 11
2332.9587814678798168
 21
150.0233500179064094
 31
0.0
  0
LINE
  5
751A
  8
0
 10
2332.9646894996799347
 20
150.0233500179064094
 30
0.0
 11
2333.0277354291802112
 21
150.0233500179064094
 31
0.0
  0
LINE
  5
751B
  8
0
 10
2333.0336515148801482
 20
150.0233500179064094
 30
0.0
 11
2333.0692440983798406
 21
150.0233500179064094
 31
0.0
  0
LINE
  5
751C
  8
0
 10
2332.9006859960800284
 20
150.0339385031064126
 30
0.0
 11
2332.8455115168799239
 21
150.0378146966064037
 31
0.0
  0
LINE
  5
751D
  8
0
 10
2332.8495874073801133
 20
150.0418029691064135
 30
0.0
 11
2332.9047618865811273
 21
150.0379267755064063
 31
0.0
  0
LINE
  5
751E
  8
0
 10
2332.9752664936800102
 20
150.0394806706063946
 30
0.0
 11
2332.9258137611800521
 21
150.0469665776064119
 31
0.0
  0
LINE
  5
751F
  8
0
 10
2332.9206984246798129
 20
150.0477409117063985
 30
0.0
 11
2332.8712525650798852
 21
150.0552257783064078
 31
0.0
  0
LINE
  5
7520
  8
0
 10
2332.8751895729801618
 20
150.0570136719063896
 30
0.0
 11
2332.9246354325800894
 21
150.0495288053064087
 31
0.0
  0
LINE
  5
7521
  8
0
 10
2332.9297507690798739
 20
150.0487544713064096
 30
0.0
 11
2332.9792035015798319
 21
150.0412685642064048
 31
0.0
  0
LINE
  5
7522
  8
0
 10
2332.9490837998800998
 20
150.0580544634063926
 30
0.0
 11
2332.908693277780003
 21
150.0686444212063861
 31
0.0
  0
LINE
  5
7523
  8
0
 10
2332.9198288176798997
 20
150.071564039306395
 30
0.0
 11
2332.9602193396799521
 21
150.0609740815064015
 31
0.0
  0
LINE
  5
7524
  8
0
 10
2333.0794727448801495
 20
150.0279951018063969
 30
0.0
 11
2333.0616764531800982
 21
150.036076842306386
 31
0.0
  0
LINE
  5
7525
  8
0
 10
2333.0587184102801075
 20
150.0374201635063969
 30
0.0
 11
2333.0271954454801744
 21
150.051735529206411
 31
0.0
  0
LINE
  5
7526
  8
0
 10
2333.0242414295798881
 20
150.0530770216064127
 30
0.0
 11
2332.9956898811801693
 21
150.0660429929064037
 31
0.0
  0
LINE
  5
7527
  8
0
 10
2332.9927365402800206
 20
150.0673841788064067
 30
0.0
 11
2332.9641889599802198
 21
150.080348348106412
 31
0.0
  0
LINE
  5
7528
  8
0
 10
2332.971008057580093
 20
150.0813805890063861
 30
0.0
 11
2332.9995556379799382
 21
150.0684164196063932
 31
0.0
  0
LINE
  5
7529
  8
0
 10
2333.0025089788800869
 20
150.0670752338064062
 30
0.0
 11
2333.0310605272798057
 21
150.0541092625063868
 31
0.0
  0
LINE
  5
752A
  8
0
 10
2333.034014543180092
 20
150.0527677701064135
 30
0.0
 11
2333.0655375078799807
 21
150.0384524044063994
 31
0.0
  0
LINE
  5
752B
  8
0
 10
2333.0684955507799714
 20
150.0371090832063885
 30
0.0
 11
2333.0862918424800228
 21
150.0290273426064118
 31
0.0
  0
ARC
  5
752C
  8
0
 10
2333.0959458548800285
 20
150.9083124077064042
 30
0.0
 40
0.9536044546999999
 50
266.4810335414002225
 51
269.7979768028934018
  0
ARC
  5
752D
  8
0
 10
2333.0963729762797811
 20
150.7219966062064032
 30
0.0
 40
0.7523225361
 50
266.633806344293987
 51
269.7113963928113094
  0
ARC
  5
752E
  8
0
 10
2333.3283741087270755
 20
150.2755425348310894
 30
0.0
 40
0.6112582002824382
 50
191.8512538341047104
 51
196.8311070892596035
  0
ARC
  5
752F
  8
0
 10
2333.0227505327211475
 20
150.3739907898385013
 30
0.0
 40
0.4221637121261841
 50
242.9850943806424084
 51
265.6840856906130171
  0
ARC
  5
7530
  8
0
 10
2333.1118175813089692
 20
151.5416390703107936
 30
0.0
 40
1.5932039380608409
 50
265.6501984521336226
 51
269.4351425634804968
  0
ARC
  5
7531
  8
0
 10
2332.9055642061880462
 20
150.0912464799864097
 30
0.0
 40
0.1194825737122828
 50
219.8700032251076948
 51
231.3833709678550861
  0
ARC
  5
7532
  8
0
 10
2332.9494430541822112
 20
150.1298310321668907
 30
0.0
 40
0.1779003739812901
 50
202.5635600671093925
 51
220.3483531727933951
  0
ARC
  5
7533
  8
0
 10
2332.9423427280457872
 20
150.1266380361875861
 30
0.0
 40
0.1701185155517916
 50
188.0678038855459135
 51
202.4880719749249067
  0
ARC
  5
7534
  8
0
 10
2332.8260483801350347
 20
150.0951780449962882
 30
0.0
 40
0.0526892266126192
 50
105.1387050065110031
 51
171.7233949778656097
  0
ARC
  5
7535
  8
0
 10
2333.005068173376003
 20
149.6817509446846088
 30
0.0
 40
0.5027198880726828
 50
95.759282566052093
 51
112.5490281829205941
  0
ARC
  5
7536
  8
0
 10
2333.1194680208441241
 20
148.6402503998251916
 30
0.0
 40
1.5504711060423739
 50
90.8631615436176219
 51
96.1032720304306309
  0
ARC
  5
7537
  8
0
 10
2332.842192592864194
 20
150.024411893538911
 30
0.0
 40
0.0274295167933807
 50
191.9292605610231135
 51
222.614178886381012
  0
ARC
  5
7538
  8
0
 10
2332.8398616805720849
 20
150.0216686530577022
 30
0.0
 40
0.0246803506421062
 50
134.7998582280702067
 51
186.81004282733781
  0
ARC
  5
7539
  8
0
 10
2332.9276798590458384
 20
149.9121074008563141
 30
0.0
 40
0.1649746038620919
 50
101.621457895917203
 51
129.6225335626998003
  0
ARC
  5
753A
  8
0
 10
2333.0639253386548262
 20
149.3997816865820027
 30
0.0
 40
0.6949021128202232
 50
94.0470008763492444
 51
104.1161669664948022
  0
ARC
  5
753B
  8
0
 10
2333.0980194069329627
 20
149.0055789720931898
 30
0.0
 40
1.090545618599968
 50
90.100263035113116
 51
94.3721268206044925
  0
ARC
  5
753C
  8
0
 10
2333.0820799257899125
 20
150.7307639270368043
 30
0.0
 40
0.7755043304529511
 50
261.7654742026185204
 51
265.5717821266450187
  0
ARC
  5
753D
  8
0
 10
2333.0855995713191078
 20
150.5772800822601027
 30
0.0
 40
0.607188456329003
 50
261.853262132443092
 51
265.4078985396650978
  0
ARC
  5
753E
  8
0
 10
2333.0558298352079873
 20
150.3829934486423099
 30
0.0
 40
0.4106183068737481
 50
256.5353622457553797
 51
261.1612378620581012
  0
ARC
  5
753F
  8
0
 10
2333.0439226658618281
 20
150.4833367685735084
 30
0.0
 40
0.5251379936345132
 50
256.3313143045343168
 51
261.2667860991393241
  0
ARC
  5
7540
  8
0
 10
2333.0001018312841552
 20
150.1721987058805041
 30
0.0
 40
0.1925012691625402
 50
246.9190881487249101
 51
254.6314436096818952
  0
ARC
  5
7541
  8
0
 10
2332.9768496118381336
 20
150.2263942584945937
 30
0.0
 40
0.2595130270845076
 50
246.9375718976774863
 51
254.773727678108088
  0
ARC
  5
7542
  8
0
 10
2332.9097855750869712
 20
150.0757999751336058
 30
0.0
 40
0.094594182787892
 50
230.4773356250705945
 51
245.9614795098283082
  0
ARC
  5
7543
  8
0
 10
2332.8627090620930176
 20
150.0237944124390879
 30
0.0
 40
0.0241631358017502
 50
185.9598045864067046
 51
224.6244338624487114
  0
ARC
  5
7544
  8
0
 10
2332.8665442579208502
 20
150.0190288981222011
 30
0.0
 40
0.0282007521245663
 50
138.2297502189111071
 51
171.1860110262587966
  0
ARC
  5
7545
  8
0
 10
2332.9102490279638005
 20
149.9680875397378088
 30
0.0
 40
0.0954662073134718
 50
114.1096669564100949
 51
129.4515175630708939
  0
ARC
  5
7546
  8
0
 10
2332.9757933718037748
 20
149.821283915846692
 30
0.0
 40
0.2562999068082793
 50
105.1770749249285046
 51
113.1116254993053047
  0
ARC
  5
7547
  8
0
 10
2333.0443379099538106
 20
149.5592018261384055
 30
0.0
 40
0.5272736969934987
 50
98.7432154017763963
 51
103.6586839459610019
  0
ARC
  5
7548
  8
0
 10
2333.0835321617810223
 20
149.3007831464560979
 30
0.0
 40
0.7886659884528712
 50
94.4599900667655845
 51
98.2027536039748838
  0
ARC
  5
7549
  8
0
 10
2333.0937037872358815
 20
149.2053455629938981
 30
0.0
 40
0.8845768196248007
 50
90.072564444917532
 51
93.6484251916671582
  0
ARC
  5
754A
  8
0
 10
2333.0943948975468629
 20
149.3846380513514873
 30
0.0
 40
0.6903162651720169
 50
90.1503464964164465
 51
93.5044505981425118
  0
ARC
  5
754B
  8
0
 10
2333.0854354383368445
 20
149.4688258342712004
 30
0.0
 40
0.6057096747881161
 50
94.5877609125632262
 51
98.1510784153162064
  0
ARC
  5
754C
  8
0
 10
2333.0563375527872267
 20
149.6590665510555027
 30
0.0
 40
0.4132413022969317
 50
98.8534511138013414
 51
103.4499487780629039
  0
ARC
  5
754D
  8
0
 10
2333.0018339198641115
 20
149.8674698722956862
 30
0.0
 40
0.1977499975421058
 50
105.4710566902406015
 51
112.9784115513557055
  0
ARC
  5
754E
  8
0
 10
2332.9503872222740029
 20
149.9816849796090139
 30
0.0
 40
0.072421066464076
 50
114.2015043056448036
 51
129.0501875532089002
  0
ARC
  5
754F
  8
0
 10
2332.9142293173008511
 20
150.0212181518843124
 30
0.0
 40
0.0185803359742307
 50
136.7947712409076075
 51
173.4115006443319942
  0
ARC
  5
7550
  8
0
 10
2332.9140224497168674
 20
150.0233213912541999
 30
0.0
 40
0.0183639582415651
 50
186.3649767861303985
 51
223.428751320371191
  0
ARC
  5
7551
  8
0
 10
2332.9518246339030156
 20
150.0652846940222105
 30
0.0
 40
0.0751401361727157
 50
231.2199064686649024
 51
245.5284017991560859
  0
ARC
  5
7552
  8
0
 10
2333.0941404330142177
 20
150.637627070559688
 30
0.0
 40
0.666396607266784
 50
262.0966255496359736
 51
269.866135497697428
  0
ARC
  5
7553
  8
0
 10
2333.0908320947369248
 20
150.4194682655929967
 30
0.0
 40
0.4330864317013563
 50
262.0671153037371255
 51
270.2317027679220018
  0
ARC
  5
7554
  8
0
 10
2333.0534304583597986
 20
150.1946791101129861
 30
0.0
 40
0.205207135570254
 50
248.7943054554627906
 51
261.8224106169582228
  0
ARC
  5
7555
  8
0
 10
2333.0357666914519541
 20
150.265838579872792
 30
0.0
 40
0.290028319339179
 50
248.5593994972516043
 51
262.0573165995556906
  0
ARC
  5
7556
  8
0
 10
2332.9817431040610245
 20
150.0282626963096106
 30
0.0
 40
0.0239982811716214
 50
196.9020139921711916
 51
254.342987138047107
  0
ARC
  5
7557
  8
0
 10
2332.937178370806123
 20
150.0334243433958932
 30
0.0
 40
0.0375180039514201
 50
198.877519522923393
 51
252.3674816492952004
  0
ARC
  5
7558
  8
0
 10
2332.9375536989850843
 20
150.010827636829589
 30
0.0
 40
0.0379980154763608
 50
107.9966789206949045
 51
160.7583196645186945
  0
ARC
  5
7559
  8
0
 10
2333.0382820969689419
 20
149.7692031154396943
 30
0.0
 40
0.2998799921639272
 50
98.1653809510573439
 51
111.2179027895389964
  0
ARC
  5
755A
  8
0
 10
2333.0940066095790826
 20
149.4089133413492902
 30
0.0
 40
0.664491454502077
 50
90.1227093482402069
 51
97.9145294778440842
  0
ARC
  5
755B
  8
0
 10
2333.0949628082921663
 20
149.5845378217206019
 30
0.0
 40
0.4738996091158672
 50
90.2876684675476753
 51
97.7495702389302465
  0
ARC
  5
755C
  8
0
 10
2333.0534128772778786
 20
149.8500234988300122
 30
0.0
 40
0.2051382618446802
 50
98.1753928575109285
 51
111.2078910671964991
  0
ARC
  5
755D
  8
0
 10
2332.9832924196798558
 20
150.0147895049807119
 30
0.0
 40
0.0259628416803865
 50
108.006884082108499
 51
160.7481126893345049
  0
ARC
  5
755E
  8
0
 10
2332.9912939681339594
 20
150.0122671830887953
 30
0.0
 40
0.0288205997393536
 50
107.5369138160968987
 51
157.3844665478652018
  0
ARC
  5
755F
  8
0
 10
2333.0541780071598623
 20
149.8624654432923933
 30
0.0
 40
0.1911837442271765
 50
98.1134818768851602
 51
111.9837027224081965
  0
ARC
  5
7560
  8
0
 10
2332.9954998859338957
 20
150.0360131090795903
 30
0.0
 40
0.0341493968297871
 50
205.5481148317402074
 51
256.9480936349177114
  0
ARC
  5
7561
  8
0
 10
2333.0558884014149044
 20
150.1915281299104947
 30
0.0
 40
0.2006898349632272
 50
250.163783551313287
 51
261.7801607395031169
  0
ARC
  5
7562
  8
0
 10
2333.1399302851359607
 20
151.1154950913702066
 30
0.0
 40
1.128608200505216
 50
264.6150770445524927
 51
267.7748797109376824
  0
ARC
  5
7563
  8
0
 10
2333.0967853514089256
 20
150.2581566579775938
 30
0.0
 40
0.2539036758215935
 50
262.9307042721475227
 51
269.847835089682178
  0
ARC
  5
7564
  8
0
 10
2333.1159854415432164
 20
150.5461306016524077
 30
0.0
 40
0.5406937205932991
 50
264.9611382016091738
 51
267.8934915505017784
  0
ARC
  5
7565
  8
0
 10
2333.0963521044041045
 20
150.1134944592257909
 30
0.0
 40
0.0984018616802027
 50
264.1320273017055911
 51
269.8596370705291179
  0
ARC
  5
7566
  8
0
 10
2333.0757824674301446
 20
150.1134065780281048
 30
0.0
 40
0.1075534767514532
 50
250.7676533602989934
 51
260.8710772440807091
  0
ARC
  5
7567
  8
0
 10
2333.0472546391169999
 20
150.0342475708374081
 30
0.0
 40
0.0234310456096205
 50
213.586766413859209
 51
252.8729111738188919
  0
ARC
  5
7568
  8
0
 10
2333.0499985621318046
 20
150.0067634631706142
 30
0.0
 40
0.0277625806952191
 50
107.5890276116509057
 51
143.3130275804792859
  0
ARC
  5
7569
  8
0
 10
2333.0761880925638252
 20
149.9291091099846085
 30
0.0
 40
0.1097108659800879
 50
99.1624282611216188
 51
108.3718788078828936
  0
ARC
  5
756A
  8
0
 10
2333.0768443694869347
 20
150.1027298835039971
 30
0.0
 40
0.0953848797389638
 50
250.4029276521509928
 51
260.8500958334050779
  0
ARC
  5
756B
  8
0
 10
2333.0507383001631752
 20
150.0323660044045937
 30
0.0
 40
0.0203650437464736
 50
212.9626721765218917
 51
253.1994075341602013
  0
ARC
  5
756C
  8
0
 10
2333.0544002770689076
 20
150.007400163445908
 30
0.0
 40
0.0261707659361789
 50
108.2066776371334953
 51
142.4500308817981988
  0
ARC
  5
756D
  8
0
 10
2333.0779756066049231
 20
149.936878686426212
 30
0.0
 40
0.1005282872249096
 50
99.3308407896934966
 51
108.4123823436538032
  0
ARC
  5
756E
  8
0
 10
2333.1061172706090474
 20
149.6385942469061092
 30
0.0
 40
0.4019120093536649
 50
91.4266157763046579
 51
95.7948448614786372
  0
ARC
  5
756F
  8
0
 10
2333.099794457400094
 20
149.5326145297848939
 30
0.0
 40
0.5242960905173277
 50
90.4025320767419345
 51
97.2075111677719832
  0
ARC
  5
7570
  8
0
 10
2333.0989241186621257
 20
149.7717648048543992
 30
0.0
 40
0.2670832900005178
 50
90.6034840359406957
 51
96.5418629903440717
  0
ARC
  5
7571
  8
0
 10
2333.0963630078099413
 20
149.9309371076878108
 30
0.0
 40
0.0986058951456772
 50
90.1464080275937079
 51
95.8621570865366266
  0
ARC
  5
7572
  8
0
 10
2333.0815060061017903
 20
150.0099333145668936
 30
0.0
 40
0.01817587162926
 50
96.4228908485790015
 51
132.4250801577171046
  0
ARC
  5
7573
  8
0
 10
2333.0811348445117801
 20
150.0338849280012994
 30
0.0
 40
0.0173243908169901
 50
226.6574459265123949
 51
264.4945830671999829
  0
ARC
  5
7574
  8
0
 10
2332.8386580587048229
 20
150.1776959156858879
 30
0.0
 40
0.1278570849961929
 50
230.8755125624473123
 51
245.2651572410136964
  0
ARC
  5
7575
  8
0
 10
2332.7845196052139727
 20
150.1133396427601951
 30
0.0
 40
0.0437912840840216
 50
199.7361431362151905
 51
232.6945623962702996
  0
ARC
  5
7576
  8
0
 10
2332.7746938586251417
 20
150.1054541909871034
 30
0.0
 40
0.0321429932343515
 50
125.4317267354766017
 51
192.4002751990645947
  0
ARC
  5
7577
  8
0
 10
2332.9093411752251086
 20
149.912761496619197
 30
0.0
 40
0.2672172236890447
 50
99.3864911491644136
 51
125.0031803476002068
  0
ARC
  5
7578
  8
0
 10
2333.0701083462158749
 20
149.2139164743603885
 30
0.0
 40
0.9839382595327016
 50
93.2295170835807454
 51
101.9866803979938936
  0
ARC
  5
7579
  8
0
 10
2333.1929931915619818
 20
145.720131519861809
 30
0.0
 40
4.479710953644588
 50
91.2392253084640146
 51
92.281273525188027
  0
ARC
  5
757A
  8
0
 10
2332.7679561646400543
 20
150.1530247643391931
 30
0.0
 40
0.0379309168878257
 50
122.7899872138669934
 51
184.562561071236388
  0
ARC
  5
757B
  8
0
 10
2332.9114741345129005
 20
149.9323967498717138
 30
0.0
 40
0.3011303794191295
 50
111.866430328980897
 51
123.011917713948904
  0
LINE
  5
757C
  8
0
 10
2333.2280331204801769
 20
149.9642872059064018
 30
0.0
 11
2333.1994855401799214
 21
149.9772513753063947
 31
0.0
  0
LINE
  5
757D
  8
0
 10
2333.1965321992811369
 20
149.9785925611064101
 30
0.0
 11
2333.1679806508800539
 21
149.9915585324064011
 31
0.0
  0
LINE
  5
757E
  8
0
 10
2333.1650266349811318
 20
149.9929000248064028
 30
0.0
 11
2333.1335036701798344
 21
150.0072153905063885
 31
0.0
  0
LINE
  5
757F
  8
0
 10
2333.1305456272798438
 20
150.0085587117063994
 30
0.0
 11
2333.1127493355797924
 21
150.0166404523064045
 31
0.0
  0
LINE
  5
7580
  8
0
 10
2333.1059302379799192
 20
150.015608211406402
 30
0.0
 11
2333.1237265296799706
 21
150.0075264708063969
 31
0.0
  0
LINE
  5
7581
  8
0
 10
2333.1266845725799612
 20
150.006183149706402
 30
0.0
 11
2333.1582075372798499
 21
149.9918677840063879
 31
0.0
  0
LINE
  5
7582
  8
0
 10
2333.1611615531801363
 20
149.9905262916063862
 30
0.0
 11
2333.189713101579855
 21
149.9775603203063952
 31
0.0
  0
LINE
  5
7583
  8
0
 10
2333.1926664424800038
 20
149.9762191344063922
 30
0.0
 11
2333.2212140228798489
 21
149.9632549651063869
 31
0.0
  0
LINE
  5
7584
  8
0
 10
2333.1700188921799963
 20
149.9575745952064096
 30
0.0
 11
2333.1552349350799886
 21
149.9720407465063943
 31
0.0
  0
LINE
  5
7585
  8
0
 10
2333.1400235046799025
 20
149.9709720922064093
 30
0.0
 11
2333.1548074618799546
 21
149.9565059408064087
 31
0.0
  0
LINE
  5
7586
  8
0
 10
2333.3467105635800181
 20
150.021285536206392
 30
0.0
 11
2333.3467105635800181
 21
150.0068208574064101
 31
0.0
  0
LINE
  5
7587
  8
0
 10
2333.3209695153800567
 20
150.004354635502807
 30
0.0
 11
2333.3209695153800567
 21
149.989409775706406
 31
0.0
  0
LINE
  5
7588
  8
0
 10
2333.2964503911798602
 20
150.0233500179064094
 30
0.0
 11
2333.2964503911798602
 21
150.0342837497557866
 31
0.0
  0
LINE
  5
7589
  8
0
 10
2333.2874601938801788
 20
150.0379267755064063
 30
0.0
 11
2333.2874601938801788
 21
150.050153305033291
 31
0.0
  0
LINE
  5
758A
  8
0
 10
2333.283528802679939
 20
149.9926935051514931
 30
0.0
 11
2333.283528802679939
 21
149.9759911328063993
 31
0.0
  0
LINE
  5
758B
  8
0
 10
2333.2675866478798525
 20
150.0495288053064087
 30
0.0
 11
2333.2675866478798525
 21
150.0644645607391965
 31
0.0
  0
LINE
  5
758C
  8
0
 10
2333.2664083192798898
 20
150.021285536206392
 30
0.0
 11
2333.2664083192798898
 21
149.997668976406402
 31
0.0
  0
LINE
  5
758D
  8
0
 10
2333.2334406125801252
 20
150.0233500179064094
 30
0.0
 11
2333.2334406125801252
 21
150.0419760912594995
 31
0.0
  0
LINE
  5
758E
  8
0
 10
2333.2320027407799898
 20
150.0609740815064015
 30
0.0
 11
2333.2320027407799898
 21
150.0797223518397061
 31
0.0
  0
LINE
  5
758F
  8
0
 10
2333.2280331204801769
 20
149.9827318542727141
 30
0.0
 11
2333.2280331204801769
 21
149.9642872059064018
 31
0.0
  0
LINE
  5
7590
  8
0
 10
2333.21301857888011
 20
150.0412685642064048
 30
0.0
 11
2333.21301857888011
 21
150.0632060563555115
 31
0.0
  0
LINE
  5
7591
  8
0
 10
2333.1965321992811369
 20
149.9977628989065011
 30
0.0
 11
2333.1965321992811369
 21
149.9785925611064101
 31
0.0
  0
LINE
  5
7592
  8
0
 10
2333.1926664424800038
 20
150.0684164196063932
 30
0.0
 11
2333.1926664424800038
 21
150.084965513506404
 31
0.0
  0
LINE
  5
7593
  8
0
 10
2333.1700194713607743
 20
149.9734103556795048
 30
0.0
 11
2333.1700188921799963
 21
149.9575745952064096
 31
0.0
  0
LINE
  5
7594
  8
0
 10
2333.1650266349811318
 20
150.021285536206392
 30
0.0
 11
2333.1650266349811318
 21
149.9929000248064028
 31
0.0
  0
LINE
  5
7595
  8
0
 10
2333.164486651281095
 20
150.0233500179064094
 30
0.0
 11
2333.164486651281095
 21
150.0514903091205099
 31
0.0
  0
LINE
  5
7596
  8
0
 10
2333.1611615531801363
 20
150.0541092625063868
 30
0.0
 11
2333.1611615531801363
 21
150.0704446411064055
 31
0.0
  0
LINE
  5
7597
  8
0
 10
2333.1400235046799025
 20
150.0736634619063921
 30
0.0
 11
2333.1400235046799025
 21
150.088948113487902
 31
0.0
  0
LINE
  5
7598
  8
0
 10
2333.1305456272798438
 20
150.021285536206392
 30
0.0
 11
2333.1305456272798438
 21
150.0085587117063994
 31
0.0
  0
LINE
  5
7599
  8
0
 10
2333.1266845725799612
 20
150.0384524044063994
 30
0.0
 11
2333.1266845725799612
 21
150.0557902669337977
 31
0.0
  0
LINE
  5
759A
  8
0
 10
2333.1229779820801014
 20
150.0233500179064094
 30
0.0
 11
2333.1229779820801014
 21
150.0326401856291056
 31
0.0
  0
LINE
  5
759B
  8
0
 10
2333.1059302379799192
 20
150.0290273426064118
 30
0.0
 11
2333.1059273139799188
 21
150.0385493307566946
 31
0.0
  0
LINE
  5
759C
  8
0
 10
2333.0996385992798423
 20
149.9547138808063949
 30
0.0
 11
2333.0996385992798423
 21
149.9696836141064011
 31
0.0
  0
LINE
  5
759D
  8
0
 10
2333.0996385992798423
 20
149.9712322821063992
 30
0.0
 11
2333.0996385992798423
 21
149.9863853751789975
 31
0.0
  0
LINE
  5
759E
  8
0
 10
2333.0996385992798423
 20
150.0584314578063925
 30
0.0
 11
2333.0996385992798423
 21
150.0734032719063862
 31
0.0
  0
LINE
  5
759F
  8
0
 10
2333.0996385992798423
 20
150.0749519399064127
 30
0.0
 11
2333.0996385992798423
 21
150.0899216732063906
 31
0.0
  0
LINE
  5
75A0
  8
0
 10
2333.1552349350799886
 20
150.0725948075063911
 30
0.0
 11
2333.1700188921799963
 21
150.0870609589063918
 31
0.0
  0
LINE
  5
75A1
  8
0
 10
2333.1548074618799546
 20
150.0881296132064051
 30
0.0
 11
2333.1400235046799025
 21
150.0736634619063921
 31
0.0
  0
LINE
  5
75A2
  8
0
 10
2333.2320027407799898
 20
149.9836614726063999
 30
0.0
 11
2333.2723932627800423
 21
149.9730715148064064
 31
0.0
  0
LINE
  5
75A3
  8
0
 10
2333.283528802679939
 20
149.9759911328063993
 30
0.0
 11
2333.2431382805798421
 21
149.9865810906063928
 31
0.0
  0
LINE
  5
75A4
  8
0
 10
2333.21301857888011
 20
150.003366989806409
 30
0.0
 11
2333.2624713113800681
 21
149.9958810828063918
 31
0.0
  0
LINE
  5
75A5
  8
0
 10
2333.2675866478798525
 20
149.9951067487064051
 30
0.0
 11
2333.3170325074797802
 21
149.9876218821063958
 31
0.0
  0
LINE
  5
75A6
  8
0
 10
2333.3209695153800567
 20
149.989409775706406
 30
0.0
 11
2333.271523655780129
 21
149.9968946424064029
 31
0.0
  0
LINE
  5
75A7
  8
0
 10
2333.2664083192798898
 20
149.997668976406402
 30
0.0
 11
2333.2169555867799318
 21
150.0051548834063908
 31
0.0
  0
LINE
  5
75A8
  8
0
 10
2333.2874601938801788
 20
150.0067087785064075
 30
0.0
 11
2333.3426346730798286
 21
150.0028325850063879
 31
0.0
  0
LINE
  5
75A9
  8
0
 10
2333.3467105635800181
 20
150.0068208574064101
 30
0.0
 11
2333.2915360843799135
 21
150.0106970510063888
 31
0.0
  0
LINE
  5
75AA
  8
0
 10
2333.1229779820801014
 20
150.021285536206392
 30
0.0
 11
2333.158570565581158
 21
150.021285536206392
 31
0.0
  0
LINE
  5
75AB
  8
0
 10
2333.164486651281095
 20
150.021285536206392
 30
0.0
 11
2333.2275325807800073
 21
150.021285536206392
 31
0.0
  0
LINE
  5
75AC
  8
0
 10
2333.2334406125801252
 20
150.021285536206392
 30
0.0
 11
2333.2905437093800174
 21
150.021285536206392
 31
0.0
  0
LINE
  5
75AD
  8
0
 10
2333.2964503911798602
 20
150.021285536206392
 30
0.0
 11
2333.3535455519800053
 21
150.021285536206392
 31
0.0
  0
LINE
  5
75AE
  8
0
 10
2333.3535455519800053
 20
150.0233500179064094
 30
0.0
 11
2333.2964503911798602
 21
150.0233500179064094
 31
0.0
  0
LINE
  5
75AF
  8
0
 10
2333.2905437093800174
 20
150.0233500179064094
 30
0.0
 11
2333.2334406125801252
 21
150.0233500179064094
 31
0.0
  0
LINE
  5
75B0
  8
0
 10
2333.2275325807800073
 20
150.0233500179064094
 30
0.0
 11
2333.164486651281095
 21
150.0233500179064094
 31
0.0
  0
LINE
  5
75B1
  8
0
 10
2333.158570565581158
 20
150.0233500179064094
 30
0.0
 11
2333.1229779820801014
 21
150.0233500179064094
 31
0.0
  0
LINE
  5
75B2
  8
0
 10
2333.2915360843799135
 20
150.0339385031064126
 30
0.0
 11
2333.3467105635800181
 21
150.0378146966064037
 31
0.0
  0
LINE
  5
75B3
  8
0
 10
2333.3426346730798286
 20
150.0418029691064135
 30
0.0
 11
2333.2874601938801788
 21
150.0379267755064063
 31
0.0
  0
LINE
  5
75B4
  8
0
 10
2333.2169555867799318
 20
150.0394806706063946
 30
0.0
 11
2333.2664083192798898
 21
150.0469665776064119
 31
0.0
  0
LINE
  5
75B5
  8
0
 10
2333.271523655780129
 20
150.0477409117063985
 30
0.0
 11
2333.3209695153800567
 21
150.0552257783064078
 31
0.0
  0
LINE
  5
75B6
  8
0
 10
2333.3170325074797802
 20
150.0570136719063896
 30
0.0
 11
2333.2675866478798525
 21
150.0495288053064087
 31
0.0
  0
LINE
  5
75B7
  8
0
 10
2333.2624713113800681
 20
150.0487544713064096
 30
0.0
 11
2333.21301857888011
 21
150.0412685642064048
 31
0.0
  0
LINE
  5
75B8
  8
0
 10
2333.2431382805798421
 20
150.0580544634063926
 30
0.0
 11
2333.283528802679939
 21
150.0686444212063861
 31
0.0
  0
LINE
  5
75B9
  8
0
 10
2333.2723932627800423
 20
150.071564039306395
 30
0.0
 11
2333.2320027407799898
 21
150.0609740815064015
 31
0.0
  0
LINE
  5
75BA
  8
0
 10
2333.1127493355797924
 20
150.0279951018063969
 30
0.0
 11
2333.1305456272798438
 21
150.036076842306386
 31
0.0
  0
LINE
  5
75BB
  8
0
 10
2333.1335036701798344
 20
150.0374201635063969
 30
0.0
 11
2333.1650266349811318
 21
150.051735529206411
 31
0.0
  0
LINE
  5
75BC
  8
0
 10
2333.1679806508800539
 20
150.0530770216064127
 30
0.0
 11
2333.1965321992811369
 21
150.0660429929064037
 31
0.0
  0
LINE
  5
75BD
  8
0
 10
2333.1994855401799214
 20
150.0673841788064067
 30
0.0
 11
2333.2280331204801769
 21
150.080348348106412
 31
0.0
  0
LINE
  5
75BE
  8
0
 10
2333.2212140228798489
 20
150.0813805890063861
 30
0.0
 11
2333.1926664424800038
 21
150.0684164196063932
 31
0.0
  0
LINE
  5
75BF
  8
0
 10
2333.189713101579855
 20
150.0670752338064062
 30
0.0
 11
2333.1611615531801363
 21
150.0541092625063868
 31
0.0
  0
LINE
  5
75C0
  8
0
 10
2333.1582075372798499
 20
150.0527677701064135
 30
0.0
 11
2333.1266845725799612
 21
150.0384524044063994
 31
0.0
  0
LINE
  5
75C1
  8
0
 10
2333.1237265296799706
 20
150.0371090832063885
 30
0.0
 11
2333.1059302379799192
 21
150.0290273426064118
 31
0.0
  0
ARC
  5
75C2
  8
0
 10
2333.0962762255799134
 20
150.9083124077064042
 30
0.0
 40
0.9536044546999999
 50
270.2020231971064845
 51
273.5189664585997775
  0
ARC
  5
75C3
  8
0
 10
2333.0958491041801608
 20
150.7219966062064032
 30
0.0
 40
0.7523225361
 50
270.2886036071888043
 51
273.366193655706013
  0
ARC
  5
75C4
  8
0
 10
2332.8638479717328664
 20
150.2755425348310894
 30
0.0
 40
0.6112582002824382
 50
343.1688929107402828
 51
348.148746165895318
  0
ARC
  5
75C5
  8
0
 10
2333.1694715477387945
 20
150.3739907898385013
 30
0.0
 40
0.4221637121261841
 50
274.3159143093869829
 51
297.0149056193575916
  0
ARC
  5
75C6
  8
0
 10
2333.0804044991509727
 20
151.5416390703099978
 30
0.0
 40
1.5932039380601319
 50
270.5648574365195032
 51
274.3498015478663774
  0
ARC
  5
75C7
  8
0
 10
2333.2866578742718957
 20
150.0912464799864097
 30
0.0
 40
0.1194825737122828
 50
308.6166290321448855
 51
320.1299967748922768
  0
ARC
  5
75C8
  8
0
 10
2333.2427790262781855
 20
150.1298310321668907
 30
0.0
 40
0.1779003739812901
 50
319.6516468272064913
 51
337.4364399328907211
  0
ARC
  5
75C9
  8
0
 10
2333.2498793524141547
 20
150.1266380361875861
 30
0.0
 40
0.1701185155517916
 50
337.5119280250751217
 51
351.9321961144539728
  0
ARC
  5
75CA
  8
0
 10
2333.3661737003249073
 20
150.0951780449962882
 30
0.0
 40
0.0526892266126192
 50
8.2766050221344312
 51
74.8612949934889826
  0
ARC
  5
75CB
  8
0
 10
2333.187153907083939
 20
149.6817509446846088
 30
0.0
 40
0.5027198880726828
 50
67.4509718170793633
 51
84.2407174339479212
  0
ARC
  5
75CC
  8
0
 10
2333.0727540596171821
 20
148.6402503998251916
 30
0.0
 40
1.5504711060423739
 50
83.8967279695693549
 51
89.1368384563823923
  0
ARC
  5
75CD
  8
0
 10
2333.3500294875962027
 20
150.024411893538911
 30
0.0
 40
0.0274295167933807
 50
317.385821113618988
 51
348.0707394389768865
  0
ARC
  5
75CE
  8
0
 10
2333.3523603998892213
 20
150.0216686530577022
 30
0.0
 40
0.0246803506421062
 50
353.1899571726622185
 51
45.2001417719297933
  0
ARC
  5
75CF
  8
0
 10
2333.2645422214141036
 20
149.9121074008563141
 30
0.0
 40
0.1649746038620919
 50
50.3774664373001784
 51
78.3785421040828112
  0
ARC
  5
75D0
  8
0
 10
2333.1282967418060252
 20
149.3997816865820027
 30
0.0
 40
0.6949021128202232
 50
75.883833033505141
 51
85.9529991236507556
  0
ARC
  5
75D1
  8
0
 10
2333.0942026735269792
 20
149.0055789720931898
 30
0.0
 40
1.090545618599968
 50
85.6278731793954933
 51
89.8997369648869125
  0
ARC
  5
75D2
  8
0
 10
2333.1101421546691199
 20
150.7307639270368043
 30
0.0
 40
0.7755043304529511
 50
274.4282178733549813
 51
278.2345257973814796
  0
ARC
  5
75D3
  8
0
 10
2333.1066225091408342
 20
150.5772800822601027
 30
0.0
 40
0.607188456329003
 50
274.5921014603350159
 51
278.146737867556908
  0
ARC
  5
75D4
  8
0
 10
2333.1363922452519546
 20
150.3829934486423099
 30
0.0
 40
0.4106183068737481
 50
278.8387621379420125
 51
283.4646377542446203
  0
ARC
  5
75D5
  8
0
 10
2333.1482994145990233
 20
150.4833367685735084
 30
0.0
 40
0.5251379936345132
 50
278.7332139008606759
 51
283.6686856954656832
  0
ARC
  5
75D6
  8
0
 10
2333.1921202491748772
 20
150.1721987058805041
 30
0.0
 40
0.1925012691625402
 50
285.3685563903180196
 51
293.0809118512751184
  0
ARC
  5
75D7
  8
0
 10
2333.2153724686231726
 20
150.2263942584945937
 30
0.0
 40
0.2595130270845076
 50
285.2262723218918836
 51
293.0624281023224853
  0
ARC
  5
75D8
  8
0
 10
2333.2824365053720612
 20
150.0757999751336058
 30
0.0
 40
0.094594182787892
 50
294.0385204901717202
 51
309.5226643749294908
  0
ARC
  5
75D9
  8
0
 10
2333.3295130183678339
 20
150.0237944124390879
 30
0.0
 40
0.0241631358017502
 50
315.375566137551175
 51
354.0401954135933238
  0
ARC
  5
75DA
  8
0
 10
2333.3256778225390917
 20
150.0190288981222011
 30
0.0
 40
0.0282007521245663
 50
8.8139889737411163
 51
41.7702497810889071
  0
ARC
  5
75DB
  8
0
 10
2333.281973052497051
 20
149.9680875397378088
 30
0.0
 40
0.0954662073134718
 50
50.548482436929099
 51
65.8903330435899051
  0
ARC
  5
75DC
  8
0
 10
2333.2164287086548029
 20
149.821283915846692
 30
0.0
 40
0.2562999068082793
 50
66.8883745006946953
 51
74.8229250750715096
  0
ARC
  5
75DD
  8
0
 10
2333.1478841705070408
 20
149.5592018261384055
 30
0.0
 40
0.5272736969934987
 50
76.3413160540390408
 51
81.2567845982236179
  0
ARC
  5
75DE
  8
0
 10
2333.1086899186789196
 20
149.3007831464560979
 30
0.0
 40
0.7886659884528712
 50
81.7972463960251162
 51
85.5400099332344297
  0
ARC
  5
75DF
  8
0
 10
2333.0985182932240605
 20
149.2053455629938981
 30
0.0
 40
0.8845768196248007
 50
86.351574808332856
 51
89.9274355550824538
  0
ARC
  5
75E0
  8
0
 10
2333.097827182913079
 20
149.3846380513514873
 30
0.0
 40
0.6903162651720169
 50
86.4955494018574882
 51
89.8496535035835535
  0
ARC
  5
75E1
  8
0
 10
2333.1067866421240069
 20
149.4688258342712004
 30
0.0
 40
0.6057096747881161
 50
81.8489215846838079
 51
85.4122390874367738
  0
ARC
  5
75E2
  8
0
 10
2333.1358845276731699
 20
149.6590665510555027
 30
0.0
 40
0.4132413022969317
 50
76.5500512219370535
 51
81.1465488861986444
  0
ARC
  5
75E3
  8
0
 10
2333.1903881605971947
 20
149.8674698722956862
 30
0.0
 40
0.1977499975421058
 50
67.0215884486443088
 51
74.5289433097593559
  0
ARC
  5
75E4
  8
0
 10
2333.2418348581868486
 20
149.9816849796090139
 30
0.0
 40
0.072421066464076
 50
50.9498124467910927
 51
65.7984956943551964
  0
ARC
  5
75E5
  8
0
 10
2333.2779927631590908
 20
150.0212181518843124
 30
0.0
 40
0.0185803359742307
 50
6.5884993556663263
 51
43.2052287590923427
  0
ARC
  5
75E6
  8
0
 10
2333.2781996307430745
 20
150.0233213912541999
 30
0.0
 40
0.0183639582415651
 50
316.571248679628809
 51
353.6350232138696015
  0
ARC
  5
75E7
  8
0
 10
2333.2403974465569263
 20
150.0652846940222105
 30
0.0
 40
0.0751401361727157
 50
294.4715982008439141
 51
308.7800935313350124
  0
ARC
  5
75E8
  8
0
 10
2333.098081647446179
 20
150.637627070559688
 30
0.0
 40
0.666396607266784
 50
270.133864502302572
 51
277.9033744503640264
  0
ARC
  5
75E9
  8
0
 10
2333.1013899857221077
 20
150.4194682655929967
 30
0.0
 40
0.4330864317013563
 50
269.7682972320779982
 51
277.9328846962628745
  0
ARC
  5
75EA
  8
0
 10
2333.1387916221010528
 20
150.1946791101129861
 30
0.0
 40
0.205207135570254
 50
278.1775893830417772
 51
291.2056945445372094
  0
ARC
  5
75EB
  8
0
 10
2333.1564553890079878
 20
150.265838579872792
 30
0.0
 40
0.290028319339179
 50
277.9426834004443094
 51
291.440600502748282
  0
ARC
  5
75EC
  8
0
 10
2333.2104789763998269
 20
150.0282626963096106
 30
0.0
 40
0.0239982811716214
 50
285.6570128619529214
 51
343.0979860078288084
  0
ARC
  5
75ED
  8
0
 10
2333.255043709653819
 20
150.0334243433958932
 30
0.0
 40
0.0375180039514201
 50
287.6325183507049132
 51
341.1224804770765218
  0
ARC
  5
75EE
  8
0
 10
2333.2546683814748576
 20
150.010827636829589
 30
0.0
 40
0.0379980154763608
 50
19.2416803354812913
 51
72.0033210793051524
  0
ARC
  5
75EF
  8
0
 10
2333.153939983491
 20
149.7692031154396943
 30
0.0
 40
0.2998799921639272
 50
68.7820972104610036
 51
81.8346190489426846
  0
ARC
  5
75F0
  8
0
 10
2333.0982154708808594
 20
149.4089133413492902
 30
0.0
 40
0.664491454502077
 50
82.0854705221559158
 51
89.8772906517598074
  0
ARC
  5
75F1
  8
0
 10
2333.0972592721691399
 20
149.5845378217206019
 30
0.0
 40
0.4738996091158672
 50
82.2504297610697819
 51
89.7123315324523247
  0
ARC
  5
75F2
  8
0
 10
2333.1388092031829729
 20
149.8500234988300122
 30
0.0
 40
0.2051382618446802
 50
68.7921089328035009
 51
81.8246071424890857
  0
ARC
  5
75F3
  8
0
 10
2333.2089296607800861
 20
150.0147895049807119
 30
0.0
 40
0.0259628416803865
 50
19.2518873106669801
 51
71.9931159179188143
  0
ARC
  5
75F4
  8
0
 10
2333.2009281123259825
 20
150.0122671830887953
 30
0.0
 40
0.0288205997393536
 50
22.6155334521347591
 51
72.4630861839031013
  0
ARC
  5
75F5
  8
0
 10
2333.1380440733000796
 20
149.8624654432923933
 30
0.0
 40
0.1911837442271765
 50
68.0162972775917893
 51
81.8865181231148256
  0
ARC
  5
75F6
  8
0
 10
2333.1967221945269557
 20
150.0360131090795903
 30
0.0
 40
0.0341493968297871
 50
283.0519063650822886
 51
334.4518851682582863
  0
ARC
  5
75F7
  8
0
 10
2333.1363336790441281
 20
150.1915281299104947
 30
0.0
 40
0.2006898349632272
 50
278.2198392604968831
 51
289.8362164486866845
  0
ARC
  5
75F8
  8
0
 10
2333.0522917953248907
 20
151.1154950913702066
 30
0.0
 40
1.128608200505216
 50
272.2251202890623176
 51
275.3849229554475073
  0
ARC
  5
75F9
  8
0
 10
2333.0954367290510163
 20
150.2581566579775938
 30
0.0
 40
0.2539036758215935
 50
270.152164910317822
 51
277.0692957278524773
  0
ARC
  5
75FA
  8
0
 10
2333.0762366389171802
 20
150.5461306016524077
 30
0.0
 40
0.5406937205932991
 50
272.1065084494982216
 51
275.0388617983908262
  0
ARC
  5
75FB
  8
0
 10
2333.0958699760572017
 20
150.1134944592257909
 30
0.0
 40
0.0984018616802027
 50
270.1403629294708821
 51
275.8679726982944089
  0
ARC
  5
75FC
  8
0
 10
2333.1164396130311616
 20
150.1134065780281048
 30
0.0
 40
0.1075534767514532
 50
279.1289227559192909
 51
289.2323466397010066
  0
ARC
  5
75FD
  8
0
 10
2333.1449674413420325
 20
150.0342475708374081
 30
0.0
 40
0.0234310456096205
 50
287.1270888261810796
 51
326.413233586140791
  0
ARC
  5
75FE
  8
0
 10
2333.1422235183281373
 20
150.0067634631706142
 30
0.0
 40
0.0277625806952191
 50
36.6869724195206786
 51
72.4109723883490943
  0
ARC
  5
75FF
  8
0
 10
2333.1160339878961167
 20
149.9291091099846085
 30
0.0
 40
0.1097108659800879
 50
71.6281211921170922
 51
80.837571738878367
  0
ARC
  5
7600
  8
0
 10
2333.1153777109730072
 20
150.1027298835039971
 30
0.0
 40
0.0953848797389638
 50
279.1499041665949221
 51
289.5970723478490072
  0
ARC
  5
7601
  8
0
 10
2333.1414837802972215
 20
150.0323660044045937
 30
0.0
 40
0.0203650437464736
 50
286.8005924658398271
 51
327.0373278234781083
  0
ARC
  5
7602
  8
0
 10
2333.1378218033910343
 20
150.007400163445908
 30
0.0
 40
0.0261707659361789
 50
37.5499691182031015
 51
71.7933223628664621
  0
ARC
  5
7603
  8
0
 10
2333.1142464738559283
 20
149.936878686426212
 30
0.0
 40
0.1005282872249096
 50
71.587617656346211
 51
80.669159210306546
  0
ARC
  5
7604
  8
0
 10
2333.0861048098508945
 20
149.6385942469061092
 30
0.0
 40
0.4019120093536649
 50
84.2051551385213912
 51
88.5733842236953564
  0
ARC
  5
7605
  8
0
 10
2333.0924276230612122
 20
149.5326145297848939
 30
0.0
 40
0.5242960905173277
 50
82.7924888322280452
 51
89.5974679232580513
  0
ARC
  5
7606
  8
0
 10
2333.0932979617991805
 20
149.7717648048543992
 30
0.0
 40
0.2670832900005178
 50
83.4581370096559141
 51
89.3965159640593043
  0
ARC
  5
7607
  8
0
 10
2333.0958590726500006
 20
149.9309371076878108
 30
0.0
 40
0.0986058951456772
 50
84.1378429134633734
 51
89.8535919724062779
  0
ARC
  5
7608
  8
0
 10
2333.1107160743581517
 20
150.0099333145668936
 30
0.0
 40
0.01817587162926
 50
47.5749198422829096
 51
83.5771091514210127
  0
ARC
  5
7609
  8
0
 10
2333.1110872359481618
 20
150.0338849280012994
 30
0.0
 40
0.0173243908169901
 50
275.5054169327999034
 51
313.3425540734875767
  0
ARC
  5
760A
  8
0
 10
2333.353564021755119
 20
150.1776959156858879
 30
0.0
 40
0.1278570849961929
 50
294.7348427589861899
 51
309.1244874375527161
  0
ARC
  5
760B
  8
0
 10
2333.4077024752468787
 20
150.1133396427601951
 30
0.0
 40
0.0437912840840216
 50
307.305437603729672
 51
340.2638568637847811
  0
ARC
  5
760C
  8
0
 10
2333.4175282218348002
 20
150.1054541909871034
 30
0.0
 40
0.0321429932343515
 50
347.5997248009352916
 51
54.5682732645233699
  0
ARC
  5
760D
  8
0
 10
2333.2828809052348333
 20
149.912761496619197
 30
0.0
 40
0.2672172236890447
 50
54.9968196523998216
 51
80.6135088508355864
  0
ARC
  5
760E
  8
0
 10
2333.122113734244067
 20
149.2139164743603885
 30
0.0
 40
0.9839382595327016
 50
78.0133196020061064
 51
86.770482916419283
  0
ARC
  5
760F
  8
0
 10
2332.9992288888979601
 20
145.720131519861809
 30
0.0
 40
4.479710953644588
 50
87.7187264748119446
 51
88.7607746915359854
  0
ARC
  5
7610
  8
0
 10
2333.4242659158198876
 20
150.1530247643391931
 30
0.0
 40
0.0379309168878257
 50
355.437438928761992
 51
57.2100127861329568
  0
ARC
  5
7611
  8
0
 10
2333.2807479579878418
 20
149.9323967730612139
 30
0.0
 40
0.3011303534136652
 50
56.9880818032649188
 51
68.133570153768602
  0
ARC
  5
7612
  8
0
 10
2332.9877039840930593
 20
151.0839351459453894
 30
0.0
 40
1.109114837143784
 50
255.8389939651912925
 51
263.7885002466737205
  0
ARC
  5
7613
  8
0
 10
2332.7863343840049311
 20
150.3556886869980076
 30
0.0
 40
0.3541461330065777
 50
226.9269030517347119
 51
258.6044485806694979
  0
ARC
  5
7614
  8
0
 10
2332.2313216477100468
 20
149.8804345720020024
 30
0.0
 40
0.3807400405561866
 50
34.665022498024058
 51
84.5583861161102419
  0
ARC
  5
7615
  8
0
 10
2332.5830984460221771
 20
150.1218290155422039
 30
0.0
 40
0.0459188499574619
 50
151.8017707178476883
 51
212.7457593140626955
  0
ARC
  5
7616
  8
0
 10
2332.7148308189280215
 20
149.9655015998584986
 30
0.0
 40
0.2476818649768945
 50
100.3217858949240053
 51
134.0473572671091063
  0
ARC
  5
7617
  8
0
 10
2332.9881712811329635
 20
148.8659915987080922
 30
0.0
 40
1.380249155877969
 50
93.2640820242857131
 51
103.3082423853634992
  0
ARC
  5
7618
  8
0
 10
2333.1314021717521427
 20
146.4246356204072015
 30
0.0
 40
3.8258019258969771
 50
90.5285327382449339
 51
93.3238696769181928
  0
ARC
  5
7619
  8
0
 10
2332.93073489048993
 20
150.6310905427108935
 30
0.0
 40
0.6410078369433787
 50
243.4847624469879861
 51
261.0484309516003805
  0
ARC
  5
761A
  8
0
 10
2332.6809373906908149
 20
150.1320300311292044
 30
0.0
 40
0.0829252887959679
 50
205.9323215563283895
 51
243.9851675697757116
  0
ARC
  5
761B
  8
0
 10
2332.6435754198610084
 20
150.1092146219131962
 30
0.0
 40
0.0395692018608033
 50
133.2904506691178881
 51
199.8692554202395115
  0
ARC
  5
761C
  8
0
 10
2332.7484551604047738
 20
149.9996674680031106
 30
0.0
 40
0.19122680524949
 50
108.7612333484059945
 51
133.6573240524041069
  0
ARC
  5
761D
  8
0
 10
2332.9213378577769618
 20
149.553019025392814
 30
0.0
 40
0.6700467895272905
 50
100.4923146204389042
 51
110.4754179977040991
  0
ARC
  5
761E
  8
0
 10
2333.0590064296429773
 20
148.8609011585525082
 30
0.0
 40
1.375693573232768
 50
93.7703243676272535
 51
100.8808779932489017
  0
ARC
  5
761F
  8
0
 10
2333.1136552016669157
 20
147.8810367874064013
 30
0.0
 40
2.357051530848044
 50
90.4264716635540253
 51
93.5296103474109657
  0
ARC
  5
7620
  8
0
 10
2332.8048321982219022
 20
150.3293858131760032
 30
0.0
 40
0.268538109867515
 50
225.4495987587135915
 51
265.798975796611785
  0
ARC
  5
7621
  8
0
 10
2333.2045180963659732
 20
151.0839351459453894
 30
0.0
 40
1.109114837143784
 50
276.2114997533262795
 51
284.1610060348087927
  0
ARC
  5
7622
  8
0
 10
2333.4058876964550109
 20
150.3556886869980076
 30
0.0
 40
0.3541461330065777
 50
281.3955514193305021
 51
313.0730969482652881
  0
ARC
  5
7623
  8
0
 10
2333.9609005929410159
 20
149.8804343993847112
 30
0.0
 40
0.3807402704924039
 50
95.4416348031244297
 51
145.3349698477994139
  0
ARC
  5
7624
  8
0
 10
2333.6091236344382196
 20
150.1218290155422039
 30
0.0
 40
0.0459188499574619
 50
327.2542406859371908
 51
28.1982292821522904
  0
ARC
  5
7625
  8
0
 10
2333.4773912615319205
 20
149.9655015998584986
 30
0.0
 40
0.2476818649768945
 50
45.9526427328908582
 51
79.6782141050760089
  0
ARC
  5
7626
  8
0
 10
2333.2040507993269784
 20
148.8659915987080922
 30
0.0
 40
1.380249155877969
 50
76.6917576146364723
 51
86.7359179757142869
  0
ARC
  5
7627
  8
0
 10
2333.0608199087077992
 20
146.4246356204072015
 30
0.0
 40
3.8258019258969771
 50
86.6761303230818214
 51
89.4714672617550946
  0
ARC
  5
7628
  8
0
 10
2333.261487189970012
 20
150.6310905427108935
 30
0.0
 40
0.6410078369433787
 50
278.9515690483996195
 51
296.5152375530120139
  0
ARC
  5
7629
  8
0
 10
2333.511284689769127
 20
150.1320300311292044
 30
0.0
 40
0.0829252887959679
 50
296.0148324302243168
 51
334.0676784436716957
  0
ARC
  5
762A
  8
0
 10
2333.5486466605989335
 20
150.1092146219131962
 30
0.0
 40
0.0395692018608033
 50
340.1307445797589253
 51
46.7095493308820409
  0
ARC
  5
762B
  8
0
 10
2333.4437669200551682
 20
149.9996674680031106
 30
0.0
 40
0.19122680524949
 50
46.3426759475958292
 51
71.2387666515939628
  0
ARC
  5
762C
  8
0
 10
2333.2708842226838897
 20
149.553019025392814
 30
0.0
 40
0.6700467895272905
 50
69.5245820022958725
 51
79.507685379561039
  0
ARC
  5
762D
  8
0
 10
2333.1332156508178741
 20
148.8609011585525082
 30
0.0
 40
1.375693573232768
 50
79.1191220067510983
 51
86.2296756323727465
  0
ARC
  5
762E
  8
0
 10
2333.0785668787930263
 20
147.8810367874064013
 30
0.0
 40
2.357051530848044
 50
86.4703896525890485
 51
89.5735283364459747
  0
ARC
  5
762F
  8
0
 10
2333.3873898822380397
 20
150.3293858131760032
 30
0.0
 40
0.268538109867515
 50
274.201024203388215
 51
314.5504012412864085
  0
ARC
  5
7630
  8
0
 10
2332.1807836800157929
 20
141.8736051028793952
 30
0.0
 40
0.0197120130507189
 50
90.156377867635257
 51
179.9675283206765926
  0
ARC
  5
7631
  8
0
 10
2332.1807567095302147
 20
139.5507816287201877
 30
0.0
 40
0.0196850394000006
 50
180.0000000000032117
 51
270.000000000104194
  0
LINE
  5
7632
  8
0
 10
2332.1610716701297861
 20
139.5507816287201877
 30
0.0
 11
2332.1610716701297861
 21
141.8736162744201863
 31
0.0
  0
ARC
  5
7633
  8
0
 10
2334.0114384004450585
 20
141.8736051028793952
 30
0.0
 40
0.0197120130507189
 50
0.0324716793234111
 51
89.8436221323647857
  0
ARC
  5
7634
  8
0
 10
2334.011465370930182
 20
139.5507816287201877
 30
0.0
 40
0.0196850394000006
 50
269.999999999895806
 51
359.9999999999968168
  0
LINE
  5
7635
  8
0
 10
2334.0311504103301559
 20
139.5507816287201877
 30
0.0
 11
2334.0311504103301559
 21
141.8736162744201863
 31
0.0
  0
LINE
  5
7636
  8
0
 10
2332.1807567095302147
 20
139.5310965893202138
 30
0.0
 11
2334.011465370930182
 21
139.5310965893202138
 31
0.0
  0
ENDSEC
  0
EOF
