  0
SECTION
  2
HEADER
  9
$ACADVER
  1
AC1009
  9
$INSBASE
 10
4374.9507012731346549
 20
223.5846997682253061
 30
0.0
  9
$EXTMIN
 10
4364.9370899928489962
 20
223.5801477660210139
 30
-0.0000000349181948
  9
$EXTMAX
 10
4382.6595266099611763
 20
230.5996837757199955
 30
0.0000000814935746
  9
$LIMMIN
 10
0.0
 20
0.0
  9
$LIMMAX
 10
11.6929133858000007
 20
8.2677165353999982
  9
$ORTHOMODE
 70
     0
  9
$REGENMODE
 70
     1
  9
$FILLMODE
 70
     1
  9
$QTEXTMODE
 70
     0
  9
$MIRRTEXT
 70
     0
  9
$DRAGMODE
 70
     2
  9
$LTSCALE
 40
0.6431102362
  9
$OSMODE
 70
     7
  9
$ATTMODE
 70
     1
  9
$TEXTSIZE
 40
0.2
  9
$TRACEWID
 40
0.05
  9
$TEXTSTYLE
  7
STANDARD
  9
$CLAYER
  8
0
  9
$CELTYPE
  6
BYLAYER
  9
$CECOLOR
 62
   256
  9
$DIMSCALE
 40
1.0
  9
$DIMASZ
 40
0.1875
  9
$DIMEXO
 40
0.0625
  9
$DIMDLI
 40
0.4443307087
  9
$DIMRND
 40
0.0
  9
$DIMDLE
 40
0.0
  9
$DIMEXE
 40
0.125
  9
$DIMTP
 40
0.01
  9
$DIMTM
 40
0.01
  9
$DIMTXT
 40
2.0
  9
$DIMCEN
 40
0.1052362205
  9
$DIMTSZ
 40
0.0
  9
$DIMTOL
 70
     1
  9
$DIMLIM
 70
     0
  9
$DIMTIH
 70
     1
  9
$DIMTOH
 70
     1
  9
$DIMSE1
 70
     0
  9
$DIMSE2
 70
     0
  9
$DIMTAD
 70
     0
  9
$DIMZIN
 70
     0
  9
$DIMBLK
  1

  9
$DIMASO
 70
     1
  9
$DIMSHO
 70
     1
  9
$DIMPOST
  1
\X
  9
$DIMAPOST
  1

  9
$DIMALT
 70
     1
  9
$DIMALTD
 70
     2
  9
$DIMALTF
 40
25.3999999999999986
  9
$DIMLFAC
 40
1.0
  9
$DIMTOFL
 70
     0
  9
$DIMTVP
 40
0.0
  9
$DIMTIX
 70
     0
  9
$DIMSOXD
 70
     0
  9
$DIMSAH
 70
     0
  9
$DIMBLK1
  1

  9
$DIMBLK2
  1

  9
$DIMSTYLE
  2
STANDARD
  9
$DIMCLRD
 70
     0
  9
$DIMCLRE
 70
     0
  9
$DIMCLRT
 70
     0
  9
$DIMTFAC
 40
1.0
  9
$DIMGAP
 40
0.09
  9
$LUNITS
 70
     2
  9
$LUPREC
 70
     4
  9
$SKETCHINC
 40
0.1
  9
$FILLETRAD
 40
0.0
  9
$AUNITS
 70
     0
  9
$AUPREC
 70
     0
  9
$MENU
  1
.
  9
$ELEVATION
 40
0.0
  9
$PELEVATION
 40
0.0
  9
$THICKNESS
 40
0.0
  9
$LIMCHECK
 70
     0
  9
$BLIPMODE
 70
     0
  9
$CHAMFERA
 40
0.0
  9
$CHAMFERB
 40
0.0
  9
$SKPOLY
 70
     0
  9
$TDCREATE
 40
2458060.468368056230247
  9
$TDUPDATE
 40
2459393.5287152780219913
  9
$TDINDWG
 40
0.7275417824
  9
$TDUSRTIMER
 40
0.7275417824
  9
$USRTIMER
 70
     1
  9
$ANGBASE
 50
0.0
  9
$ANGDIR
 70
     0
  9
$PDMODE
 70
     0
  9
$PDSIZE
 40
0.3125
  9
$PLINEWID
 40
0.0
  9
$COORDS
 70
     1
  9
$SPLFRAME
 70
     0
  9
$SPLINETYPE
 70
     6
  9
$SPLINESEGS
 70
     8
  9
$ATTDIA
 70
     1
  9
$ATTREQ
 70
     1
  9
$HANDLING
 70
     1
  9
$HANDSEED
  5
13DF9
  9
$SURFTAB1
 70
     6
  9
$SURFTAB2
 70
     6
  9
$SURFTYPE
 70
     6
  9
$SURFU
 70
     6
  9
$SURFV
 70
     6
  9
$UCSNAME
  2

  9
$UCSORG
 10
0.0
 20
0.0
 30
0.0
  9
$UCSXDIR
 10
1.0
 20
0.0
 30
0.0
  9
$UCSYDIR
 10
0.0
 20
1.0
 30
0.0
  9
$PUCSNAME
  2

  9
$PUCSORG
 10
0.0
 20
0.0
 30
0.0
  9
$PUCSXDIR
 10
1.0
 20
0.0
 30
0.0
  9
$PUCSYDIR
 10
0.0
 20
1.0
 30
0.0
  9
$USERI1
 70
     0
  9
$USERI2
 70
     0
  9
$USERI3
 70
     0
  9
$USERI4
 70
     0
  9
$USERI5
 70
     0
  9
$USERR1
 40
0.0
  9
$USERR2
 40
0.0
  9
$USERR3
 40
0.0
  9
$USERR4
 40
0.0
  9
$USERR5
 40
0.0
  9
$WORLDVIEW
 70
     1
  9
$SHADEDGE
 70
     3
  9
$SHADEDIF
 70
    70
  9
$TILEMODE
 70
     1
  9
$MAXACTVP
 70
    64
  9
$PLIMCHECK
 70
     0
  9
$PEXTMIN
 10
1.0000000000000000E+20
 20
1.0000000000000000E+20
 30
1.0000000000000000E+20
  9
$PEXTMAX
 10
-1.0000000000000000E+20
 20
-1.0000000000000000E+20
 30
-1.0000000000000000E+20
  9
$PLIMMIN
 10
0.0
 20
0.0
  9
$PLIMMAX
 10
12.0
 20
9.0
  9
$UNITMODE
 70
     0
  9
$VISRETAIN
 70
     1
  9
$PLINEGEN
 70
     0
  9
$PSLTSCALE
 70
     1
  0
ENDSEC
  0
SECTION
  2
TABLES
  0
TABLE
  2
VPORT
 70
     1
  0
VPORT
  2
*ACTIVE
 70
     0
 10
0.0
 20
0.0
 11
1.0
 21
1.0
 12
212.2419118170300862
 22
0.9790835565150359
 13
0.0
 23
0.0
 14
1.0
 24
1.0
 15
0.0
 25
0.0
 16
0.0
 26
0.0
 36
202.37134017897489
 17
4161.556396484375
 27
226.1108322143554972
 37
0.0
 40
7.5785603727092932
 41
2.3461538461538458
 42
50.0
 43
0.0
 44
0.0
 50
0.0
 51
0.0
 71
     0
 72
   100
 73
     1
 74
     1
 75
     0
 76
     0
 77
     0
 78
     0
  0
ENDTAB
  0
TABLE
  2
LTYPE
 70
     2
  0
LTYPE
  2
CONTINUOUS
 70
     0
  3
Solid line
 72
    65
 73
     0
 40
0.0
  0
LTYPE
  2
PHANTOM2
 70
     0
  3
___ _ _ ___ _ _ ___ _ _ ___ _ _
 72
    65
 73
     6
 40
1.25
 49
0.625
 49
-0.125
 49
0.125
 49
-0.125
 49
0.125
 49
-0.125
  0
ENDTAB
  0
TABLE
  2
LAYER
 70
     2
  0
LAYER
  2
0
 70
     0
 62
   255
  6
CONTINUOUS
  0
LAYER
  2
DEFPOINTS
 70
     0
 62
     7
  6
CONTINUOUS
  0
ENDTAB
  0
TABLE
  2
STYLE
 70
     1
  0
STYLE
  2
STANDARD
 70
     0
 40
0.0
 41
0.8
 50
0.0
 71
     0
 42
0.2
  3
txt
  4

  0
ENDTAB
  0
TABLE
  2
VIEW
 70
     0
  0
ENDTAB
  0
TABLE
  2
UCS
 70
     0
  0
ENDTAB
  0
TABLE
  2
APPID
 70
    10
  0
APPID
  2
ACAD
 70
     0
  0
APPID
  2
ACAD_MLEADERVER
 70
     0
  0
APPID
  2
ACAD_EXEMPT_FROM_CAD_STANDARDS
 70
     0
  0
APPID
  2
ACAD_NAV_VCDISPLAY
 70
     0
  0
APPID
  2
ACAECLAYERSTANDARD
 70
     0
  0
APPID
  2
ACCMTRANSPARENCY
 70
     0
  0
APPID
  2
ACAD_DSTYLE_DIMJAG
 70
     0
  0
APPID
  2
ACAD_DSTYLE_DIMTALN
 70
     0
  0
APPID
  2
ACDBATTR
 70
     0
  0
APPID
  2
DCO15
 70
     0
  0
ENDTAB
  0
TABLE
  2
DIMSTYLE
 70
     1
  0
DIMSTYLE
  2
STANDARD
 70
     0
  3

  4

  5

  6

  7

 40
1.0
 41
0.1875
 42
0.0625
 43
0.38
 44
0.125
 45
0.0
 46
0.0
 47
0.01
 48
0.01
140
0.15625
141
0.09
142
0.0
143
25.3999999999999986
144
1.0
145
0.0
146
1.0
147
0.09
 71
     1
 72
     0
 73
     1
 74
     1
 75
     0
 76
     0
 77
     0
 78
     4
170
     0
171
     2
172
     0
173
     0
174
     0
175
     0
176
     0
177
     0
178
     0
  0
ENDTAB
  0
ENDSEC
  0
SECTION
  2
BLOCKS
  0
BLOCK
  8
0
  2
$MODEL_SPACE
 70
     0
 10
0.0
 20
0.0
 30
0.0
  3
$MODEL_SPACE
  1

  0
ENDBLK
  5
21
  8
0
  0
BLOCK
 67
     1
  8
0
  2
$PAPER_SPACE
 70
     0
 10
0.0
 20
0.0
 30
0.0
  3
$PAPER_SPACE
  1

  0
ENDBLK
  5
1D
 67
     1
  8
0
  0
ENDSEC
  0
SECTION
  2
ENTITIES
  0
ATTDEF
  5
12CA7
  8
DEFPOINTS
 10
4374.9507066144706187
 20
223.5880402279697137
 30
0.0
 40
0.001
  1
K-23357T-HC
  3

  2
MODELNUMBER
 70
     0
1001
ACDBATTR
1070
     0
1070
     1
  0
ATTDEF
  5
12CA8
  8
DEFPOINTS
 10
4374.9507066144706187
 20
223.5863735613031054
 30
0.0
 40
0.001
  1
C3
  3

  2
TRADENAME
 70
     0
1001
ACDBATTR
1070
     0
1070
     1
  0
ATTDEF
  5
12CA9
  8
DEFPOINTS
 10
4374.9507066144706187
 20
223.5847068946364118
 30
0.0
 40
0.001
  1
TOILET SEAT
  3

  2
PRODUCT
 70
     0
1001
ACDBATTR
1070
     0
1070
     1
  0
ARC
  5
13BFE
  8
0
 10
4368.2153764768099791
 20
230.4974293129378964
 30
0.0
 40
2.0003410447284908
 50
358.8917955969370723
 51
0.2389475283745858
  0
LINE
  5
13BFF
  8
0
 10
4370.2157001261857658
 20
230.5057715532753093
 30
0.0
 11
4370.2157099540863783
 21
230.5828209347752988
 31
0.0
  0
LINE
  5
13C00
  8
0
 10
4370.2157099540863783
 20
230.5828209347752988
 30
0.0
 11
4369.5961093944852109
 21
230.5828212583753043
 31
0.0
  0
ARC
  5
13C01
  8
0
 10
4369.5722952476917271
 20
201.2141934877622873
 30
0.0
 40
29.3686374257031204
 50
89.9535405666238859
 51
90.9997946083112055
  0
ARC
  5
13C02
  8
0
 10
4369.3023368482517981
 20
216.4055780158820994
 30
0.0
 40
14.1748560407906901
 50
90.9802086201432445
 51
93.3710374048388729
  0
ARC
  5
13C03
  8
0
 10
4368.5143456224186593
 20
229.788787063441788
 30
0.0
 40
0.7684690334093975
 50
93.3955328047338753
 51
111.1290700836618015
  0
ARC
  5
13C04
  8
0
 10
4368.3947050281449265
 20
230.1212460418566081
 30
0.0
 40
0.4153159947139886
 50
112.2665011380131972
 51
151.7943309123876077
  0
ARC
  5
13C05
  8
0
 10
4316.3214951085419671
 20
258.7459835955518201
 30
0.0
 40
59.0068805700835526
 50
330.8366117939950186
 51
331.198158456207409
  0
ARC
  5
13C06
  8
0
 10
4361.5959368545800316
 20
233.616484550840795
 30
0.0
 40
7.2270355673178219
 50
327.3257110673267789
 51
329.8979647043843215
  0
ARC
  5
13C07
  8
0
 10
4369.3057340597488292
 20
228.6854850352524124
 30
0.0
 40
1.924807406481668
 50
147.6694402908213135
 51
167.311266032651389
  0
ARC
  5
13C08
  8
0
 10
4370.8978039403737057
 20
228.389229540053492
 30
0.0
 40
3.5435888410893202
 50
168.2925187012220078
 51
179.8431637420947879
  0
ARC
  5
13C09
  8
0
 10
4369.0919943182607312
 20
227.6489802000461111
 30
0.0
 40
1.7415437939416309
 50
208.0293550144423875
 51
248.9902630387637998
  0
ARC
  5
13C0A
  8
0
 10
4370.1010163803694013
 20
231.6631706949048919
 30
0.0
 40
5.8717232107619601
 50
253.8482273414626889
 51
267.0137027467654889
  0
ARC
  5
13C0B
  8
0
 10
4371.7385211900837021
 20
252.3239001957608139
 30
0.0
 40
26.5955787765942198
 50
265.8095208196065187
 51
269.2243891003188878
  0
ARC
  5
13C0C
  8
0
 10
4305.4063725267396876
 20
230.1487843119973036
 30
0.0
 40
61.9725651908155086
 50
356.9737050655758139
 51
358.3819836005210959
  0
ARC
  5
13C0D
  8
0
 10
4368.5751055174532667
 20
226.8020955650117116
 30
0.0
 40
1.284778793298073
 50
176.658174705011902
 51
194.8259065682941014
  0
ARC
  5
13C0E
  8
0
 10
4369.4034278826484297
 20
227.0439345790684058
 30
0.0
 40
2.1475179384970309
 50
195.4084515058318914
 51
205.7123699215082127
  0
ARC
  5
13C0F
  8
0
 10
4368.2638670074338734
 20
226.5390479343041932
 30
0.0
 40
0.902610708638093
 50
208.2210622376177866
 51
237.044725495572095
  0
ARC
  5
13C10
  8
0
 10
4369.0047542540878567
 20
227.9735509546981973
 30
0.0
 40
2.514338267509189
 50
240.6628831601628917
 51
263.0471686956087183
  0
ARC
  5
13C11
  8
0
 10
4370.4987848540204141
 20
239.1515134817649084
 30
0.0
 40
13.7915673620527794
 50
262.5073916309934248
 51
269.7418678531670935
  0
LINE
  5
13C12
  8
0
 10
4370.7420435764706781
 20
225.3560788796752945
 30
0.0
 11
4379.1593589698004507
 21
225.3560788796752945
 31
0.0
  0
ARC
  5
13C13
  8
0
 10
4370.8365448969479985
 20
244.1972708261432103
 30
0.0
 40
18.8414289389955307
 50
268.7838512449790755
 51
269.7126253246710235
  0
LINE
  5
13C14
  8
0
 10
4367.868760249684783
 20
224.2736353769753066
 30
0.0
 11
4374.2026672439860704
 21
224.2736353769753066
 31
0.0
  0
LINE
  5
13C15
  8
0
 10
4375.8045665665013075
 20
224.2736353769753066
 30
0.0
 11
4375.8176867673973902
 21
224.2736353769753066
 31
0.0
  0
ARC
  5
13C16
  8
0
 10
4374.1639066828593059
 20
176.467087474641886
 30
0.0
 40
51.4293090225557776
 50
97.6476447391218016
 51
99.420596929278787
  0
ARC
  5
13C17
  8
0
 10
4366.4395955820382369
 20
223.0219991656348952
 30
0.0
 40
4.2379455697117283
 50
99.420596929278787
 51
105.0415699134059935
  0
ARC
  5
13C18
  8
0
 10
4365.5189053490694278
 20
226.4481169276515118
 30
0.0
 40
0.6902768387999901
 50
105.0415699134059935
 51
120.7944333382013014
  0
ARC
  5
13C19
  8
0
 10
4365.2590232509801353
 20
226.868897782210496
 30
0.0
 40
0.1959290028377327
 50
118.507448715602294
 51
182.1205116885529947
  0
ARC
  5
13C1A
  8
0
 10
4365.435662108521683
 20
226.8677556493217935
 30
0.0
 40
0.3724837656252192
 50
180.9395072222515921
 51
195.6550218559254972
  0
ARC
  5
13C1B
  8
0
 10
4368.1847355785575928
 20
227.8363735760364079
 30
0.0
 40
3.2886030645082478
 50
199.6577437040716916
 51
205.9282944846700047
  0
ARC
  5
13C1C
  8
0
 10
4365.7198400271327046
 20
226.9339347014845885
 30
0.0
 40
0.6641043126915683
 50
194.5368388510036084
 51
197.8757982294430917
  0
ARC
  5
13C1D
  8
0
 10
4366.6428768128516822
 20
227.0288883579108017
 30
0.0
 40
1.5497489030701981
 50
204.0041902023475018
 51
211.399628923586107
  0
ARC
  5
13C1E
  8
0
 10
4365.8667416424659677
 20
226.5844920575412971
 30
0.0
 40
0.6562216123978069
 50
213.5876045342841962
 51
246.7150696992598
  0
ARC
  5
13C1F
  8
0
 10
4366.5101980912986619
 20
227.9803179622925882
 30
0.0
 40
2.1930705431320701
 50
245.6890089271838065
 51
256.4281191189431865
  0
ARC
  5
13C20
  8
0
 10
4368.2267919879777764
 20
235.2838698970678024
 30
0.0
 40
9.6956102976650982
 50
256.6953949631003979
 51
261.9798982619824983
  0
ARC
  5
13C21
  8
0
 10
4372.7377046903757218
 20
265.6974273116891254
 30
0.0
 40
40.4416805294405179
 50
261.6632855288873998
 51
262.9509953819135717
  0
ARC
  5
13C22
  8
0
 10
4367.8103997858834191
 20
226.3867666960506995
 30
0.0
 40
0.8261122252152603
 50
267.5283620195340859
 51
276.3365817888869742
  0
ARC
  5
13C23
  8
0
 10
4367.8828620997219332
 20
225.797857489269802
 30
0.0
 40
0.2329091489963224
 50
274.6088168560344798
 51
287.5831102879374725
  0
ARC
  5
13C24
  8
0
 10
4367.9447783521436577
 20
225.6039677972451898
 30
0.0
 40
0.0293772888762729
 50
286.7023254635025182
 51
312.9784849188733915
  0
ARC
  5
13C25
  8
0
 10
4367.9611003684130992
 20
225.5870755789482018
 30
0.0
 40
0.0059070187520904
 50
308.8475197081116903
 51
36.278432225320131
  0
ARC
  5
13C26
  8
0
 10
4368.7690688690836396
 20
226.327551997627495
 30
0.0
 40
1.090116011641405
 50
212.6485361826127019
 51
222.4575360886427973
  0
ARC
  5
13C27
  8
0
 10
4369.2945480705484442
 20
226.8620649778264067
 30
0.0
 40
1.8390495435348759
 50
223.6923227331737962
 51
226.4313242951550933
  0
ARC
  5
13C28
  8
0
 10
4368.0063796937238294
 20
225.5121348688142007
 30
0.0
 40
0.0270366398966257
 50
7.95987149731077
 51
40.1944655252096297
  0
ARC
  5
13C29
  8
0
 10
4367.8814670517540435
 20
225.4993469854275929
 30
0.0
 40
0.1525870028761408
 50
356.6765899323900157
 51
6.2198699202192058
  0
LINE
  5
13C2A
  8
0
 10
4368.0337974358862994
 20
225.4905012227752934
 30
0.0
 11
4368.0288004117846867
 21
225.3755182673752984
 31
0.0
  0
LINE
  5
13C2B
  8
0
 10
4368.0288004117846867
 20
225.3755182673752984
 30
0.0
 11
4368.024827501362779
 21
225.3655998021839082
 31
0.0
  0
LINE
  5
13C2C
  8
0
 10
4368.024827501362779
 20
225.3655998021839082
 30
0.0
 11
4367.4394754582863243
 21
225.4300296545752929
 31
0.0
  0
ARC
  5
13C2D
  8
0
 10
4369.6892916898013937
 20
245.8698487568360918
 30
0.0
 40
20.5632652564890712
 50
260.6013784301305805
 51
263.7187239876146236
  0
ARC
  5
13C2E
  8
0
 10
4367.0902598593647781
 20
230.1680257733301005
 30
0.0
 40
4.6477944352732274
 50
254.3380182729399053
 51
260.6013784301305805
  0
ARC
  5
13C2F
  8
0
 10
4366.3185368801168806
 20
227.3859080864181976
 30
0.0
 40
1.760656330675443
 50
246.0085453855988931
 51
254.0778356050286959
  0
ARC
  5
13C30
  8
0
 10
4365.7602527732424278
 20
226.3176348181048922
 30
0.0
 40
0.5452445424170737
 50
204.0954432907205103
 51
227.5388604154557015
  0
ARC
  5
13C31
  8
0
 10
4365.9071163495609653
 20
226.4711756244055891
 30
0.0
 40
0.757677691008417
 50
227.1840030298544946
 51
246.3069243610833041
  0
ARC
  5
13C32
  8
0
 10
4367.6164587698558535
 20
227.1845974315436933
 30
0.0
 40
2.5938751589849991
 50
198.9966508118752984
 51
204.837883560958403
  0
ARC
  5
13C33
  8
0
 10
4366.6335181511949486
 20
226.8615398758996093
 30
0.0
 40
1.5593758301921259
 50
183.4668465512104092
 51
199.5293098376193939
  0
LINE
  5
13C34
  8
0
 10
4365.1943243344858274
 20
226.2564524442753111
 30
0.0
 11
4365.2047171729846013
 21
226.1465388729752988
 31
0.0
  0
ARC
  5
13C35
  8
0
 10
4366.4226386861100764
 20
226.2415469961053986
 30
0.0
 40
1.2216216090061049
 50
184.4605195228066066
 51
190.8087158431893897
  0
ARC
  5
13C36
  8
0
 10
4366.7593901380732859
 20
226.3580813984484053
 30
0.0
 40
1.5750885897333731
 50
192.6757172574164088
 51
206.8873476076441875
  0
ARC
  5
13C37
  8
0
 10
4366.0116713724255533
 20
225.9561801470584044
 30
0.0
 40
0.7267290331102534
 50
205.2860416413184055
 51
245.919640541134612
  0
ARC
  5
13C38
  8
0
 10
4366.7246263252091012
 20
227.5636388405648063
 30
0.0
 40
2.4852002487982312
 50
246.0340364889632099
 51
256.6574055976379896
  0
ARC
  5
13C39
  8
0
 10
4367.6766583247817834
 20
230.5720597401657983
 30
0.0
 40
5.6368992436847281
 50
254.2978668632418078
 51
256.568119964346181
  0
ARC
  5
13C3A
  8
0
 10
4365.8642463829883127
 20
222.5615115487883884
 30
0.0
 40
2.5773992616474382
 50
72.653574645935322
 51
78.7455606614894066
  0
ARC
  5
13C3B
  8
0
 10
4377.5391844573841809
 20
259.9387256493113227
 30
0.0
 40
36.5807456504562367
 50
252.6535746459352936
 51
253.2704425737387055
  0
ARC
  5
13C3C
  8
0
 10
4368.6586437213736644
 20
231.6976712085156862
 30
0.0
 40
6.988800686173585
 50
256.349101684376194
 51
261.3744043256240275
  0
ARC
  5
13C3D
  8
0
 10
4367.4864172947745828
 20
223.6443767256328954
 30
0.0
 40
1.150251299422941
 50
75.5184050547543393
 51
83.8079953264907118
  0
ARC
  5
13C3E
  8
0
 10
4367.5565139959735461
 20
223.3328924280565957
 30
0.0
 40
1.441697646736251
 50
71.1973061166769554
 51
81.3211825080922637
  0
LINE
  5
13C3F
  8
0
 10
4368.024827501362779
 20
225.3655998021839082
 30
0.0
 11
4368.0310071617859649
 21
225.3598482890753019
 31
0.0
  0
LINE
  5
13C40
  8
0
 10
4368.0310071617859649
 20
225.3598482890753019
 30
0.0
 11
4368.0155710256858583
 21
224.7625173154752929
 31
0.0
  0
LINE
  5
13C41
  8
0
 10
4368.0185987371860392
 20
225.3662747826753048
 30
0.0
 11
4367.9927648983848485
 21
224.7703305015753017
 31
0.0
  0
ARC
  5
13C42
  8
0
 10
4368.4353736268467401
 20
224.7511436700121124
 30
0.0
 40
0.4430244022799569
 50
177.5178152420808999
 51
180.5673518665591075
  0
ARC
  5
13C43
  8
0
 10
4368.0617872741922838
 20
224.7469611958325117
 30
0.0
 40
0.069416630716436
 50
180.1686701350321016
 51
208.6981866944209116
  0
ARC
  5
13C44
  8
0
 10
4368.0354412915503417
 20
224.7366290960364097
 30
0.0
 40
0.0415009420724411
 50
213.658364284555006
 51
249.9128889199450896
  0
ARC
  5
13C45
  8
0
 10
4368.2493062950197782
 20
225.1594238586741881
 30
0.0
 40
0.5150443898665026
 50
243.7102858202052005
 51
246.2279064399427
  0
ARC
  5
13C46
  8
0
 10
4368.0703121228089003
 20
224.7661051587124064
 30
0.0
 40
0.083110578411075
 50
249.8572224118109943
 51
273.2780659495081181
  0
LINE
  5
13C47
  8
0
 10
4368.0750645382850053
 20
224.6831305674753025
 30
0.0
 11
4368.0949432312527279
 21
224.6831306364805982
 31
0.0
  0
ARC
  5
13C48
  8
0
 10
4368.2283137665663162
 20
224.7527648960843862
 30
0.0
 40
0.2129661557183037
 50
177.3753202847667865
 51
185.2854927892412036
  0
ARC
  5
13C49
  8
0
 10
4368.1038477027359477
 20
224.741250313538103
 30
0.0
 40
0.0879686091154087
 50
185.285492789239612
 51
204.4545607591309135
  0
ARC
  5
13C4A
  8
0
 10
4368.0532115747118951
 20
224.7183603282782087
 30
0.0
 40
0.0323994972155449
 50
204.6763029883423997
 51
242.8874346983108978
  0
LINE
  5
13C4B
  8
0
 10
4368.0766197425846258
 20
224.7458158791752965
 30
0.0
 11
4368.0781742697863592
 21
224.7028397227753089
 31
0.0
  0
ARC
  5
13C4C
  8
0
 10
4368.0366506617456253
 20
224.7831199522885015
 30
0.0
 40
0.0205425555004138
 50
179.3557515571914962
 51
248.2465426121455039
  0
ARC
  5
13C4D
  8
0
 10
4368.5960023345223817
 20
226.1849002206188004
 30
0.0
 40
1.5298013850317791
 50
248.2465426121455039
 51
257.4363699605253828
  0
ARC
  5
13C4E
  8
0
 10
4368.9121481228157791
 20
227.7226062747083972
 30
0.0
 40
3.0995646407737132
 50
257.9153585562139028
 51
266.4592779007945182
  0
ARC
  5
13C4F
  8
0
 10
4369.3580326079172664
 20
234.7843161853170955
 30
0.0
 40
10.1753356670381105
 50
266.4090690017434895
 51
269.7855703259508005
  0
LINE
  5
13C50
  8
0
 10
4369.3199514641491987
 20
224.6090517777753064
 30
0.0
 11
4380.5814510821228396
 21
224.6090517777753064
 31
0.0
  0
LINE
  5
13C51
  8
0
 10
4368.2034499800111007
 20
224.3334593923752891
 30
0.0
 11
4370.219592135485982
 21
224.3334593923752891
 31
0.0
  0
LINE
  5
13C52
  8
0
 10
4369.3890854778019275
 20
224.5303172766253113
 30
0.0
 11
4380.5123170684692013
 21
224.5303172766253113
 31
0.0
  0
LINE
  5
13C53
  8
0
 10
4370.4341644327960239
 20
224.5303172766253113
 30
0.0
 11
4370.2739098969859697
 21
224.369169253075313
 31
0.0
  0
ARC
  5
13C54
  8
0
 10
4370.1615617891948204
 20
224.4808944450246031
 30
0.0
 40
0.1584443619709636
 50
291.4845684650799171
 51
315.1592798286960146
  0
LINE
  5
13C55
  8
0
 10
4368.145465702185902
 20
224.664227571075287
 30
0.0
 11
4368.164247079685083
 21
224.3702598634752974
 31
0.0
  0
ARC
  5
13C56
  8
0
 10
4368.2035354017416466
 20
224.372831709355097
 30
0.0
 40
0.0393724096446486
 50
183.7452852921400108
 51
269.8756919245062136
  0
LINE
  5
13C57
  8
0
 10
4367.5600379507868638
 20
224.7633476340421055
 30
0.0
 11
4367.5566748036862919
 21
224.6870137709753124
 31
0.0
  0
LINE
  5
13C58
  8
0
 10
4367.5566748036862919
 20
224.6870137709753124
 30
0.0
 11
4367.5586970080848914
 21
224.5837431819753078
 31
0.0
  0
LINE
  5
13C59
  8
0
 10
4367.5586970080848914
 20
224.5837431819753078
 30
0.0
 11
4367.8687602490863355
 21
224.2736353775752889
 31
0.0
  0
ARC
  5
13C5A
  8
0
 10
4366.265283275271031
 20
225.998508472216713
 30
0.0
 40
0.8962712398949463
 50
231.7046686813592942
 51
245.3445310896748879
  0
ARC
  5
13C5B
  8
0
 10
4366.6522194661129106
 20
226.826962218971687
 30
0.0
 40
1.8106218493693591
 50
245.1527098801325053
 51
253.4843961101063883
  0
ARC
  5
13C5C
  8
0
 10
4394.0997671925842951
 20
319.3957474669044245
 30
0.0
 40
98.3629282872523447
 50
253.4843961101063883
 51
253.79024597809439
  0
ARC
  5
13C5D
  8
0
 10
4369.1565364231209969
 20
233.595106889329486
 30
0.0
 40
9.0101740782131827
 50
253.79024597809439
 51
255.6997392265789983
  0
ARC
  5
13C5E
  8
0
 10
4367.6569494487303018
 20
227.3818503737903995
 30
0.0
 40
2.6203047067500971
 50
253.9157489820252067
 51
266.8132154417664879
  0
ARC
  5
13C5F
  8
0
 10
4367.6379343303678979
 20
226.9805633645430873
 30
0.0
 40
2.218583656645142
 50
266.7274152944573871
 51
270.5466667543930726
  0
ARC
  5
13C60
  8
0
 10
4367.6516376729450712
 20
225.321870540400198
 30
0.0
 40
0.5598396114080162
 50
270.763926834393601
 51
278.331642573336012
  0
LINE
  5
13C61
  8
0
 10
4368.0208189257846243
 20
224.2736353775752889
 30
0.0
 11
4367.7055780632863389
 21
224.5885965807752882
 31
0.0
  0
LINE
  5
13C62
  8
0
 10
4367.7055780632863389
 20
224.5885965807752882
 30
0.0
 11
4367.7094716135861745
 21
224.6870137709753124
 31
0.0
  0
LINE
  5
13C63
  8
0
 10
4367.7094716135861745
 20
224.6870137709753124
 30
0.0
 11
4367.5566748036862919
 21
224.6870137709753124
 31
0.0
  0
LINE
  5
13C64
  8
0
 10
4369.3409394981863443
 20
223.9167186440753028
 30
0.0
 11
4369.0847119496847881
 21
223.9167186440753028
 31
0.0
  0
LINE
  5
13C65
  8
0
 10
4375.8045665673380427
 20
223.9167186440753028
 30
0.0
 11
4375.817630349859428
 21
223.9167186440753028
 31
0.0
  0
LINE
  5
13C66
  8
0
 10
4375.9348314380858938
 20
223.5846997682253061
 30
0.0
 11
4376.1336457250617968
 21
223.5846997682253061
 31
0.0
  0
LINE
  5
13C67
  8
0
 10
4376.1926994739142174
 20
223.5846997682253061
 30
0.0
 11
4376.4092298863233736
 21
223.5846997682253061
 31
0.0
  0
LINE
  5
13C68
  8
0
 10
4376.4682836351757942
 20
223.5846997682253061
 30
0.0
 11
4376.6848140475676701
 21
223.5846997682253061
 31
0.0
  0
LINE
  5
13C69
  8
0
 10
4376.7438677964219096
 20
223.5846997682253061
 30
0.0
 11
4376.9704135259180475
 21
223.5846997682253061
 31
0.0
  0
LINE
  5
13C6A
  8
0
 10
4374.2532065508030428
 20
223.6431818876253033
 30
0.0
 11
4375.7661399524249646
 21
223.6431818876253033
 31
0.0
  0
ARC
  5
13C6B
  8
0
 10
4374.2534751060757117
 20
223.682380695350389
 30
0.0
 40
0.0391997276649164
 50
179.0885525416593111
 51
269.6074665577311862
  0
LINE
  5
13C6C
  8
0
 10
4374.2142803381848353
 20
223.6830042488753065
 30
0.0
 11
4374.214280314887219
 21
224.4508751588753057
 31
0.0
  0
ARC
  5
13C6D
  8
0
 10
4374.25347476157458
 20
224.4509352550483925
 30
0.0
 40
0.0391944927603971
 50
89.9179046164108655
 51
180.0878505674353107
  0
LINE
  5
13C6E
  8
0
 10
4374.2535309207851242
 20
224.4901297075753064
 30
0.0
 11
4375.7653186098859805
 21
224.4899835527752998
 31
0.0
  0
ARC
  5
13C6F
  8
0
 10
4375.7653148151521236
 20
224.4507318014991881
 30
0.0
 40
0.0392517514595111
 50
359.9906227066164774
 51
89.9944608272565745
  0
LINE
  5
13C70
  8
0
 10
4375.8045665660856685
 20
224.4507253773753064
 30
0.0
 11
4375.804566567884649
 21
223.6828544698753092
 31
0.0
  0
ARC
  5
13C71
  8
0
 10
4375.7648737857571177
 20
223.6828544697821997
 30
0.0
 40
0.0396927821275881
 50
271.8279977163650756
 51
0.0000001343091755
  0
LINE
  5
13C72
  8
0
 10
4374.2026672439860704
 20
224.0767849838753136
 30
0.0
 11
4374.2026672439860704
 21
224.5303172766253113
 31
0.0
  0
ARC
  5
13C73
  8
0
 10
4374.2420373226859738
 20
224.0767849838753136
 30
0.0
 40
0.0393700786999975
 50
179.9999999999951115
 51
225.1682189543840877
  0
LINE
  5
13C74
  8
0
 10
4374.3124480463848158
 20
224.4901240116560075
 30
0.0
 11
4374.3124480463848158
 21
224.5303172766253113
 31
0.0
  0
LINE
  5
13C75
  8
0
 10
4374.3877744933070062
 20
224.4901167293359947
 30
0.0
 11
4374.3875181484436325
 21
224.5303172766253113
 31
0.0
  0
LINE
  5
13C76
  8
0
 10
4374.5766830207849125
 20
224.5303172766253113
 30
0.0
 11
4374.5766830207849125
 21
224.490098466263504
 31
0.0
  0
LINE
  5
13C77
  8
0
 10
4375.4239121745440571
 20
224.5196355014753067
 30
0.0
 11
4375.2998159979861157
 21
224.519635495975308
 31
0.0
  0
ARC
  5
13C78
  8
0
 10
4375.2998159941671474
 20
224.6058011141024053
 30
0.0
 40
0.0861656181271117
 50
241.167346963662709
 51
270.0000025393824785
  0
LINE
  5
13C79
  8
0
 10
4375.4240053925295797
 20
224.5303172766253113
 30
0.0
 11
4375.4236536954213079
 21
224.4900165838467956
 31
0.0
  0
LINE
  5
13C7A
  8
0
 10
4375.7139966992863265
 20
224.5303172766253113
 30
0.0
 11
4375.7139966992863265
 21
224.4899885144135112
 31
0.0
  0
LINE
  5
13C7B
  8
0
 10
4375.934164099930058
 20
224.5303172766253113
 30
0.0
 11
4375.9340148612573103
 21
224.4927836174090032
 31
0.0
  0
LINE
  5
13C7C
  8
0
 10
4375.8177151870859234
 20
224.4534280953753012
 30
0.0
 11
4375.8175938270851475
 21
223.6856630354753008
 31
0.0
  0
LINE
  5
13C7D
  8
0
 10
4369.0847119496847881
 20
223.9167186440753028
 30
0.0
 11
4369.0757867911861467
 21
224.1135690420753122
 31
0.0
  0
LINE
  5
13C7E
  8
0
 10
4369.0757867911861467
 20
224.1135690420753122
 30
0.0
 11
4369.0782059167850093
 21
224.2736353769753066
 31
0.0
  0
LINE
  5
13C7F
  8
0
 10
4369.3463336766862994
 20
224.2736353769753066
 30
0.0
 11
4369.3409394981863443
 21
223.9167186440753028
 31
0.0
  0
LINE
  5
13C80
  8
0
 10
4369.3409394981863443
 20
223.9167186440753028
 30
0.0
 11
4369.3320143396849744
 21
224.1135690420753122
 31
0.0
  0
LINE
  5
13C81
  8
0
 10
4369.3320143396849744
 20
224.1135690420753122
 30
0.0
 11
4369.0757867911861467
 21
224.1135690420753122
 31
0.0
  0
LINE
  5
13C82
  8
0
 10
4369.3320143396849744
 20
224.1135690420753122
 30
0.0
 11
4369.334433465285656
 21
224.2736353769753066
 31
0.0
  0
ARC
  5
13C83
  8
0
 10
4375.8570890207429329
 20
224.4534144184659965
 30
0.0
 40
0.0393738360332383
 50
89.9882783670638844
 51
179.9800977178518906
  0
LINE
  5
13C84
  8
0
 10
4375.857097075884667
 20
224.4927882536752861
 30
0.0
 11
4376.9475049683860561
 21
224.4927225286753014
 31
0.0
  0
ARC
  5
13C85
  8
0
 10
4376.9475025399669903
 20
224.4524339438895026
 30
0.0
 40
0.0402885848589896
 50
0.2967980391457716
 51
89.9965464619929065
  0
LINE
  5
13C86
  8
0
 10
4376.9877905842859036
 20
224.4526426419753022
 30
0.0
 11
4376.9876839476846726
 21
223.6848602606752934
 31
0.0
  0
ARC
  5
13C87
  8
0
 10
4376.9482618660822482
 20
223.6848657359724939
 30
0.0
 40
0.0394220819842047
 50
270.0106963972490917
 51
359.9920422410943956
  0
LINE
  5
13C88
  8
0
 10
4376.9482692256860901
 20
223.6454436546752902
 30
0.0
 11
4375.8570793273847812
 21
223.6458583254753023
 31
0.0
  0
ARC
  5
13C89
  8
0
 10
4375.8576357145830116
 20
223.6858970310184134
 30
0.0
 40
0.0400425711997143
 50
180.3348194921296965
 51
269.2038557184769161
  0
LINE
  5
13C8A
  8
0
 10
4377.2619221001859842
 20
224.2736353769753066
 30
0.0
 11
4377.075848396985748
 21
223.6857512032752879
 31
0.0
  0
ARC
  5
13C8B
  8
0
 10
4376.8911948021896023
 20
223.7424174971052935
 30
0.0
 40
0.1931528382595146
 50
321.738770414648684
 51
342.9398543950646854
  0
ARC
  5
13C8C
  8
0
 10
4376.9622478340234011
 20
223.6881352158534924
 30
0.0
 40
0.1037572664932523
 50
274.5138428527515089
 51
320.9782279989141784
  0
ARC
  5
13C8D
  8
0
 10
4375.9351073599109441
 20
223.6444292410824914
 30
0.0
 40
0.0597301101678016
 50
178.6357060423586063
 51
269.7353225666935828
  0
LINE
  5
13C8E
  8
0
 10
4376.1336457250617968
 20
223.5846997682253061
 30
0.0
 11
4376.1333775801858792
 21
223.5862377068752949
 31
0.0
  0
LINE
  5
13C8F
  8
0
 10
4376.1926994739142174
 20
223.5846997682253061
 30
0.0
 11
4376.1924313285862809
 21
223.5862377094753128
 31
0.0
  0
ARC
  5
13C90
  8
0
 10
4376.1629044603387229
 20
223.4510340041732945
 30
0.0
 40
0.1383903099060148
 50
77.6807075318076983
 51
102.3192975134160037
  0
LINE
  5
13C91
  8
0
 10
4376.4092298863233736
 20
223.5846997682253061
 30
0.0
 11
4376.4089617392855871
 21
223.5862377192752888
 31
0.0
  0
LINE
  5
13C92
  8
0
 10
4376.4682836351757942
 20
223.5846997682253061
 30
0.0
 11
4376.4680154876859888
 21
223.5862377218753068
 31
0.0
  0
ARC
  5
13C93
  8
0
 10
4376.4384886194384308
 20
223.4510340165732885
 30
0.0
 40
0.1383903099060148
 50
77.6807075318076983
 51
102.3192975134160037
  0
LINE
  5
13C94
  8
0
 10
4376.6848140475676701
 20
223.5846997682253061
 30
0.0
 11
4376.6845458983862045
 21
223.5862377315752951
 31
0.0
  0
LINE
  5
13C95
  8
0
 10
4376.7438677964219096
 20
223.5846997682253061
 30
0.0
 11
4376.7435996467847872
 21
223.5862377341753131
 31
0.0
  0
ARC
  5
13C96
  8
0
 10
4376.7140727785390482
 20
223.4510340288732948
 30
0.0
 40
0.1383903099060148
 50
77.6807075318076983
 51
102.3192975134160037
  0
LINE
  5
13C97
  8
0
 10
4377.006249960484638
 20
224.5303172766253113
 30
0.0
 11
4377.006249960484638
 21
224.2736353769753066
 31
0.0
  0
ARC
  5
13C98
  8
0
 10
4376.9801104440293784
 20
224.5188819717367892
 30
0.0
 40
0.0689073456467002
 50
276.3989968618016064
 51
292.2929900236709955
  0
ARC
  5
13C99
  8
0
 10
4376.9726178618730046
 20
224.5607774675169139
 30
0.0
 40
0.1665310632568184
 50
275.2247255325057722
 51
281.6514170604364722
  0
LINE
  5
13C9A
  8
0
 10
4376.9953542733846916
 20
224.3958076920752944
 30
0.0
 11
4376.995354279584717
 21
224.2558778822753141
 31
0.0
  0
LINE
  5
13C9B
  8
0
 10
4376.995354279584717
 20
224.2558778822753141
 30
0.0
 11
4376.9917686336848419
 21
224.2564607167307997
 31
0.0
  0
LINE
  5
13C9C
  8
0
 10
4376.9917686336848419
 20
224.2564607167307997
 30
0.0
 11
4376.9917686439857789
 21
224.0241999761753107
 31
0.0
  0
LINE
  5
13C9D
  8
0
 10
4376.9917686439857789
 20
224.0241999761753107
 30
0.0
 11
4377.0291616825861638
 21
224.0543085424752974
 31
0.0
  0
LINE
  5
13C9E
  8
0
 10
4377.0291616825861638
 20
224.0543085424752974
 30
0.0
 11
4377.0829463657846645
 21
224.162101131675314
 31
0.0
  0
LINE
  5
13C9F
  8
0
 10
4377.0829463657846645
 20
224.162101131675314
 30
0.0
 11
4377.0455533271860986
 21
224.1319925653752989
 31
0.0
  0
LINE
  5
13CA0
  8
0
 10
4377.0455533271860986
 20
224.1319925653752989
 30
0.0
 11
4376.9917686439857789
 21
224.0241999761753107
 31
0.0
  0
LINE
  5
13CA1
  8
0
 10
4377.0455533271860986
 20
224.1319925653752989
 30
0.0
 11
4377.0455533208851193
 21
224.2736353769753066
 31
0.0
  0
LINE
  5
13CA2
  8
0
 10
4377.0829463657846645
 20
224.162101131675314
 30
0.0
 11
4377.0829463608861261
 21
224.2736353769753066
 31
0.0
  0
LINE
  5
13CA3
  8
0
 10
4377.0909414780862789
 20
224.2736353769753066
 30
0.0
 11
4377.0909414855859723
 21
224.1040531302753038
 31
0.0
  0
LINE
  5
13CA4
  8
0
 10
4377.0909414855859723
 20
224.1040531302753038
 30
0.0
 11
4377.1283345241863572
 21
224.1341616965752905
 31
0.0
  0
LINE
  5
13CA5
  8
0
 10
4377.1283345241863572
 20
224.1341616965752905
 30
0.0
 11
4377.1821192073848579
 21
224.2419542857753072
 31
0.0
  0
LINE
  5
13CA6
  8
0
 10
4377.1821192073848579
 20
224.2419542857753072
 30
0.0
 11
4377.1821192073848579
 21
224.2736353769753066
 31
0.0
  0
LINE
  5
13CA7
  8
0
 10
4377.1821192073848579
 20
224.2419542857753072
 30
0.0
 11
4377.1447261687853825
 21
224.2118457194752921
 31
0.0
  0
LINE
  5
13CA8
  8
0
 10
4377.1447261687853825
 20
224.2118457194752921
 30
0.0
 11
4377.0909414855859723
 21
224.1040531302753038
 31
0.0
  0
LINE
  5
13CA9
  8
0
 10
4377.1447261687853825
 20
224.2118457194752921
 30
0.0
 11
4377.1447261687853825
 21
224.2736353769753066
 31
0.0
  0
LINE
  5
13CAA
  8
0
 10
4376.9953542794319219
 20
224.2593478491126007
 30
0.0
 11
4376.9877628887843457
 21
224.2532353239737972
 31
0.0
  0
ARC
  5
13CAB
  8
0
 10
4373.2437653796960149
 20
224.6767751029962028
 30
0.0
 40
0.4171731745755711
 50
255.0965547965041083
 51
284.9034452034958917
  0
LINE
  5
13CAC
  8
0
 10
4372.6792573895863825
 20
224.2736353769753066
 30
0.0
 11
4372.6792573895863825
 21
224.1908758254753025
 31
0.0
  0
LINE
  5
13CAD
  8
0
 10
4372.6792573895863825
 20
224.1908758254753025
 30
0.0
 11
4372.7776657224858354
 21
224.1908758254753025
 31
0.0
  0
LINE
  5
13CAE
  8
0
 10
4372.7776657224858354
 20
224.1908758254753025
 30
0.0
 11
4372.7776825863847989
 21
224.2736353769753066
 31
0.0
  0
LINE
  5
13CAF
  8
0
 10
4371.5143023966847977
 20
224.2736353769753066
 30
0.0
 11
4371.5143023966847977
 21
224.1908758247753042
 31
0.0
  0
LINE
  5
13CB0
  8
0
 10
4371.5143023966847977
 20
224.1908758247753042
 30
0.0
 11
4371.6127107295860696
 21
224.1908758247753042
 31
0.0
  0
LINE
  5
13CB1
  8
0
 10
4371.6127107295860696
 20
224.1908758247753042
 30
0.0
 11
4371.6127275935859871
 21
224.2736353769753066
 31
0.0
  0
LINE
  5
13CB2
  8
0
 10
4372.1695874248307518
 20
224.3925145104753085
 30
0.0
 11
4370.8863201999847661
 21
224.3925145104753085
 31
0.0
  0
LINE
  5
13CB3
  8
0
 10
4370.7896653507577867
 20
224.5303172766253113
 30
0.0
 11
4370.8957167326861963
 21
224.3925145104753085
 31
0.0
  0
LINE
  5
13CB4
  8
0
 10
4370.8863201999847661
 20
224.3925145104753085
 30
0.0
 11
4370.9709820501848299
 21
224.2820588704753106
 31
0.0
  0
ARC
  5
13CB5
  8
0
 10
4370.9864939604967731
 20
224.2939484129844914
 30
0.0
 40
0.0195443235393735
 50
217.4693813170227941
 51
269.750819502605907
  0
LINE
  5
13CB6
  8
0
 10
4372.2511784431453634
 20
224.5303172766253113
 30
0.0
 11
4372.1546827572856273
 21
224.3925145104753085
 31
0.0
  0
LINE
  5
13CB7
  8
0
 10
4372.1695874248307518
 20
224.3925145104753085
 30
0.0
 11
4372.0920858026856877
 21
224.2827361282753031
 31
0.0
  0
ARC
  5
13CB8
  8
0
 10
4372.0760046618106571
 20
224.2940891331091109
 30
0.0
 40
0.0196848624732623
 50
270.0348413036147122
 51
324.7785755665041734
  0
LINE
  5
13CB9
  8
0
 10
4370.986408962108726
 20
224.2744042742752981
 30
0.0
 11
4372.0760166320806093
 21
224.2744042742752981
 31
0.0
  0
ARC
  5
13CBA
  8
0
 10
4368.0987426831688936
 20
224.7037700201562131
 30
0.0
 40
0.0205894410404995
 50
182.5896898536321089
 51
248.3164835958569938
  0
ARC
  5
13CBB
  8
0
 10
4368.6614821353541629
 20
226.1203590307694924
 30
0.0
 40
1.5448597953246681
 50
248.3343272642538864
 51
258.2775256657383807
  0
ARC
  5
13CBC
  8
0
 10
4369.0448986028823128
 20
228.202434630908499
 30
0.0
 40
3.6617185761252431
 50
259.0223324689214905
 51
266.8979063833209011
  0
ARC
  5
13CBD
  8
0
 10
4369.4279317870841624
 20
235.2037630196086013
 30
0.0
 40
10.6735164338727895
 50
266.8786193805544258
 51
269.7914713019652027
  0
LINE
  5
13CBE
  8
0
 10
4378.1766768273182606
 20
224.0866275035753006
 30
0.0
 11
4378.37455196551673
 21
224.0866275035753006
 31
0.0
  0
LINE
  5
13CBF
  8
0
 10
4375.8121805429846063
 20
224.5303099131753015
 30
0.0
 11
4375.8140529890861217
 21
224.2736353781752996
 31
0.0
  0
LINE
  5
13CC0
  8
0
 10
4375.7889612925982874
 20
224.5303172766253113
 30
0.0
 11
4375.789313195032264
 21
224.4817926732796991
 31
0.0
  0
ARC
  5
13CC1
  8
0
 10
4368.9785405445318247
 20
227.5709291521008879
 30
0.0
 40
1.604794954489895
 50
191.3970102604565113
 51
207.4730397213726008
  0
ARC
  5
13CC2
  8
0
 10
4369.8828020576129347
 20
227.7532111533325008
 30
0.0
 40
2.5272458269020608
 50
179.928464422635102
 51
191.3970102604565113
  0
ARC
  5
13CC3
  8
0
 10
4312.4343380435102517
 20
227.8249373993542122
 30
0.0
 40
54.9212629634413716
 50
359.9284644226352157
 51
0.5549107527570466
  0
ARC
  5
13CC4
  8
0
 10
4375.2332946506712688
 20
-3591.0046040456518313
 30
0.0
 40
3821.4666400697237805
 50
89.933249834410617
 51
90.0752348614232972
  0
LINE
  5
13CC5
  8
0
 10
4370.293075631730062
 20
230.4588427770212036
 30
0.0
 11
4370.2938147147860946
 21
230.5435332991752944
 31
0.0
  0
ARC
  5
13CC6
  8
0
 10
4370.3331765559933046
 20
230.5431897935602876
 30
0.0
 40
0.0393633400429409
 50
89.5973253834951322
 51
179.4999999551122869
  0
ARC
  5
13CC7
  8
0
 10
4374.3393293444923984
 20
1045.3192754697499822
 30
0.0
 40
814.7465712421230819
 50
269.7182918845604718
 51
269.7859983324871109
  0
ARC
  5
13CC8
  8
0
 10
4381.6860260694620592
 20
230.4974293129378964
 30
0.0
 40
2.0003410447284908
 50
179.7610524716253906
 51
181.1082044030628992
  0
LINE
  5
13CC9
  8
0
 10
4379.685702420085363
 20
230.5057715532753093
 30
0.0
 11
4379.6856925921847505
 21
230.5828209347752988
 31
0.0
  0
LINE
  5
13CCA
  8
0
 10
4379.6856925921847505
 20
230.5828209347752988
 30
0.0
 11
4380.3052931517859179
 21
230.5828212583753043
 31
0.0
  0
ARC
  5
13CCB
  8
0
 10
4380.3291072985794017
 20
201.2141934877622873
 30
0.0
 40
29.3686374257031204
 50
89.0002053916887803
 51
90.0464594333761141
  0
ARC
  5
13CCC
  8
0
 10
4380.5990656980202402
 20
216.4055780158820994
 30
0.0
 40
14.1748560407906901
 50
86.6289625951611129
 51
89.0197913798567555
  0
ARC
  5
13CCD
  8
0
 10
4381.3870569238506505
 20
229.788787063441788
 30
0.0
 40
0.7684690334093975
 50
68.8709299163382269
 51
86.6044671952661389
  0
ARC
  5
13CCE
  8
0
 10
4381.5066975181271118
 20
230.1212460418566081
 30
0.0
 40
0.4153159947139886
 50
28.2056690876124208
 51
67.7334988619867744
  0
ARC
  5
13CCF
  8
0
 10
4433.5799074377309807
 20
258.7459835955518201
 30
0.0
 40
59.0068805700835526
 50
208.801841543792591
 51
209.1633882060048961
  0
ARC
  5
13CD0
  8
0
 10
4388.3054656916910972
 20
233.616484550840795
 30
0.0
 40
7.2270355673178219
 50
210.1020352956157069
 51
212.6742889326731074
  0
ARC
  5
13CD1
  8
0
 10
4380.5956684865232091
 20
228.6854850352524124
 30
0.0
 40
1.924807406481668
 50
12.6887339673486004
 51
32.3305597091787007
  0
ARC
  5
13CD2
  8
0
 10
4379.0035986058974231
 20
228.389229540053492
 30
0.0
 40
3.5435888410893202
 50
0.1568362579051559
 51
11.7074812987780206
  0
ARC
  5
13CD3
  8
0
 10
4380.8094082280103976
 20
227.6489802000461111
 30
0.0
 40
1.7415437939416309
 50
291.0097369612361717
 51
331.9706449855560777
  0
ARC
  5
13CD4
  8
0
 10
4379.8003861659017275
 20
231.6631706949048919
 30
0.0
 40
5.8717232107619601
 50
272.9862972532345111
 51
286.1517726585371975
  0
ARC
  5
13CD5
  8
0
 10
4378.1628813561883362
 20
252.3239001957608139
 30
0.0
 40
26.5955787765942198
 50
270.7756108996811122
 51
274.1904791803415264
  0
ARC
  5
13CD6
  8
0
 10
4444.4950300195314412
 20
230.1487843119973036
 30
0.0
 40
61.9725651908155086
 50
181.6180163994787904
 51
183.0262949344241861
  0
ARC
  5
13CD7
  8
0
 10
4381.3262970288178622
 20
226.8020955650117116
 30
0.0
 40
1.284778793298073
 50
345.1740934317058986
 51
3.34182529498803
  0
ARC
  5
13CD8
  8
0
 10
4380.4979746636217897
 20
227.0439345790684058
 30
0.0
 40
2.1475179384970309
 50
334.2876300784918726
 51
344.5915484941680802
  0
ARC
  5
13CD9
  8
0
 10
4381.6375355388372554
 20
226.5390479343041932
 30
0.0
 40
0.902610708638093
 50
302.9552745044280186
 51
331.7789377623820997
  0
ARC
  5
13CDA
  8
0
 10
4380.8966482921832721
 20
227.9735509546981973
 30
0.0
 40
2.514338267509189
 50
276.9528313043912817
 51
299.3371168398371083
  0
ARC
  5
13CDB
  8
0
 10
4379.4026176922507148
 20
239.1515134817649084
 30
0.0
 40
13.7915673620527794
 50
270.2581321468329065
 51
277.4926083690065752
  0
ARC
  5
13CDC
  8
0
 10
4379.0648576493240398
 20
244.1972708261432103
 30
0.0
 40
18.8414289389955307
 50
270.2873746753289765
 51
271.2161487550209245
  0
LINE
  5
13CDD
  8
0
 10
4382.0326422965863458
 20
224.2736353769753066
 30
0.0
 11
4377.006249960484638
 21
224.2736353769753066
 31
0.0
  0
ARC
  5
13CDE
  8
0
 10
4381.3054002117487471
 20
226.1849002206188004
 30
0.0
 40
1.5298013850317791
 50
282.5636300394746172
 51
291.7534573878544961
  0
ARC
  5
13CDF
  8
0
 10
4380.9892544234562592
 20
227.7226062747083972
 30
0.0
 40
3.0995646407737132
 50
273.5407220992054818
 51
282.0846414437862109
  0
ARC
  5
13CE0
  8
0
 10
4380.5433699383538624
 20
234.7843161853170955
 30
0.0
 40
10.1753356670381105
 50
270.2144296740490859
 51
273.5909309982565105
  0
LINE
  5
13CE1
  8
0
 10
4381.6979525662600281
 20
224.3334593923752891
 30
0.0
 11
4379.6818104107860563
 21
224.3334593923752891
 31
0.0
  0
LINE
  5
13CE2
  8
0
 10
4379.4672381134741954
 20
224.5303172766253113
 30
0.0
 11
4379.6274926492860686
 21
224.369169253075313
 31
0.0
  0
ARC
  5
13CE3
  8
0
 10
4379.7398407570781274
 20
224.4808944450246031
 30
0.0
 40
0.1584443619709636
 50
224.8407201713040138
 51
248.5154315349201113
  0
LINE
  5
13CE4
  8
0
 10
4381.7559368440852268
 20
224.664227571075287
 30
0.0
 11
4381.7371554665860458
 21
224.3702598634752974
 31
0.0
  0
ARC
  5
13CE5
  8
0
 10
4381.6978671445303917
 20
224.372831709355097
 30
0.0
 40
0.0393724096446486
 50
270.1243080754937864
 51
356.2547147078598755
  0
LINE
  5
13CE6
  8
0
 10
4382.3056216670001959
 20
225.5746103372667051
 30
0.0
 11
4382.344727742584837
 21
224.6870137709753124
 31
0.0
  0
LINE
  5
13CE7
  8
0
 10
4382.344727742584837
 20
224.6870137709753124
 30
0.0
 11
4382.3427055381862374
 21
224.5837431819753078
 31
0.0
  0
LINE
  5
13CE8
  8
0
 10
4382.3427055381862374
 20
224.5837431819753078
 30
0.0
 11
4382.0326422971847933
 21
224.2736353775752889
 31
0.0
  0
LINE
  5
13CE9
  8
0
 10
4381.8805836204846855
 20
224.2736353775752889
 30
0.0
 11
4382.1958244829856994
 21
224.5885965807752882
 31
0.0
  0
LINE
  5
13CEA
  8
0
 10
4382.1958244829856994
 20
224.5885965807752882
 30
0.0
 11
4382.1909931423833768
 21
224.710718277042389
 31
0.0
  0
LINE
  5
13CEB
  8
0
 10
4377.2221451566847463
 20
224.2736353769753066
 30
0.0
 11
4377.2221451566847463
 21
224.1908758254753025
 31
0.0
  0
LINE
  5
13CEC
  8
0
 10
4377.2221451566847463
 20
224.1908758254753025
 30
0.0
 11
4377.1237368237862029
 21
224.1908758254753025
 31
0.0
  0
LINE
  5
13CED
  8
0
 10
4377.1237368237862029
 20
224.1908758254753025
 30
0.0
 11
4377.1237199598863299
 21
224.2736353769753066
 31
0.0
  0
LINE
  5
13CEE
  8
0
 10
4377.731815121440377
 20
224.3925145104753085
 30
0.0
 11
4379.0150823462872722
 21
224.3925145104753085
 31
0.0
  0
LINE
  5
13CEF
  8
0
 10
4379.1117371955133422
 20
224.5303172766253113
 30
0.0
 11
4379.005685813585842
 21
224.3925145104753085
 31
0.0
  0
LINE
  5
13CF0
  8
0
 10
4379.0150823462872722
 20
224.3925145104753085
 30
0.0
 11
4378.930420496086299
 21
224.2820588704753106
 31
0.0
  0
ARC
  5
13CF1
  8
0
 10
4378.9149085857734462
 20
224.2939484129844914
 30
0.0
 40
0.0195443235393735
 50
270.249180497394093
 51
322.5306186829770922
  0
LINE
  5
13CF2
  8
0
 10
4377.6502241031266749
 20
224.5303172766253113
 30
0.0
 11
4377.746719788984592
 21
224.3925145104753085
 31
0.0
  0
LINE
  5
13CF3
  8
0
 10
4377.731815121440377
 20
224.3925145104753085
 30
0.0
 11
4377.8093167435863506
 21
224.2827361282753031
 31
0.0
  0
ARC
  5
13CF4
  8
0
 10
4377.8253978844595622
 20
224.2940891331091109
 30
0.0
 40
0.0196848624732623
 50
215.2214244334957982
 51
269.9651586963852878
  0
LINE
  5
13CF5
  8
0
 10
4378.9149935841633123
 20
224.2744042742752981
 30
0.0
 11
4377.82538591418961
 21
224.2744042742752981
 31
0.0
  0
ARC
  5
13CF6
  8
0
 10
4381.2399204109178754
 20
226.1203590307694924
 30
0.0
 40
1.5448597953246681
 50
281.7224743342615056
 51
291.6656727357461136
  0
ARC
  5
13CF7
  8
0
 10
4380.8565039433897255
 20
228.202434630908499
 30
0.0
 40
3.6617185761252431
 50
273.1020936166790989
 51
280.9776675310783958
  0
ARC
  5
13CF8
  8
0
 10
4380.4734707591869665
 20
235.2037630196086013
 30
0.0
 40
10.6735164338727895
 50
270.208528698034911
 51
273.1213806194455742
  0
ARC
  5
13CF9
  8
0
 10
4380.9228620017393041
 20
227.5709291521008879
 30
0.0
 40
1.604794954489895
 50
332.5269602786274277
 51
348.602989739543375
  0
ARC
  5
13CFA
  8
0
 10
4380.0186004886572846
 20
227.7532111533325008
 30
0.0
 40
2.5272458269020608
 50
348.602989739543375
 51
0.071535577364827
  0
ARC
  5
13CFB
  8
0
 10
4437.4670645027617866
 20
227.8249373993542122
 30
0.0
 40
54.9212629634413716
 50
179.4450892472430041
 51
180.0715355773648128
  0
LINE
  5
13CFC
  8
0
 10
4379.6083209029493446
 20
230.4595316373028027
 30
0.0
 11
4379.6075878314850343
 21
230.5435332991752944
 31
0.0
  0
ARC
  5
13CFD
  8
0
 10
4379.5682259902778242
 20
230.5431897935602876
 30
0.0
 40
0.0393633400429409
 50
0.5000000448877352
 51
90.402674616504882
  0
ARC
  5
13CFE
  8
0
 10
4375.5620732017787304
 20
1045.3192754697499822
 30
0.0
 40
814.7465712421230819
 50
270.2140016675128891
 51
270.2817081154395282
  0
ARC
  5
13CFF
  8
0
 10
4379.3980410737331113
 20
226.0801175570404951
 30
0.0
 40
2.9488471650706121
 50
352.7828626703295072
 51
358.0289535867694894
  0
ARC
  5
13D00
  8
0
 10
4374.229202611085384
 20
226.7140469301170924
 30
0.0
 40
8.1563999727731424
 50
350.288274214277692
 51
352.926546049493993
  0
ARC
  5
13D01
  8
0
 10
4380.7317821643564457
 20
225.5828708697507068
 30
0.0
 40
1.5562943015481181
 50
343.1111388144962007
 51
350.9523606131152746
  0
ARC
  5
13D02
  8
0
 10
4381.7167431385296368
 20
225.2546576550105044
 30
0.0
 40
0.5192140675600991
 50
317.1596153018560926
 51
346.1925540863543915
  0
ARC
  5
13D03
  8
0
 10
4381.7274463488465699
 20
225.1206456590805089
 30
0.0
 40
0.4299802966589933
 50
298.4141491289373107
 51
329.3761344018848831
  0
ARC
  5
13D04
  8
0
 10
4381.321980483848165
 20
225.870096668577105
 30
0.0
 40
1.282083214923728
 50
292.3866027056628241
 51
298.4141491289373107
  0
ARC
  5
13D05
  8
0
 10
4381.4704449030341493
 20
225.7612082586290967
 30
0.0
 40
1.0751204161468499
 50
291.9524815086263061
 51
298.9121809087416182
  0
ARC
  5
13D06
  8
0
 10
4381.7682126458130369
 20
225.2233762744795058
 30
0.0
 40
0.460361971022995
 50
298.8338124589462836
 51
315.6584760501149844
  0
ARC
  5
13D07
  8
0
 10
4374.9507012731382929
 20
580.3045144548791541
 30
0.0
 40
354.5917500284036805
 50
269.4227868678535742
 51
270.5772131321463121
  0
ARC
  5
13D08
  8
0
 10
4370.7771301557222614
 20
228.7365306669753977
 30
0.0
 40
3.1725269010464321
 50
153.9863070772819924
 51
168.3317495948782891
  0
ARC
  5
13D09
  8
0
 10
4373.613149926263759
 20
228.0274062659977972
 30
0.0
 40
6.0945563227873523
 50
167.1950718729503933
 51
173.7388768047059955
  0
ARC
  5
13D0A
  8
0
 10
4370.8840118309663012
 20
228.2941744114233984
 30
0.0
 40
3.3527604971254541
 50
173.184112353446892
 51
198.5515699271153949
  0
ARC
  5
13D0B
  8
0
 10
4369.1574809809935687
 20
227.7754557487378122
 30
0.0
 40
1.551976872967114
 50
200.6764960411952927
 51
230.3075043238337969
  0
ARC
  5
13D0C
  8
0
 10
4369.657528324984014
 20
228.5647699173601097
 30
0.0
 40
2.481575409547375
 50
233.0637353275913881
 51
253.3558338677462984
  0
ARC
  5
13D0D
  8
0
 10
4371.2258739089384108
 20
234.4858033799804105
 30
0.0
 40
8.6059176912891502
 50
254.6429371002103039
 51
266.072200189592877
  0
ARC
  5
13D0E
  8
0
 10
4373.0726827192402197
 20
266.60437201275289
 30
0.0
 40
40.7771184831418765
 50
266.5747117314206776
 51
270.2210116705841187
  0
ARC
  5
13D0F
  8
0
 10
4379.1242723905488674
 20
228.7365306669753977
 30
0.0
 40
3.1725269010464321
 50
11.66825040512167
 51
26.0136929227179792
  0
ARC
  5
13D10
  8
0
 10
4376.2882526200082793
 20
228.0274062659977972
 30
0.0
 40
6.0945563227873523
 50
6.2611231952939894
 51
12.8049281270496298
  0
ARC
  5
13D11
  8
0
 10
4379.0173907153039181
 20
228.2941744114233984
 30
0.0
 40
3.3527604971254541
 50
341.4484300728846051
 51
6.8158876465530343
  0
ARC
  5
13D12
  8
0
 10
4380.7439215652775601
 20
227.7754557487378122
 30
0.0
 40
1.551976872967114
 50
309.6924956761661747
 51
339.3235039588032009
  0
ARC
  5
13D13
  8
0
 10
4380.2438742212871148
 20
228.5647699173601097
 30
0.0
 40
2.481575409547375
 50
286.6441661322537016
 51
306.9362646724085835
  0
ARC
  5
13D14
  8
0
 10
4378.6755286373327181
 20
234.4858033799804105
 30
0.0
 40
8.6059176912891502
 50
273.927799810407123
 51
285.3570628997896961
  0
ARC
  5
13D15
  8
0
 10
4376.8287198270318186
 20
266.60437201275289
 30
0.0
 40
40.7771184831418765
 50
269.7789883294158813
 51
273.4252882685792088
  0
ARC
  5
13D16
  8
0
 10
4374.9507012731346549
 20
1303.5747823396729927
 30
0.0
 40
1077.7485990916970877
 50
269.9085219111159972
 51
270.0914780888838891
  0
LINE
  5
13D17
  8
0
 10
4378.1175438480859157
 20
224.2736353769753066
 30
0.0
 11
4378.1175438480859157
 21
224.1948952200752956
 31
0.0
  0
LINE
  5
13D18
  8
0
 10
4378.315418986286204
 20
224.2736353769753066
 30
0.0
 11
4378.315418986286204
 21
224.1948952200752956
 31
0.0
  0
LINE
  5
13D19
  8
0
 10
4378.347673386486349
 20
224.2736353769753066
 30
0.0
 11
4378.347673386486349
 21
224.1948952200752956
 31
0.0
  0
LINE
  5
13D1A
  8
0
 10
4378.4014307200859548
 20
224.2736353769753066
 30
0.0
 11
4378.4014307200859548
 21
224.1948952200752956
 31
0.0
  0
LINE
  5
13D1B
  8
0
 10
4378.4336851201860554
 20
224.2736353769753066
 30
0.0
 11
4378.4336851201860554
 21
224.1948952200752956
 31
0.0
  0
ARC
  5
13D1C
  8
0
 10
4378.37455196551673
 20
224.122355602048799
 30
0.0
 40
0.0357280984735259
 50
226.5400707879003903
 51
313.4599292121018266
  0
ARC
  5
13D1D
  8
0
 10
4378.3271351188013796
 20
224.1697366549844048
 30
0.0
 40
0.1027516836478699
 50
314.4786678441521985
 51
342.0712206749810207
  0
ARC
  5
13D1E
  8
0
 10
4378.2526536845216469
 20
224.1938348239538072
 30
0.0
 40
0.1810345412850647
 50
342.0712206749810207
 51
0.3356076103776595
  0
ARC
  5
13D1F
  8
0
 10
4378.3745520647107696
 20
224.1629840773275077
 30
0.0
 40
0.0173008790521598
 50
214.6244061273762895
 51
325.3755938726291106
  0
ARC
  5
13D20
  8
0
 10
4378.3489038700054152
 20
224.185162703104794
 30
0.0
 40
0.051140799628142
 50
321.2519247412109848
 51
343.5207609584576858
  0
ARC
  5
13D21
  8
0
 10
4378.3165440109014526
 20
224.1947353771103906
 30
0.0
 40
0.0848868596778
 50
343.5207609584592205
 51
0.1078886970629226
  0
ARC
  5
13D22
  8
0
 10
4378.4002002594152145
 20
224.185162703104794
 30
0.0
 40
0.051140799628142
 50
196.4792390415422858
 51
218.7480752587889867
  0
ARC
  5
13D23
  8
0
 10
4378.4325611885496983
 20
224.1947356110497935
 30
0.0
 40
0.084887952115401
 50
179.8922705908869091
 51
196.4791855825172036
  0
ARC
  5
13D24
  8
0
 10
4378.4219688122348089
 20
224.1697366549844048
 30
0.0
 40
0.1027516836478699
 50
197.9287793250190077
 51
225.5213321558478015
  0
ARC
  5
13D25
  8
0
 10
4378.4964434923776935
 20
224.1938332195398971
 30
0.0
 40
0.1810276212384397
 50
179.6638717498927065
 51
197.9289542412525122
  0
ARC
  5
13D26
  8
0
 10
4378.1766768273182606
 20
224.122355602048799
 30
0.0
 40
0.0357280984735259
 50
226.5400707879003903
 51
270.0
  0
ARC
  5
13D27
  8
0
 10
4378.22409367403543
 20
224.1697366549844048
 30
0.0
 40
0.1027516836478699
 50
197.9287793250190077
 51
225.5213321558478015
  0
ARC
  5
13D28
  8
0
 10
4378.2985683541774051
 20
224.1938332195398971
 30
0.0
 40
0.1810276212384397
 50
179.6638717498927065
 51
197.9289542412525122
  0
ARC
  5
13D29
  8
0
 10
4382.1090635199534518
 20
224.6993755831418014
 30
0.0
 40
0.0827110617528121
 50
7.882173410085497
 51
88.9396614474159435
  0
LINE
  5
13D2A
  8
0
 10
4382.1105941164851174
 20
224.7820724815753124
 30
0.0
 11
4381.9924958894789597
 21
224.7820724815753124
 31
0.0
  0
ARC
  5
13D2B
  8
0
 10
4372.2325379167841675
 20
508.7612474482612015
 30
0.0
 40
278.184435882154105
 50
269.8071546905059108
 51
270.0812511168010133
  0
ARC
  5
13D2C
  8
0
 10
4377.6688646294869613
 20
508.7612474482612015
 30
0.0
 40
278.184435882154105
 50
269.918748883198873
 51
270.1928453094942029
  0
ARC
  5
13D2D
  8
0
 10
4374.9507012731346549
 20
-192.000907059210391
 30
0.0
 40
422.5843869868958791
 50
89.6849453627110904
 51
90.3150546372888954
  0
ENDSEC
  0
EOF
