  0
SECTION
  2
HEADER
  9
$ACADVER
  1
AC1009
  9
$INSBASE
 10
2050.2567116721670573
 20
203.0017978798026945
 30
0.0
  9
$EXTMIN
 10
2034.3854455770328968
 20
202.9404770030917007
 30
-0.0015258207003583
  9
$EXTMAX
 10
2066.0677974397899561
 20
224.0070335202975969
 30
0.0000000349246037
  9
$LIMMIN
 10
0.0
 20
0.0
  9
$LIMMAX
 10
11.6929133858000007
 20
8.2677165353999982
  9
$ORTHOMODE
 70
     0
  9
$REGENMODE
 70
     1
  9
$FILLMODE
 70
     1
  9
$QTEXTMODE
 70
     0
  9
$MIRRTEXT
 70
     0
  9
$DRAGMODE
 70
     2
  9
$LTSCALE
 40
0.6431102362
  9
$OSMODE
 70
  4095
  9
$ATTMODE
 70
     1
  9
$TEXTSIZE
 40
0.2
  9
$TRACEWID
 40
0.05
  9
$TEXTSTYLE
  7
STANDARD
  9
$CLAYER
  8
0
  9
$CELTYPE
  6
BYLAYER
  9
$CECOLOR
 62
   256
  9
$DIMSCALE
 40
1.0
  9
$DIMASZ
 40
0.1875
  9
$DIMEXO
 40
0.0625
  9
$DIMDLI
 40
0.4443307087
  9
$DIMRND
 40
0.0
  9
$DIMDLE
 40
0.0
  9
$DIMEXE
 40
0.125
  9
$DIMTP
 40
0.01
  9
$DIMTM
 40
0.01
  9
$DIMTXT
 40
2.0
  9
$DIMCEN
 40
0.1052362205
  9
$DIMTSZ
 40
0.0
  9
$DIMTOL
 70
     1
  9
$DIMLIM
 70
     0
  9
$DIMTIH
 70
     1
  9
$DIMTOH
 70
     1
  9
$DIMSE1
 70
     0
  9
$DIMSE2
 70
     0
  9
$DIMTAD
 70
     0
  9
$DIMZIN
 70
     0
  9
$DIMBLK
  1

  9
$DIMASO
 70
     1
  9
$DIMSHO
 70
     1
  9
$DIMPOST
  1
\X
  9
$DIMAPOST
  1

  9
$DIMALT
 70
     1
  9
$DIMALTD
 70
     2
  9
$DIMALTF
 40
25.3999999999999986
  9
$DIMLFAC
 40
1.0
  9
$DIMTOFL
 70
     0
  9
$DIMTVP
 40
0.0
  9
$DIMTIX
 70
     0
  9
$DIMSOXD
 70
     0
  9
$DIMSAH
 70
     0
  9
$DIMBLK1
  1

  9
$DIMBLK2
  1

  9
$DIMSTYLE
  2
STANDARD
  9
$DIMCLRD
 70
     0
  9
$DIMCLRE
 70
     0
  9
$DIMCLRT
 70
     0
  9
$DIMTFAC
 40
1.0
  9
$DIMGAP
 40
0.09
  9
$LUNITS
 70
     2
  9
$LUPREC
 70
     4
  9
$SKETCHINC
 40
0.1
  9
$FILLETRAD
 40
0.0
  9
$AUNITS
 70
     0
  9
$AUPREC
 70
     0
  9
$MENU
  1
.
  9
$ELEVATION
 40
0.0
  9
$PELEVATION
 40
0.0
  9
$THICKNESS
 40
0.0
  9
$LIMCHECK
 70
     0
  9
$BLIPMODE
 70
     0
  9
$CHAMFERA
 40
0.0
  9
$CHAMFERB
 40
0.0
  9
$SKPOLY
 70
     0
  9
$TDCREATE
 40
2458060.468368056230247
  9
$TDUPDATE
 40
2459997.7498032408766448
  9
$TDINDWG
 40
0.2651922454
  9
$TDUSRTIMER
 40
0.2651922454
  9
$USRTIMER
 70
     1
  9
$ANGBASE
 50
0.0
  9
$ANGDIR
 70
     0
  9
$PDMODE
 70
     0
  9
$PDSIZE
 40
0.3125
  9
$PLINEWID
 40
0.0
  9
$COORDS
 70
     1
  9
$SPLFRAME
 70
     0
  9
$SPLINETYPE
 70
     6
  9
$SPLINESEGS
 70
     8
  9
$ATTDIA
 70
     1
  9
$ATTREQ
 70
     1
  9
$HANDLING
 70
     1
  9
$HANDSEED
  5
54D3
  9
$SURFTAB1
 70
     6
  9
$SURFTAB2
 70
     6
  9
$SURFTYPE
 70
     6
  9
$SURFU
 70
     6
  9
$SURFV
 70
     6
  9
$UCSNAME
  2

  9
$UCSORG
 10
0.0
 20
0.0
 30
0.0
  9
$UCSXDIR
 10
1.0
 20
0.0
 30
0.0
  9
$UCSYDIR
 10
0.0
 20
1.0
 30
0.0
  9
$PUCSNAME
  2

  9
$PUCSORG
 10
0.0
 20
0.0
 30
0.0
  9
$PUCSXDIR
 10
1.0
 20
0.0
 30
0.0
  9
$PUCSYDIR
 10
0.0
 20
1.0
 30
0.0
  9
$USERI1
 70
     0
  9
$USERI2
 70
     0
  9
$USERI3
 70
     0
  9
$USERI4
 70
     0
  9
$USERI5
 70
     0
  9
$USERR1
 40
0.0
  9
$USERR2
 40
0.0
  9
$USERR3
 40
0.0
  9
$USERR4
 40
0.0
  9
$USERR5
 40
0.0
  9
$WORLDVIEW
 70
     1
  9
$SHADEDGE
 70
     3
  9
$SHADEDIF
 70
    70
  9
$TILEMODE
 70
     1
  9
$MAXACTVP
 70
    64
  9
$PLIMCHECK
 70
     0
  9
$PEXTMIN
 10
1.0000000000000000E+20
 20
1.0000000000000000E+20
 30
1.0000000000000000E+20
  9
$PEXTMAX
 10
-1.0000000000000000E+20
 20
-1.0000000000000000E+20
 30
-1.0000000000000000E+20
  9
$PLIMMIN
 10
0.0
 20
0.0
  9
$PLIMMAX
 10
12.0
 20
9.0
  9
$UNITMODE
 70
     0
  9
$VISRETAIN
 70
     1
  9
$PLINEGEN
 70
     0
  9
$PSLTSCALE
 70
     1
  0
ENDSEC
  0
SECTION
  2
TABLES
  0
TABLE
  2
VPORT
 70
     1
  0
VPORT
  2
*ACTIVE
 70
     0
 10
0.0
 20
0.0
 11
1.0
 21
1.0
 12
196.3214701412238981
 22
41.3622831155934065
 13
0.0
 23
0.0
 14
1.0
 24
1.0
 15
0.0
 25
0.0
 16
0.0
 26
0.0
 36
198.6867210225404961
 17
1853.9051513671870453
 27
172.1114721461011925
 37
0.0
 40
21.2335305450833296
 41
2.5251322751322749
 42
50.0
 43
0.0
 44
0.0
 50
0.0
 51
0.0
 71
     0
 72
   100
 73
     1
 74
     1
 75
     0
 76
     0
 77
     0
 78
     0
  0
ENDTAB
  0
TABLE
  2
LTYPE
 70
     2
  0
LTYPE
  2
CONTINUOUS
 70
     0
  3
Solid line
 72
    65
 73
     0
 40
0.0
  0
LTYPE
  2
PHANTOM2
 70
     0
  3
___ _ _ ___ _ _ ___ _ _ ___ _ _
 72
    65
 73
     6
 40
1.25
 49
0.625
 49
-0.125
 49
0.125
 49
-0.125
 49
0.125
 49
-0.125
  0
ENDTAB
  0
TABLE
  2
LAYER
 70
     2
  0
LAYER
  2
0
 70
     0
 62
   255
  6
CONTINUOUS
  0
LAYER
  2
DEFPOINTS
 70
     0
 62
     7
  6
CONTINUOUS
  0
ENDTAB
  0
TABLE
  2
STYLE
 70
     1
  0
STYLE
  2
STANDARD
 70
     0
 40
0.0
 41
0.8
 50
0.0
 71
     0
 42
0.2
  3
txt
  4

  0
ENDTAB
  0
TABLE
  2
VIEW
 70
     0
  0
ENDTAB
  0
TABLE
  2
UCS
 70
     0
  0
ENDTAB
  0
TABLE
  2
APPID
 70
     9
  0
APPID
  2
ACAD
 70
     0
  0
APPID
  2
ACAD_MLEADERVER
 70
     0
  0
APPID
  2
ACAD_EXEMPT_FROM_CAD_STANDARDS
 70
     0
  0
APPID
  2
ACAD_NAV_VCDISPLAY
 70
     0
  0
APPID
  2
ACAECLAYERSTANDARD
 70
     0
  0
APPID
  2
ACCMTRANSPARENCY
 70
     0
  0
APPID
  2
ACAD_DSTYLE_DIMJAG
 70
     0
  0
APPID
  2
ACAD_DSTYLE_DIMTALN
 70
     0
  0
APPID
  2
ACDBATTR
 70
     0
  0
ENDTAB
  0
TABLE
  2
DIMSTYLE
 70
     1
  0
DIMSTYLE
  2
STANDARD
 70
     0
  3

  4

  5

  6

  7

 40
1.0
 41
0.1875
 42
0.0625
 43
0.38
 44
0.125
 45
0.0
 46
0.0
 47
0.01
 48
0.01
140
0.15625
141
0.09
142
0.0
143
25.3999999999999986
144
1.0
145
0.0
146
1.0
147
0.09
 71
     1
 72
     0
 73
     1
 74
     1
 75
     0
 76
     0
 77
     0
 78
     4
170
     0
171
     2
172
     0
173
     0
174
     0
175
     0
176
     0
177
     0
178
     0
  0
ENDTAB
  0
ENDSEC
  0
SECTION
  2
BLOCKS
  0
BLOCK
  8
0
  2
$MODEL_SPACE
 70
     0
 10
0.0
 20
0.0
 30
0.0
  3
$MODEL_SPACE
  1

  0
ENDBLK
  5
21
  8
0
  0
BLOCK
 67
     1
  8
0
  2
$PAPER_SPACE
 70
     0
 10
0.0
 20
0.0
 30
0.0
  3
$PAPER_SPACE
  1

  0
ENDBLK
  5
1D
 67
     1
  8
0
  0
BLOCK
  8
0
  2
_FILLED
 70
     0
 10
0.0
 20
0.0
 30
0.0
  3
_FILLED
  1

  0
SOLID
  5
518D
  8
0
  6
BYBLOCK
 62
     0
 10
0.0
 20
0.0
 30
0.0
 11
-1.0
 21
0.1666666667
 31
0.0
 12
-1.0
 22
-0.1666666667
 32
0.0
 13
-1.0
 23
-0.1666666667
 33
0.0
  0
ENDBLK
  5
518E
  8
0
  6
BYBLOCK
 62
     0
  0
ENDSEC
  0
SECTION
  2
ENTITIES
  0
LINE
  5
52CD
  8
0
 10
2034.9452454122510972
 20
224.0059747195026887
 30
0.0
 11
2065.568171944984897
 21
224.0059747195026887
 31
0.0
  0
LINE
  5
52CF
  8
0
 10
2040.3354518296680453
 20
206.6829002420026882
 30
0.0
 11
2060.1779715146681156
 21
206.6829002420026882
 31
0.0
  0
LINE
  5
52D0
  8
0
 10
2063.62285340446806
 20
206.6829002420026882
 30
0.0
 11
2065.5126171839669951
 21
206.6829002420026882
 31
0.0
  0
LINE
  5
52D2
  8
0
 10
2040.4117128794680411
 20
207.0766010294026103
 30
0.0
 11
2060.167256774876023
 21
207.0766010294026103
 31
0.0
  0
LINE
  5
52D3
  8
0
 10
2063.62285340446806
 20
207.0766010294026103
 30
0.0
 11
2065.5126171839669951
 21
207.0766010294026103
 31
0.0
  0
LINE
  5
52DA
  8
0
 10
2040.4929321445679307
 20
203.0017978798026945
 30
0.0
 11
2040.8078927745680176
 21
203.0017978798026945
 31
0.0
  0
LINE
  5
52DB
  8
0
 10
2041.7837383457679152
 20
203.0017978798026945
 30
0.0
 11
2042.0986989757680021
 21
203.0017978798026945
 31
0.0
  0
LINE
  5
52DC
  8
0
 10
2045.2982792286679796
 20
203.0017978798026945
 30
0.0
 11
2045.6132398585680221
 21
203.0017978798026945
 31
0.0
  0
LINE
  5
52DD
  8
0
 10
2050.0992313571678096
 20
203.0017978798026945
 30
0.0
 11
2050.4141919871681239
 21
203.0017978798026945
 31
0.0
  0
LINE
  5
52DE
  8
0
 10
2054.9001834857681388
 20
203.0017978798026945
 30
0.0
 11
2055.2151441156670444
 21
203.0017978798026945
 31
0.0
  0
LINE
  5
52DF
  8
0
 10
2058.4147243685670219
 20
203.0017978798026945
 30
0.0
 11
2058.7296849985677909
 21
203.0017978798026945
 31
0.0
  0
LINE
  5
52E0
  8
0
 10
2059.7055305697681433
 20
203.0017978798026945
 30
0.0
 11
2060.0204911997680028
 21
203.0017978798026945
 31
0.0
  0
LINE
  5
52E9
  8
0
 10
2040.7488376563680958
 20
202.9427427617025899
 30
0.0
 11
2041.2606486800680159
 21
202.9427427617025899
 31
0.0
  0
LINE
  5
52EA
  8
0
 10
2042.2114360815680811
 20
202.9427427617025899
 30
0.0
 11
2042.9476565540680895
 21
202.9427427617025899
 31
0.0
  0
LINE
  5
52EB
  8
0
 10
2057.565766790267844
 20
202.9427427617025899
 30
0.0
 11
2058.301987262667808
 21
202.9427427617025899
 31
0.0
  0
LINE
  5
52EC
  8
0
 10
2059.252774664268145
 20
202.9427427617025899
 30
0.0
 11
2059.7645856878671111
 21
202.9427427617025899
 31
0.0
  0
LINE
  5
5338
  8
0
 10
2034.5086801760680828
 20
223.1395931554025935
 30
0.0
 11
2066.0047431682669412
 21
223.1395931554025935
 31
0.0
  0
LINE
  5
533A
  8
0
 10
2040.3354518296680453
 20
203.1395931554027072
 30
0.0
 11
2040.3518484865680875
 21
203.1395931554027072
 31
0.0
  0
LINE
  5
533B
  8
0
 10
2040.4033184133679697
 20
203.1395931554027072
 30
0.0
 11
2065.5126171839669951
 21
203.1395931554027072
 31
0.0
  0
LINE
  5
53B6
  8
0
 10
2040.3354518296680453
 20
203.0805380373026878
 30
0.0
 11
2040.3354518296680453
 21
206.6829002420026882
 31
0.0
  0
LINE
  5
53B7
  8
0
 10
2040.3354518296680453
 20
203.0805380373026026
 30
0.0
 11
2040.9752148018681055
 21
203.0805380373026026
 31
0.0
  0
LINE
  5
53B8
  8
0
 10
2041.5208169587679095
 20
203.0805380373026026
 30
0.0
 11
2042.2554726295679757
 21
203.0805380373026026
 31
0.0
  0
LINE
  5
53B9
  8
0
 10
2045.0425630660679417
 20
203.0805380373026026
 30
0.0
 11
2045.7772187368670984
 21
203.0805380373026026
 31
0.0
  0
LINE
  5
53BA
  8
0
 10
2049.9614360815680811
 20
203.0805380373026026
 30
0.0
 11
2050.551987262667808
 21
203.0805380373026026
 31
0.0
  0
LINE
  5
53BB
  8
0
 10
2054.736204607468153
 20
203.0805380373026026
 30
0.0
 11
2055.4708602782670823
 21
203.0805380373026026
 31
0.0
  0
LINE
  5
53BC
  8
0
 10
2058.2579507147679578
 20
203.0805380373026026
 30
0.0
 11
2058.9926063855677967
 21
203.0805380373026026
 31
0.0
  0
LINE
  5
53BD
  8
0
 10
2059.5382085424680554
 20
203.0805380373026026
 30
0.0
 11
2060.1779715146681156
 21
203.0805380373026026
 31
0.0
  0
LINE
  5
53BE
  8
0
 10
2065.5126171839669951
 20
223.1395931554025935
 30
0.0
 11
2065.5126171839669951
 21
203.1395931554027072
 31
0.0
  0
ARC
  5
53BF
  8
0
 10
2096.9325425953347803
 20
226.1008623589017077
 30
0.0
 40
31.0692435166432617
 50
184.5365959330023031
 51
185.4692728859230897
  0
ARC
  5
53C0
  8
0
 10
2065.568171944984897
 20
223.6122747195026079
 30
0.0
 40
0.3937
 50
4.536595933005561
 51
90.0
  0
ARC
  5
53C1
  8
0
 10
1992.4240913866719893
 20
227.0769549499707978
 30
0.0
 40
42.2683738919987206
 50
354.6550641219735098
 51
355.3417544489764168
  0
ARC
  5
53C2
  8
0
 10
2034.9452454122510972
 20
223.6122747195026079
 30
0.0
 40
0.3937
 50
90.0
 51
175.3417544489763884
  0
LINE
  5
53C3
  8
0
 10
2040.4117128794680411
 20
207.0766010294026103
 30
0.0
 11
2038.4230263726678913
 21
223.1395931554025935
 31
0.0
  0
LINE
  5
53C4
  8
0
 10
2040.8078927745680176
 20
206.6829002420026882
 30
0.0
 11
2040.8423371302681062
 21
207.0766010294026103
 31
0.0
  0
LINE
  5
53C5
  8
0
 10
2040.7237757320679066
 20
207.0766010294026103
 30
0.0
 11
2040.7216500699059907
 21
207.0523045998079965
 31
0.0
  0
LINE
  5
53C6
  8
0
 10
2040.7216500699059907
 20
207.0523045998079965
 30
0.0
 11
2040.8393108610900981
 21
207.0420106144007093
 31
0.0
  0
LINE
  5
53C7
  8
0
 10
2063.62285340446806
 20
203.1395931554027072
 30
0.0
 11
2063.62285340446806
 21
223.0765352196256117
 31
0.0
  0
ARC
  5
53C8
  8
0
 10
2063.5149613181620225
 20
223.1556410238304977
 30
0.0
 40
0.0791241011075544
 50
191.7070502892337913
 51
268.369806230515394
  0
LINE
  5
53C9
  8
0
 10
2063.512710363288079
 20
223.0765489472472893
 30
0.0
 11
2063.7701105794681098
 21
223.0765168663025975
 31
0.0
  0
ARC
  5
53CA
  8
0
 10
2063.7701525424208739
 20
223.1555936235106969
 30
0.0
 40
0.0790767684420045
 50
269.9695953712275127
 51
348.3111229546574918
  0
LINE
  5
53CB
  8
0
 10
2060.1779715146681156
 20
203.0805380373026026
 30
0.0
 11
2060.1779715146681156
 21
206.6829002420026882
 31
0.0
  0
LINE
  5
53CC
  8
0
 10
2060.1189163965677835
 20
206.6829002420026882
 30
0.0
 11
2062.1395442098678359
 21
223.1395931554025935
 31
0.0
  0
LINE
  5
53CD
  8
0
 10
2059.7055305697681433
 20
206.6829002420026882
 30
0.0
 11
2059.6710862140680547
 21
207.0766010294026103
 31
0.0
  0
LINE
  5
53CE
  8
0
 10
2059.6741124832451533
 20
207.0420106144007093
 30
0.0
 11
2059.7917732743940178
 21
207.0523045995053906
 31
0.0
  0
LINE
  5
53CF
  8
0
 10
2059.7917732743940178
 20
207.0523045995053906
 30
0.0
 11
2059.7896476122677996
 21
207.0766010294026103
 31
0.0
  0
LINE
  5
53D0
  8
0
 10
2060.1017104648681197
 20
207.0766010294026103
 30
0.0
 11
2062.0874284142669239
 21
223.1395895134025977
 31
0.0
  0
LINE
  5
53D1
  8
0
 10
2060.127197373513809
 20
207.2827712562418014
 30
0.0
 11
2060.1916003532110153
 21
207.2748635646586877
 31
0.0
  0
LINE
  5
53D2
  8
0
 10
2060.1562266870178064
 20
207.517596916480187
 30
0.0
 11
2060.220436234978024
 21
207.5097129753278864
 31
0.0
  0
LINE
  5
53D3
  8
0
 10
2040.7955210504680963
 20
203.1395931554027072
 30
0.0
 11
2040.7955210504680963
 21
203.0805380373026026
 31
0.0
  0
LINE
  5
53D4
  8
0
 10
2040.4929321445679307
 20
203.0805380373026878
 30
0.0
 11
2040.4929321445679307
 21
203.0017978798026945
 31
0.0
  0
LINE
  5
53D5
  8
0
 10
2040.3518484865680875
 20
203.1395931554027072
 30
0.0
 11
2040.3518484865680875
 21
203.0805380373026878
 31
0.0
  0
LINE
  5
53D6
  8
0
 10
2040.4033184133679697
 20
203.1395931554027072
 30
0.0
 11
2040.4033184133679697
 21
203.0805380373026878
 31
0.0
  0
LINE
  5
53D7
  8
0
 10
2040.7488376563680958
 20
202.9427427617025899
 30
0.0
 11
2040.7340738768680239
 21
203.0017978798026945
 31
0.0
  0
LINE
  5
53D8
  8
0
 10
2040.8078927745680176
 20
203.0805380373026026
 30
0.0
 11
2040.8078927745680176
 21
203.0017978798026945
 31
0.0
  0
LINE
  5
53D9
  8
0
 10
2040.9752148018681055
 20
203.1395931554027072
 30
0.0
 11
2040.9752148018681055
 21
203.0805380373026878
 31
0.0
  0
LINE
  5
53DA
  8
0
 10
2041.3000187587679193
 20
203.1395931554027072
 30
0.0
 11
2041.3000187587679193
 21
203.1002230766027026
 31
0.0
  0
LINE
  5
53DB
  8
0
 10
2041.3000187587679193
 20
203.1002230766027026
 30
0.0
 11
2041.2606486800680159
 21
202.9427427617025899
 31
0.0
  0
LINE
  5
53DC
  8
0
 10
2041.5208169587679095
 20
203.1395931554027072
 30
0.0
 11
2041.5208169587679095
 21
203.0805380373026878
 31
0.0
  0
LINE
  5
53DD
  8
0
 10
2041.8160925493680224
 20
203.1395931554027072
 30
0.0
 11
2041.8160925493680224
 21
203.0805380373026026
 31
0.0
  0
LINE
  5
53DE
  8
0
 10
2041.7837383457679152
 20
203.0805380373026026
 30
0.0
 11
2041.7837383457679152
 21
203.0017978798026945
 31
0.0
  0
LINE
  5
53DF
  8
0
 10
2042.0986989757680021
 20
203.0805380373026026
 30
0.0
 11
2042.0986989757680021
 21
203.0017978798026945
 31
0.0
  0
LINE
  5
53E0
  8
0
 10
2042.2554726295679757
 20
203.1395931554027072
 30
0.0
 11
2042.2554726295679757
 21
203.0805380373026878
 31
0.0
  0
LINE
  5
53E1
  8
0
 10
2042.1570474327679676
 20
203.1395931554027072
 30
0.0
 11
2042.1570474327679676
 21
203.0805380373026878
 31
0.0
  0
LINE
  5
53E2
  8
0
 10
2042.2114360815680811
 20
203.0805380373026026
 30
0.0
 11
2042.2114360815680811
 21
202.9427427617025899
 31
0.0
  0
LINE
  5
53E3
  8
0
 10
2042.5795463178681075
 20
203.1395931554027072
 30
0.0
 11
2042.5795463178681075
 21
202.9427427617025899
 31
0.0
  0
LINE
  5
53E4
  8
0
 10
2042.9476565540680895
 20
203.1395931554027072
 30
0.0
 11
2042.9476565540680895
 21
202.9427427617025899
 31
0.0
  0
LINE
  5
53E5
  8
0
 10
2045.0425630660679417
 20
203.1395931554027072
 30
0.0
 11
2045.0425630660679417
 21
203.0805380373026026
 31
0.0
  0
LINE
  5
53E6
  8
0
 10
2045.2982792286679796
 20
203.0805380373026026
 30
0.0
 11
2045.2982792286679796
 21
203.0017978798026945
 31
0.0
  0
LINE
  5
53E7
  8
0
 10
2045.6132398585680221
 20
203.0805380373026878
 30
0.0
 11
2045.6132398585680221
 21
203.0017978798026945
 31
0.0
  0
LINE
  5
53E8
  8
0
 10
2045.7772187368670984
 20
203.1395931554027072
 30
0.0
 11
2045.7772187368670984
 21
203.0805380373026026
 31
0.0
  0
LINE
  5
53E9
  8
0
 10
2045.5539953911679731
 20
203.1395931554027072
 30
0.0
 11
2045.5539953911679731
 21
203.0805380373026878
 31
0.0
  0
LINE
  5
53EA
  8
0
 10
2049.9614360815680811
 20
203.1395931554027072
 30
0.0
 11
2049.9614360815680811
 21
203.0805380373026878
 31
0.0
  0
LINE
  5
53EB
  8
0
 10
2050.0992313571678096
 20
203.0805380373026878
 30
0.0
 11
2050.0992313571678096
 21
203.0017978798026945
 31
0.0
  0
LINE
  5
53EC
  8
0
 10
2050.4141919871681239
 20
203.0805380373026878
 30
0.0
 11
2050.4141919871681239
 21
203.0017978798026945
 31
0.0
  0
LINE
  5
53ED
  8
0
 10
2050.551987262667808
 20
203.1395931554027072
 30
0.0
 11
2050.551987262667808
 21
203.0805380373026878
 31
0.0
  0
LINE
  5
53EE
  8
0
 10
2054.736204607468153
 20
203.1395931554027072
 30
0.0
 11
2054.736204607468153
 21
203.0805380373026026
 31
0.0
  0
LINE
  5
53EF
  8
0
 10
2054.9001834857681388
 20
203.0805380373026026
 30
0.0
 11
2054.9001834857681388
 21
203.0017978798026945
 31
0.0
  0
LINE
  5
53F0
  8
0
 10
2055.2151441156670444
 20
203.0805380373026026
 30
0.0
 11
2055.2151441156670444
 21
203.0017978798026945
 31
0.0
  0
LINE
  5
53F1
  8
0
 10
2055.4708602782670823
 20
203.1395931554027072
 30
0.0
 11
2055.4708602782670823
 21
203.0805380373026878
 31
0.0
  0
LINE
  5
53F2
  8
0
 10
2057.565766790267844
 20
203.1395931554027072
 30
0.0
 11
2057.565766790267844
 21
202.9427427617025899
 31
0.0
  0
LINE
  5
53F3
  8
0
 10
2057.9338770264680534
 20
203.1395931554027072
 30
0.0
 11
2057.9338770264680534
 21
202.9427427617025899
 31
0.0
  0
LINE
  5
53F4
  8
0
 10
2058.2579507147679578
 20
203.1395931554027072
 30
0.0
 11
2058.2579507147679578
 21
203.0805380373026878
 31
0.0
  0
LINE
  5
53F5
  8
0
 10
2058.301987262667808
 20
203.0805380373026878
 30
0.0
 11
2058.301987262667808
 21
202.9427427617025899
 31
0.0
  0
LINE
  5
53F6
  8
0
 10
2059.5382085424680554
 20
203.1395931554027072
 30
0.0
 11
2059.5382085424680554
 21
203.0805380373026026
 31
0.0
  0
LINE
  5
53F7
  8
0
 10
2059.7645856878671111
 20
202.9427427617025899
 30
0.0
 11
2059.7793494674679096
 21
203.0017978798026945
 31
0.0
  0
LINE
  5
53F8
  8
0
 10
2059.7055305697681433
 20
203.0017978798026945
 30
0.0
 11
2059.7055305697681433
 21
203.0805380373026878
 31
0.0
  0
LINE
  5
53F9
  8
0
 10
2059.2134045855677869
 20
203.1395931554027072
 30
0.0
 11
2059.2134045855677869
 21
203.1002230766027026
 31
0.0
  0
LINE
  5
53FA
  8
0
 10
2059.2134045855677869
 20
203.1002230766027026
 30
0.0
 11
2059.252774664268145
 21
202.9427427617025899
 31
0.0
  0
LINE
  5
53FB
  8
0
 10
2058.9926063855677967
 20
203.0805380373026026
 30
0.0
 11
2058.9926063855677967
 21
203.1395931554027072
 31
0.0
  0
LINE
  5
53FC
  8
0
 10
2058.4147243685670219
 20
203.0017978798026945
 30
0.0
 11
2058.4147243685670219
 21
203.0805380373026878
 31
0.0
  0
LINE
  5
53FD
  8
0
 10
2058.7296849985677909
 20
203.0017978798026945
 30
0.0
 11
2058.7296849985677909
 21
203.0805380373026026
 31
0.0
  0
LINE
  5
53FE
  8
0
 10
2060.0204911997680028
 20
203.0805380373026026
 30
0.0
 11
2060.0204911997680028
 21
203.0017978798026945
 31
0.0
  0
ATTDEF
  5
5405
  8
DEFPOINTS
 10
2050.2574774972499654
 20
202.9998611040307992
 30
0.0
 40
0.001
  1
K-23074T
  3

  2
MODELNUMBER
 70
     0
1001
ACDBATTR
1070
     0
1070
     1
  0
ATTDEF
  5
5406
  8
DEFPOINTS
 10
2050.2574774972499654
 20
202.9981944373641056
 30
0.0
 40
0.001
  1
VOLUTE
  3

  2
TRADENAME
 70
     0
1001
ACDBATTR
1070
     0
1070
     1
  0
ATTDEF
  5
5407
  8
DEFPOINTS
 10
2050.2574774972499654
 20
202.9965277706974121
 30
0.0
 40
0.001
  1
BATH
  3

  2
PRODUCT
 70
     0
1001
ACDBATTR
1070
     0
1070
     1
  0
ENDSEC
  0
EOF
