  0
SECTION
  2
HEADER
  9
$ACADVER
  1
AC1009
  9
$INSBASE
 10
1991.4933922177181103
 20
203.0017978798026093
 30
0.0
  9
$EXTMIN
 10
1957.9379738360730698
 20
202.9404770030917007
 30
-0.0015258207003583
  9
$EXTMAX
 10
2025.0856476405128888
 20
224.0070335202975969
 30
0.0000000349246037
  9
$LIMMIN
 10
0.0
 20
0.0
  9
$LIMMAX
 10
11.6929133858000007
 20
8.2677165353999982
  9
$ORTHOMODE
 70
     0
  9
$REGENMODE
 70
     1
  9
$FILLMODE
 70
     1
  9
$QTEXTMODE
 70
     0
  9
$MIRRTEXT
 70
     0
  9
$DRAGMODE
 70
     2
  9
$LTSCALE
 40
0.6431102362
  9
$OSMODE
 70
  4095
  9
$ATTMODE
 70
     1
  9
$TEXTSIZE
 40
0.2
  9
$TRACEWID
 40
0.05
  9
$TEXTSTYLE
  7
STANDARD
  9
$CLAYER
  8
0
  9
$CELTYPE
  6
BYLAYER
  9
$CECOLOR
 62
   256
  9
$DIMSCALE
 40
1.0
  9
$DIMASZ
 40
0.1875
  9
$DIMEXO
 40
0.0625
  9
$DIMDLI
 40
0.4443307087
  9
$DIMRND
 40
0.0
  9
$DIMDLE
 40
0.0
  9
$DIMEXE
 40
0.125
  9
$DIMTP
 40
0.01
  9
$DIMTM
 40
0.01
  9
$DIMTXT
 40
2.0
  9
$DIMCEN
 40
0.1052362205
  9
$DIMTSZ
 40
0.0
  9
$DIMTOL
 70
     1
  9
$DIMLIM
 70
     0
  9
$DIMTIH
 70
     1
  9
$DIMTOH
 70
     1
  9
$DIMSE1
 70
     0
  9
$DIMSE2
 70
     0
  9
$DIMTAD
 70
     0
  9
$DIMZIN
 70
     0
  9
$DIMBLK
  1

  9
$DIMASO
 70
     1
  9
$DIMSHO
 70
     1
  9
$DIMPOST
  1
\X
  9
$DIMAPOST
  1

  9
$DIMALT
 70
     1
  9
$DIMALTD
 70
     2
  9
$DIMALTF
 40
25.3999999999999986
  9
$DIMLFAC
 40
1.0
  9
$DIMTOFL
 70
     0
  9
$DIMTVP
 40
0.0
  9
$DIMTIX
 70
     0
  9
$DIMSOXD
 70
     0
  9
$DIMSAH
 70
     0
  9
$DIMBLK1
  1

  9
$DIMBLK2
  1

  9
$DIMSTYLE
  2
STANDARD
  9
$DIMCLRD
 70
     0
  9
$DIMCLRE
 70
     0
  9
$DIMCLRT
 70
     0
  9
$DIMTFAC
 40
1.0
  9
$DIMGAP
 40
0.09
  9
$LUNITS
 70
     2
  9
$LUPREC
 70
     4
  9
$SKETCHINC
 40
0.1
  9
$FILLETRAD
 40
0.0
  9
$AUNITS
 70
     0
  9
$AUPREC
 70
     0
  9
$MENU
  1
.
  9
$ELEVATION
 40
0.0
  9
$PELEVATION
 40
0.0
  9
$THICKNESS
 40
0.0
  9
$LIMCHECK
 70
     0
  9
$BLIPMODE
 70
     0
  9
$CHAMFERA
 40
0.0
  9
$CHAMFERB
 40
0.0
  9
$SKPOLY
 70
     0
  9
$TDCREATE
 40
2458060.468368056230247
  9
$TDUPDATE
 40
2459997.7492824080400169
  9
$TDINDWG
 40
0.2646945602
  9
$TDUSRTIMER
 40
0.2646945602
  9
$USRTIMER
 70
     1
  9
$ANGBASE
 50
0.0
  9
$ANGDIR
 70
     0
  9
$PDMODE
 70
     0
  9
$PDSIZE
 40
0.3125
  9
$PLINEWID
 40
0.0
  9
$COORDS
 70
     1
  9
$SPLFRAME
 70
     0
  9
$SPLINETYPE
 70
     6
  9
$SPLINESEGS
 70
     8
  9
$ATTDIA
 70
     1
  9
$ATTREQ
 70
     1
  9
$HANDLING
 70
     1
  9
$HANDSEED
  5
54D3
  9
$SURFTAB1
 70
     6
  9
$SURFTAB2
 70
     6
  9
$SURFTYPE
 70
     6
  9
$SURFU
 70
     6
  9
$SURFV
 70
     6
  9
$UCSNAME
  2

  9
$UCSORG
 10
0.0
 20
0.0
 30
0.0
  9
$UCSXDIR
 10
1.0
 20
0.0
 30
0.0
  9
$UCSYDIR
 10
0.0
 20
1.0
 30
0.0
  9
$PUCSNAME
  2

  9
$PUCSORG
 10
0.0
 20
0.0
 30
0.0
  9
$PUCSXDIR
 10
1.0
 20
0.0
 30
0.0
  9
$PUCSYDIR
 10
0.0
 20
1.0
 30
0.0
  9
$USERI1
 70
     0
  9
$USERI2
 70
     0
  9
$USERI3
 70
     0
  9
$USERI4
 70
     0
  9
$USERI5
 70
     0
  9
$USERR1
 40
0.0
  9
$USERR2
 40
0.0
  9
$USERR3
 40
0.0
  9
$USERR4
 40
0.0
  9
$USERR5
 40
0.0
  9
$WORLDVIEW
 70
     1
  9
$SHADEDGE
 70
     3
  9
$SHADEDIF
 70
    70
  9
$TILEMODE
 70
     1
  9
$MAXACTVP
 70
    64
  9
$PLIMCHECK
 70
     0
  9
$PEXTMIN
 10
1.0000000000000000E+20
 20
1.0000000000000000E+20
 30
1.0000000000000000E+20
  9
$PEXTMAX
 10
-1.0000000000000000E+20
 20
-1.0000000000000000E+20
 30
-1.0000000000000000E+20
  9
$PLIMMIN
 10
0.0
 20
0.0
  9
$PLIMMAX
 10
12.0
 20
9.0
  9
$UNITMODE
 70
     0
  9
$VISRETAIN
 70
     1
  9
$PLINEGEN
 70
     0
  9
$PSLTSCALE
 70
     1
  0
ENDSEC
  0
SECTION
  2
TABLES
  0
TABLE
  2
VPORT
 70
     1
  0
VPORT
  2
*ACTIVE
 70
     0
 10
0.0
 20
0.0
 11
1.0
 21
1.0
 12
137.6066593711051951
 22
41.3622831155934065
 13
0.0
 23
0.0
 14
1.0
 24
1.0
 15
0.0
 25
0.0
 16
0.0
 26
0.0
 36
198.6867210225404961
 17
1853.9051513671870453
 27
172.1114721461011925
 37
0.0
 40
26.6752127291529604
 41
2.5251322751322749
 42
50.0
 43
0.0
 44
0.0
 50
0.0
 51
0.0
 71
     0
 72
   100
 73
     1
 74
     1
 75
     0
 76
     0
 77
     0
 78
     0
  0
ENDTAB
  0
TABLE
  2
LTYPE
 70
     2
  0
LTYPE
  2
CONTINUOUS
 70
     0
  3
Solid line
 72
    65
 73
     0
 40
0.0
  0
LTYPE
  2
PHANTOM2
 70
     0
  3
___ _ _ ___ _ _ ___ _ _ ___ _ _
 72
    65
 73
     6
 40
1.25
 49
0.625
 49
-0.125
 49
0.125
 49
-0.125
 49
0.125
 49
-0.125
  0
ENDTAB
  0
TABLE
  2
LAYER
 70
     2
  0
LAYER
  2
0
 70
     0
 62
   255
  6
CONTINUOUS
  0
LAYER
  2
DEFPOINTS
 70
     0
 62
     7
  6
CONTINUOUS
  0
ENDTAB
  0
TABLE
  2
STYLE
 70
     1
  0
STYLE
  2
STANDARD
 70
     0
 40
0.0
 41
0.8
 50
0.0
 71
     0
 42
0.2
  3
txt
  4

  0
ENDTAB
  0
TABLE
  2
VIEW
 70
     0
  0
ENDTAB
  0
TABLE
  2
UCS
 70
     0
  0
ENDTAB
  0
TABLE
  2
APPID
 70
     9
  0
APPID
  2
ACAD
 70
     0
  0
APPID
  2
ACAD_MLEADERVER
 70
     0
  0
APPID
  2
ACAD_EXEMPT_FROM_CAD_STANDARDS
 70
     0
  0
APPID
  2
ACAD_NAV_VCDISPLAY
 70
     0
  0
APPID
  2
ACAECLAYERSTANDARD
 70
     0
  0
APPID
  2
ACCMTRANSPARENCY
 70
     0
  0
APPID
  2
ACAD_DSTYLE_DIMJAG
 70
     0
  0
APPID
  2
ACAD_DSTYLE_DIMTALN
 70
     0
  0
APPID
  2
ACDBATTR
 70
     0
  0
ENDTAB
  0
TABLE
  2
DIMSTYLE
 70
     1
  0
DIMSTYLE
  2
STANDARD
 70
     0
  3

  4

  5

  6

  7

 40
1.0
 41
0.1875
 42
0.0625
 43
0.38
 44
0.125
 45
0.0
 46
0.0
 47
0.01
 48
0.01
140
0.15625
141
0.09
142
0.0
143
25.3999999999999986
144
1.0
145
0.0
146
1.0
147
0.09
 71
     1
 72
     0
 73
     1
 74
     1
 75
     0
 76
     0
 77
     0
 78
     4
170
     0
171
     2
172
     0
173
     0
174
     0
175
     0
176
     0
177
     0
178
     0
  0
ENDTAB
  0
ENDSEC
  0
SECTION
  2
BLOCKS
  0
BLOCK
  8
0
  2
$MODEL_SPACE
 70
     0
 10
0.0
 20
0.0
 30
0.0
  3
$MODEL_SPACE
  1

  0
ENDBLK
  5
21
  8
0
  0
BLOCK
 67
     1
  8
0
  2
$PAPER_SPACE
 70
     0
 10
0.0
 20
0.0
 30
0.0
  3
$PAPER_SPACE
  1

  0
ENDBLK
  5
1D
 67
     1
  8
0
  0
BLOCK
  8
0
  2
_FILLED
 70
     0
 10
0.0
 20
0.0
 30
0.0
  3
_FILLED
  1

  0
SOLID
  5
518D
  8
0
  6
BYBLOCK
 62
     0
 10
0.0
 20
0.0
 30
0.0
 11
-1.0
 21
0.1666666667
 31
0.0
 12
-1.0
 22
-0.1666666667
 32
0.0
 13
-1.0
 23
-0.1666666667
 33
0.0
  0
ENDBLK
  5
518E
  8
0
  6
BYBLOCK
 62
     0
  0
ENDSEC
  0
SECTION
  2
ENTITIES
  0
ATTDEF
  5
3930
  8
DEFPOINTS
 10
1991.4943781630529429
 20
202.9997576568968043
 30
0.0
 40
0.001
  1
K-23074T
  3

  2
MODELNUMBER
 70
     0
1001
ACDBATTR
1070
     0
1070
     1
  0
ATTDEF
  5
3931
  8
DEFPOINTS
 10
1991.4943781630529429
 20
202.998090990230196
 30
0.0
 40
0.001
  1
VOLUTE
  3

  2
TRADENAME
 70
     0
1001
ACDBATTR
1070
     0
1070
     1
  0
ATTDEF
  5
3932
  8
DEFPOINTS
 10
1991.4943781630529429
 20
202.9964243235635024
 30
0.0
 40
0.001
  1
BATH
  3

  2
PRODUCT
 70
     0
1001
ACDBATTR
1070
     0
1070
     1
  0
LINE
  5
52CE
  8
0
 10
2024.5214009984870245
 20
224.0059747195026887
 30
0.0
 11
1958.4653834369489687
 21
224.0059747195026887
 31
0.0
  0
LINE
  5
52D1
  8
0
 10
2015.7650457609679506
 20
206.6829002420026882
 30
0.0
 11
1967.2217386743670886
 21
206.6829002420026029
 31
0.0
  0
LINE
  5
52D4
  8
0
 10
2015.7649788310679924
 20
207.0766010294026103
 30
0.0
 11
1967.2218056043680008
 21
207.0766010294026103
 31
0.0
  0
LINE
  5
52D9
  8
0
 10
1967.2217386743670886
 20
206.6829002420026882
 30
0.0
 11
1967.2217386743670886
 21
203.0805380373024889
 31
0.0
  0
LINE
  5
52E1
  8
0
 10
2015.6031704905669812
 20
203.0017978798026945
 30
0.0
 11
2015.2882098606680756
 21
203.0017978798026945
 31
0.0
  0
LINE
  5
52E2
  8
0
 10
2014.3167592448680807
 20
203.0017978798026945
 30
0.0
 11
2014.0017986149680382
 21
203.0017978798026945
 31
0.0
  0
LINE
  5
52E3
  8
0
 10
2010.8022183620669239
 20
203.0017978798026945
 30
0.0
 11
2010.4872577320679738
 21
203.0017978798026945
 31
0.0
  0
LINE
  5
52E4
  8
0
 10
2006.8417085129678981
 20
203.0017978798026945
 30
0.0
 11
2006.526747883068083
 21
203.0017978798026945
 31
0.0
  0
LINE
  5
52E5
  8
0
 10
2004.55933709958299
 20
203.0017978798026945
 30
0.0
 11
2004.0179985169149859
 21
203.0017978798026945
 31
0.0
  0
LINE
  5
52E6
  8
0
 10
2001.8870930050679817
 20
203.0017978798026945
 30
0.0
 11
2001.5721323751679392
 21
203.0017978798026945
 31
0.0
  0
LINE
  5
52E7
  8
0
 10
1996.7689827688679998
 20
203.0017978798026945
 30
0.0
 11
1996.4540221389670478
 21
203.0017978798026945
 31
0.0
  0
LINE
  5
52E8
  8
0
 10
1995.8831559972670675
 20
203.0017978798026945
 30
0.0
 11
1995.5681953672669806
 21
203.0017978798026945
 31
0.0
  0
LINE
  5
52ED
  8
0
 10
2008.6507327702679504
 20
202.9427427617025899
 30
0.0
 11
2007.8006185943679611
 21
202.9427427617025899
 31
0.0
  0
LINE
  5
52EE
  8
0
 10
2004.544573320067002
 20
202.9427427617025899
 30
0.0
 11
2004.0327622964680359
 21
202.9427427617025899
 31
0.0
  0
LINE
  5
5339
  8
0
 10
2024.9579591468680064
 20
223.1395931554025935
 30
0.0
 11
1958.0288252885670772
 21
223.1395931554025935
 31
0.0
  0
LINE
  5
533C
  8
0
 10
2015.7650457609679506
 20
203.1395931554027072
 30
0.0
 11
2015.7649788310679924
 21
203.1395931554027072
 31
0.0
  0
LINE
  5
533D
  8
0
 10
2015.760650805566911
 20
203.1395931554027072
 30
0.0
 11
1967.2261336298670358
 21
203.1395931554027072
 31
0.0
  0
LINE
  5
533E
  8
0
 10
2015.2581604603678898
 20
207.0766010294026103
 30
0.0
 11
2015.2926048161671133
 21
206.6829002420026882
 31
0.0
  0
LINE
  5
533F
  8
0
 10
2015.7649788310679924
 20
207.4917041722025886
 30
0.0
 11
2015.7649788310679924
 21
207.0766010294026103
 31
0.0
  0
LINE
  5
5340
  8
0
 10
2015.7650457609679506
 20
203.0805380373026878
 30
0.0
 11
2015.1700996244680937
 21
203.0805380373026878
 31
0.0
  0
LINE
  5
5341
  8
0
 10
2014.5796806318680865
 20
203.0805380373026878
 30
0.0
 11
2013.8450249610680203
 21
203.0805380373026878
 31
0.0
  0
LINE
  5
5342
  8
0
 10
2011.0579345245680543
 20
203.0805380373026878
 30
0.0
 11
2010.323278853767988
 21
203.0805380373026878
 31
0.0
  0
LINE
  5
5343
  8
0
 10
2007.0022496212679926
 20
203.0805380373026878
 30
0.0
 11
2006.3788833059679746
 21
203.0805380373026878
 31
0.0
  0
LINE
  5
5344
  8
0
 10
2004.579022138945902
 20
203.0805380373026878
 30
0.0
 11
2003.9983134775020517
 21
203.0805380373026878
 31
0.0
  0
LINE
  5
5345
  8
0
 10
2002.0248882806679376
 20
203.0805380373026878
 30
0.0
 11
2001.4343370995670739
 21
203.0805380373026878
 31
0.0
  0
LINE
  5
5346
  8
0
 10
1996.9067780444670461
 20
203.0805380373026878
 30
0.0
 11
1996.3162268633680014
 21
203.0805380373026878
 31
0.0
  0
LINE
  5
5347
  8
0
 10
1996.0209512728670234
 20
203.0805380373026878
 30
0.0
 11
1995.4304000917679787
 21
203.0805380373026878
 31
0.0
  0
ARC
  5
5348
  8
0
 10
2029.9789449582940506
 20
214.9877156976509127
 30
0.0
 40
11.1648568546590301
 50
133.1021017359915959
 51
157.9606928493427915
  0
ARC
  5
5349
  8
0
 10
1939.8151746828059458
 20
251.4882165306622994
 30
0.0
 40
86.106886377132497
 50
334.6533486105378188
 51
337.96069284934282
  0
ARC
  5
534A
  8
0
 10
2035.6792084315309239
 20
206.0779634011852011
 30
0.0
 40
19.9685775900814093
 50
154.6533486105377051
 51
166.5158228305064938
  0
ARC
  5
534B
  8
0
 10
2035.3791263921950758
 20
206.149919083325301
 30
0.0
 40
19.6599891092133987
 50
166.5158228305064938
 51
176.0865476042835098
  0
LINE
  5
534C
  8
0
 10
2024.9579591468680064
 20
223.1395931554025935
 30
0.0
 11
2024.9136028511240966
 21
223.6465879354404933
 31
0.0
  0
ARC
  5
534D
  8
0
 10
2024.5214009984870245
 20
223.6122747195026932
 30
0.0
 40
0.3937
 50
5.0000000026430698
 51
90.0
  0
LINE
  5
534E
  8
0
 10
2015.760650805566911
 20
203.1395931554027072
 30
0.0
 11
2015.760650805566911
 21
203.0805380373026878
 31
0.0
  0
LINE
  5
534F
  8
0
 10
2015.6031704905669812
 20
203.0017978798026945
 30
0.0
 11
2015.6031704905669812
 21
203.0805380373026878
 31
0.0
  0
LINE
  5
5350
  8
0
 10
2015.1700996244680937
 20
203.0805380373026878
 30
0.0
 11
2015.1700996244680937
 21
203.1395931554027072
 31
0.0
  0
LINE
  5
5351
  8
0
 10
2015.2882098606680756
 20
203.0805380373026878
 30
0.0
 11
2015.2882098606680756
 21
203.0017978798026945
 31
0.0
  0
LINE
  5
5352
  8
0
 10
2014.5796806318680865
 20
203.1395931554027072
 30
0.0
 11
2014.5796806318680865
 21
203.0805380373026878
 31
0.0
  0
LINE
  5
5353
  8
0
 10
2014.3167592448680807
 20
203.0805380373026878
 30
0.0
 11
2014.3167592448680807
 21
203.0017978798026945
 31
0.0
  0
LINE
  5
5354
  8
0
 10
2014.0017986149680382
 20
203.0805380373026878
 30
0.0
 11
2014.0017986149680382
 21
203.0017978798026945
 31
0.0
  0
LINE
  5
5355
  8
0
 10
2013.8450249610680203
 20
203.1395931554027072
 30
0.0
 11
2013.8450249610680203
 21
203.0805380373026878
 31
0.0
  0
LINE
  5
5356
  8
0
 10
2011.0579345245680543
 20
203.1395931554027072
 30
0.0
 11
2011.0579345245680543
 21
203.0805380373026878
 31
0.0
  0
LINE
  5
5357
  8
0
 10
2010.8022183620669239
 20
203.0805380373026878
 30
0.0
 11
2010.8022183620669239
 21
203.0017978798026945
 31
0.0
  0
LINE
  5
5358
  8
0
 10
2010.4872577320679738
 20
203.0805380373026878
 30
0.0
 11
2010.4872577320679738
 21
203.0017978798026945
 31
0.0
  0
LINE
  5
5359
  8
0
 10
2010.323278853767988
 20
203.1395931554027072
 30
0.0
 11
2010.323278853767988
 21
203.0805380373026878
 31
0.0
  0
LINE
  5
535A
  8
0
 10
2008.6507327702679504
 20
203.1395931554027072
 30
0.0
 11
2008.6507327702679504
 21
202.9427427617025899
 31
0.0
  0
LINE
  5
535B
  8
0
 10
2007.8006185943679611
 20
203.1395931554027072
 30
0.0
 11
2007.8006185943679611
 21
202.9427427617025899
 31
0.0
  0
LINE
  5
535C
  8
0
 10
2006.8417085129678981
 20
203.0805380373026878
 30
0.0
 11
2006.8417085129678981
 21
203.0017978798026945
 31
0.0
  0
LINE
  5
535D
  8
0
 10
2007.0022496212679926
 20
203.1395931554027072
 30
0.0
 11
2007.0022496212679926
 21
203.0805380373026878
 31
0.0
  0
LINE
  5
535E
  8
0
 10
2006.3788833059679746
 20
203.1395931554027072
 30
0.0
 11
2006.3788833059679746
 21
203.0805380373026878
 31
0.0
  0
LINE
  5
535F
  8
0
 10
2006.526747883068083
 20
203.0805380373026878
 30
0.0
 11
2006.526747883068083
 21
203.0017978798026945
 31
0.0
  0
LINE
  5
5360
  8
0
 10
1991.6508725326671083
 20
203.0805380373026878
 30
0.0
 11
1991.6508725326671083
 21
203.0017978798026945
 31
0.0
  0
LINE
  5
5361
  8
0
 10
1991.7886678082679737
 20
203.1395931554027072
 30
0.0
 11
1991.7886678082679737
 21
203.0805380373026878
 31
0.0
  0
LINE
  5
5362
  8
0
 10
1995.4304000917679787
 20
203.1395931554027072
 30
0.0
 11
1995.4304000917679787
 21
203.0805380373026878
 31
0.0
  0
LINE
  5
5363
  8
0
 10
1995.5681953672669806
 20
203.0805380373026878
 30
0.0
 11
1995.5681953672669806
 21
203.0017978798026945
 31
0.0
  0
LINE
  5
5364
  8
0
 10
1995.8831559972670675
 20
203.0805380373026878
 30
0.0
 11
1995.8831559972670675
 21
203.0017978798026945
 31
0.0
  0
LINE
  5
5365
  8
0
 10
1996.0209512728670234
 20
203.1395931554027072
 30
0.0
 11
1996.0209512728670234
 21
203.0805380373026878
 31
0.0
  0
LINE
  5
5366
  8
0
 10
1996.3162268633680014
 20
203.1395931554027072
 30
0.0
 11
1996.3162268633680014
 21
203.0805380373026878
 31
0.0
  0
LINE
  5
5367
  8
0
 10
1996.4540221389670478
 20
203.0805380373026878
 30
0.0
 11
1996.4540221389670478
 21
203.0017978798026945
 31
0.0
  0
LINE
  5
5368
  8
0
 10
1996.7689827688679998
 20
203.0805380373026878
 30
0.0
 11
1996.7689827688679998
 21
203.0017978798026945
 31
0.0
  0
LINE
  5
5369
  8
0
 10
1996.9067780444670461
 20
203.1395931554027072
 30
0.0
 11
1996.9067780444670461
 21
203.0805380373026878
 31
0.0
  0
LINE
  5
536A
  8
0
 10
2001.4343370995670739
 20
203.1395931554027072
 30
0.0
 11
2001.4343370995670739
 21
203.0805380373026878
 31
0.0
  0
LINE
  5
536B
  8
0
 10
2001.5721323751679392
 20
203.0805380373026878
 30
0.0
 11
2001.5721323751679392
 21
203.0017978798026945
 31
0.0
  0
LINE
  5
536C
  8
0
 10
2001.8870930050679817
 20
203.0805380373026878
 30
0.0
 11
2001.8870930050679817
 21
203.0017978798026945
 31
0.0
  0
LINE
  5
536D
  8
0
 10
2002.0248882806679376
 20
203.1395931554027072
 30
0.0
 11
2002.0248882806679376
 21
203.0805380373026878
 31
0.0
  0
LINE
  5
536E
  8
0
 10
2003.9933922176680881
 20
203.1395931554027072
 30
0.0
 11
2003.9933922176680881
 21
203.1002230766027026
 31
0.0
  0
LINE
  5
536F
  8
0
 10
2003.9933922176680881
 20
203.1002230766027026
 30
0.0
 11
2004.0327622964680359
 21
202.9427427617025899
 31
0.0
  0
LINE
  5
5370
  8
0
 10
2004.5839433987680422
 20
203.1395931554027072
 30
0.0
 11
2004.5839433987680422
 21
203.0978741690992138
 31
0.0
  0
LINE
  5
5371
  8
0
 10
2004.5839433987680422
 20
203.0978741690992138
 30
0.0
 11
2004.544573320067002
 21
202.9427427617025899
 31
0.0
  0
CIRCLE
  5
5372
  8
0
 10
1996.6891887578669866
 20
221.8036115571026983
 30
0.0
 40
0.3165863016419689
  0
LINE
  5
5373
  8
0
 10
1967.3836139448681024
 20
203.0017978798024103
 30
0.0
 11
1967.6985745747679175
 21
203.0017978798024103
 31
0.0
  0
LINE
  5
5374
  8
0
 10
1968.6700251905679124
 20
203.0017978798024956
 30
0.0
 11
1968.9849858204670454
 21
203.0017978798024956
 31
0.0
  0
LINE
  5
5375
  8
0
 10
1972.1845660733679324
 20
203.0017978798024956
 30
0.0
 11
1972.4995267033680193
 21
203.0017978798024956
 31
0.0
  0
LINE
  5
5376
  8
0
 10
1976.1450759224680951
 20
203.0017978798024956
 30
0.0
 11
1976.4600365523670007
 21
203.0017978798024956
 31
0.0
  0
LINE
  5
5377
  8
0
 10
1978.4274473358520936
 20
203.0017978798026093
 30
0.0
 11
1978.9687859185210073
 21
203.0017978798026093
 31
0.0
  0
LINE
  5
5378
  8
0
 10
1981.0996914303680114
 20
203.0017978798026093
 30
0.0
 11
1981.4146520602680539
 21
203.0017978798026093
 31
0.0
  0
LINE
  5
5379
  8
0
 10
1986.2178016665670839
 20
203.0017978798026093
 30
0.0
 11
1986.5327622964680359
 21
203.0017978798026093
 31
0.0
  0
LINE
  5
537A
  8
0
 10
1987.1036284381680161
 20
203.0017978798026093
 30
0.0
 11
1987.4185890680669218
 21
203.0017978798026093
 31
0.0
  0
LINE
  5
537B
  8
0
 10
1991.3359119027670658
 20
203.0017978798026093
 30
0.0
 11
1991.6508725326671083
 21
203.0017978798026093
 31
0.0
  0
LINE
  5
537C
  8
0
 10
1974.3360516651680427
 20
202.9427427617025046
 30
0.0
 11
1975.186165841068032
 21
202.9427427617025046
 31
0.0
  0
LINE
  5
537D
  8
0
 10
1978.4422111153680817
 20
202.9427427617025046
 30
0.0
 11
1978.9540221389679573
 21
202.9427427617025046
 31
0.0
  0
LINE
  5
537E
  8
0
 10
1967.7286239750681034
 20
207.0766010294024966
 30
0.0
 11
1967.6941796192679703
 21
206.6829002420024892
 31
0.0
  0
LINE
  5
537F
  8
0
 10
1967.2218056043680008
 20
207.4917041722025033
 30
0.0
 11
1967.2218056043680008
 21
207.0766010294024966
 31
0.0
  0
LINE
  5
5380
  8
0
 10
1967.2217386744669056
 20
203.0805380373024889
 30
0.0
 11
1967.2218056043680008
 21
203.0805380373024889
 31
0.0
  0
LINE
  5
5381
  8
0
 10
1967.2218056043680008
 20
203.0805380373024889
 30
0.0
 11
1967.81668481096699
 21
203.0805380373024889
 31
0.0
  0
LINE
  5
5382
  8
0
 10
1968.4071038035679067
 20
203.0805380373024889
 30
0.0
 11
1969.1417594743679729
 21
203.0805380373024889
 31
0.0
  0
LINE
  5
5383
  8
0
 10
1971.9288499108679389
 20
203.0805380373024889
 30
0.0
 11
1972.6635055816680051
 21
203.0805380373024889
 31
0.0
  0
LINE
  5
5384
  8
0
 10
1975.9845348141680006
 20
203.0805380373024889
 30
0.0
 11
1976.6079011294680186
 21
203.0805380373024889
 31
0.0
  0
LINE
  5
5385
  8
0
 10
1978.4077622964889542
 20
203.0805380373024889
 30
0.0
 11
1978.988470957933032
 21
203.0805380373024889
 31
0.0
  0
LINE
  5
5386
  8
0
 10
1980.9618961547680556
 20
203.0805380373026026
 30
0.0
 11
1981.5524473358680098
 21
203.0805380373026026
 31
0.0
  0
LINE
  5
5387
  8
0
 10
1986.0800063909680375
 20
203.0805380373026026
 30
0.0
 11
1986.6705575720679917
 21
203.0805380373026026
 31
0.0
  0
LINE
  5
5388
  8
0
 10
1986.9658331625680603
 20
203.0805380373026026
 30
0.0
 11
1987.556384343667105
 21
203.0805380373026026
 31
0.0
  0
LINE
  5
5389
  8
0
 10
1991.19811662716711
 20
203.0805380373026026
 30
0.0
 11
1991.7886678082679737
 21
203.0805380373026026
 31
0.0
  0
ARC
  5
538A
  8
0
 10
1953.0078394771410331
 20
214.9877156976506001
 30
0.0
 40
11.1648568546590301
 50
22.0393071506586793
 51
46.8978982640084183
  0
ARC
  5
538B
  8
0
 10
2043.1716097526280009
 20
251.488216530662811
 30
0.0
 40
86.106886377132497
 50
202.0393071506586864
 51
205.3466513894622096
  0
ARC
  5
538C
  8
0
 10
1947.3075760039050692
 20
206.0779634011848884
 30
0.0
 40
19.9685775900814093
 50
13.4841771694934707
 51
25.3466513894622487
  0
ARC
  5
538D
  8
0
 10
1947.6076580432409173
 20
206.1499190833249031
 30
0.0
 40
19.6599891092133987
 50
3.9134523957164951
 51
13.4841771694934707
  0
LINE
  5
538E
  8
0
 10
1958.0288252885670772
 20
223.1395931554023946
 30
0.0
 11
1958.0731815843109871
 21
223.6465879354402091
 31
0.0
  0
ARC
  5
538F
  8
0
 10
1958.4653834369489687
 20
223.612274719502409
 30
0.0
 40
0.3937
 50
90.0
 51
174.9999999973568947
  0
LINE
  5
5390
  8
0
 10
1967.2261336298679453
 20
203.1395931554023946
 30
0.0
 11
1967.2261336298679453
 21
203.0805380373024889
 31
0.0
  0
LINE
  5
5391
  8
0
 10
1967.3836139448681024
 20
203.0017978798024103
 30
0.0
 11
1967.3836139448681024
 21
203.0805380373024889
 31
0.0
  0
LINE
  5
5392
  8
0
 10
1967.81668481096699
 20
203.0805380373024889
 30
0.0
 11
1967.81668481096699
 21
203.1395931554023946
 31
0.0
  0
LINE
  5
5393
  8
0
 10
1967.6985745747679175
 20
203.0805380373024889
 30
0.0
 11
1967.6985745747679175
 21
203.0017978798024956
 31
0.0
  0
LINE
  5
5394
  8
0
 10
1968.4071038035679067
 20
203.1395931554023946
 30
0.0
 11
1968.4071038035679067
 21
203.0805380373024889
 31
0.0
  0
LINE
  5
5395
  8
0
 10
1968.6700251905679124
 20
203.0805380373024889
 30
0.0
 11
1968.6700251905679124
 21
203.0017978798024956
 31
0.0
  0
LINE
  5
5396
  8
0
 10
1968.9849858204670454
 20
203.0805380373024889
 30
0.0
 11
1968.9849858204670454
 21
203.0017978798024956
 31
0.0
  0
LINE
  5
5397
  8
0
 10
1969.1417594743679729
 20
203.1395931554023946
 30
0.0
 11
1969.1417594743679729
 21
203.0805380373024889
 31
0.0
  0
LINE
  5
5398
  8
0
 10
1971.9288499108679389
 20
203.1395931554025083
 30
0.0
 11
1971.9288499108679389
 21
203.0805380373024889
 31
0.0
  0
LINE
  5
5399
  8
0
 10
1972.1845660733679324
 20
203.0805380373024889
 30
0.0
 11
1972.1845660733679324
 21
203.0017978798024956
 31
0.0
  0
LINE
  5
539A
  8
0
 10
1972.4995267033680193
 20
203.0805380373024889
 30
0.0
 11
1972.4995267033680193
 21
203.0017978798024956
 31
0.0
  0
LINE
  5
539B
  8
0
 10
1972.6635055816680051
 20
203.1395931554025083
 30
0.0
 11
1972.6635055816680051
 21
203.0805380373024889
 31
0.0
  0
LINE
  5
539C
  8
0
 10
1974.3360516651680427
 20
203.1395931554025083
 30
0.0
 11
1974.3360516651680427
 21
202.9427427617025046
 31
0.0
  0
LINE
  5
539D
  8
0
 10
1975.186165841068032
 20
203.1395931554025083
 30
0.0
 11
1975.186165841068032
 21
202.9427427617025046
 31
0.0
  0
LINE
  5
539E
  8
0
 10
1976.1450759224680951
 20
203.0805380373024889
 30
0.0
 11
1976.1450759224680951
 21
203.0017978798024956
 31
0.0
  0
LINE
  5
539F
  8
0
 10
1975.9845348141680006
 20
203.1395931554025083
 30
0.0
 11
1975.9845348141680006
 21
203.0805380373024889
 31
0.0
  0
LINE
  5
53A0
  8
0
 10
1976.6079011294680186
 20
203.1395931554025083
 30
0.0
 11
1976.6079011294680186
 21
203.0805380373024889
 31
0.0
  0
LINE
  5
53A1
  8
0
 10
1976.4600365523670007
 20
203.0805380373024889
 30
0.0
 11
1976.4600365523670007
 21
203.0017978798024956
 31
0.0
  0
LINE
  5
53A2
  8
0
 10
1991.3359119027670658
 20
203.0805380373026878
 30
0.0
 11
1991.3359119027670658
 21
203.0017978798026945
 31
0.0
  0
LINE
  5
53A3
  8
0
 10
1991.1981166271680195
 20
203.1395931554027072
 30
0.0
 11
1991.1981166271680195
 21
203.0805380373026878
 31
0.0
  0
LINE
  5
53A4
  8
0
 10
1987.556384343667105
 20
203.1395931554025935
 30
0.0
 11
1987.556384343667105
 21
203.0805380373026026
 31
0.0
  0
LINE
  5
53A5
  8
0
 10
1987.418589068168103
 20
203.0805380373026026
 30
0.0
 11
1987.418589068168103
 21
203.0017978798026093
 31
0.0
  0
LINE
  5
53A6
  8
0
 10
1987.1036284381680161
 20
203.0805380373026026
 30
0.0
 11
1987.1036284381680161
 21
203.0017978798026093
 31
0.0
  0
LINE
  5
53A7
  8
0
 10
1986.9658331625680603
 20
203.1395931554025935
 30
0.0
 11
1986.9658331625680603
 21
203.0805380373026026
 31
0.0
  0
LINE
  5
53A8
  8
0
 10
1986.6705575720679917
 20
203.1395931554025935
 30
0.0
 11
1986.6705575720679917
 21
203.0805380373026026
 31
0.0
  0
LINE
  5
53A9
  8
0
 10
1986.5327622964680359
 20
203.0805380373026026
 30
0.0
 11
1986.5327622964680359
 21
203.0017978798026093
 31
0.0
  0
LINE
  5
53AA
  8
0
 10
1986.2178016665670839
 20
203.0805380373026026
 30
0.0
 11
1986.2178016665670839
 21
203.0017978798026093
 31
0.0
  0
LINE
  5
53AB
  8
0
 10
1986.0800063909680375
 20
203.1395931554025935
 30
0.0
 11
1986.0800063909680375
 21
203.0805380373026026
 31
0.0
  0
LINE
  5
53AC
  8
0
 10
1981.5524473358680098
 20
203.1395931554025935
 30
0.0
 11
1981.5524473358680098
 21
203.0805380373026026
 31
0.0
  0
LINE
  5
53AD
  8
0
 10
1981.4146520602680539
 20
203.0805380373026026
 30
0.0
 11
1981.4146520602680539
 21
203.0017978798026093
 31
0.0
  0
LINE
  5
53AE
  8
0
 10
1981.0996914303680114
 20
203.0805380373026026
 30
0.0
 11
1981.0996914303680114
 21
203.0017978798026093
 31
0.0
  0
LINE
  5
53AF
  8
0
 10
1980.9618961547680556
 20
203.1395931554025935
 30
0.0
 11
1980.9618961547680556
 21
203.0805380373026026
 31
0.0
  0
LINE
  5
53B0
  8
0
 10
1978.9933922177679051
 20
203.1395931554025935
 30
0.0
 11
1978.9933922177679051
 21
203.1002230766025889
 31
0.0
  0
LINE
  5
53B1
  8
0
 10
1978.9933922177679051
 20
203.1002230766025889
 30
0.0
 11
1978.9540221389679573
 21
202.9427427617025046
 31
0.0
  0
LINE
  5
53B2
  8
0
 10
1978.4028410366679509
 20
203.1395931554025083
 30
0.0
 11
1978.4028410366679509
 21
203.0978741690991001
 31
0.0
  0
LINE
  5
53B3
  8
0
 10
1978.4028410366679509
 20
203.0978741690991001
 30
0.0
 11
1978.4422111153680817
 21
202.9427427617025046
 31
0.0
  0
CIRCLE
  5
53B4
  8
0
 10
1986.068794713655052
 20
221.803611557102613
 30
0.0
 40
0.3165863016419689
  0
LINE
  5
53B5
  8
0
 10
2015.7650457609679506
 20
203.0805380373026878
 30
0.0
 11
2015.7650457609679506
 21
206.6829002420026882
 31
0.0
  0
ENDSEC
  0
EOF
