  0
SECTION
  2
HEADER
  9
$ACADVER
  1
AC1009
  9
$INSBASE
 10
4114.4096694535528513
 20
160.040211757019506
 30
0.0
  9
$EXTMIN
 10
4107.2639546528625942
 20
158.6606526378812987
 30
-0.0000000000112498
  9
$EXTMAX
 10
4114.4842157480361493
 20
161.4194112491651936
 30
0.0000000000002956
  9
$LIMMIN
 10
0.0
 20
0.0
  9
$LIMMAX
 10
11.6929133858000007
 20
8.2677165353999982
  9
$ORTHOMODE
 70
     0
  9
$REGENMODE
 70
     1
  9
$FILLMODE
 70
     1
  9
$QTEXTMODE
 70
     0
  9
$MIRRTEXT
 70
     0
  9
$DRAGMODE
 70
     2
  9
$LTSCALE
 40
0.6431102362
  9
$OSMODE
 70
  4095
  9
$ATTMODE
 70
     1
  9
$TEXTSIZE
 40
0.2
  9
$TRACEWID
 40
0.05
  9
$TEXTSTYLE
  7
STANDARD
  9
$CLAYER
  8
0
  9
$CELTYPE
  6
BYLAYER
  9
$CECOLOR
 62
   256
  9
$DIMSCALE
 40
1.0
  9
$DIMASZ
 40
0.1875
  9
$DIMEXO
 40
0.0625
  9
$DIMDLI
 40
0.4443307087
  9
$DIMRND
 40
0.0
  9
$DIMDLE
 40
0.0
  9
$DIMEXE
 40
0.125
  9
$DIMTP
 40
0.01
  9
$DIMTM
 40
0.01
  9
$DIMTXT
 40
2.0
  9
$DIMCEN
 40
0.1052362205
  9
$DIMTSZ
 40
0.0
  9
$DIMTOL
 70
     1
  9
$DIMLIM
 70
     0
  9
$DIMTIH
 70
     1
  9
$DIMTOH
 70
     1
  9
$DIMSE1
 70
     0
  9
$DIMSE2
 70
     0
  9
$DIMTAD
 70
     0
  9
$DIMZIN
 70
     0
  9
$DIMBLK
  1

  9
$DIMASO
 70
     1
  9
$DIMSHO
 70
     1
  9
$DIMPOST
  1
\X
  9
$DIMAPOST
  1

  9
$DIMALT
 70
     1
  9
$DIMALTD
 70
     2
  9
$DIMALTF
 40
25.3999999999999986
  9
$DIMLFAC
 40
1.0
  9
$DIMTOFL
 70
     0
  9
$DIMTVP
 40
0.0
  9
$DIMTIX
 70
     0
  9
$DIMSOXD
 70
     0
  9
$DIMSAH
 70
     0
  9
$DIMBLK1
  1

  9
$DIMBLK2
  1

  9
$DIMSTYLE
  2
STANDARD
  9
$DIMCLRD
 70
     0
  9
$DIMCLRE
 70
     0
  9
$DIMCLRT
 70
     0
  9
$DIMTFAC
 40
1.0
  9
$DIMGAP
 40
0.09
  9
$LUNITS
 70
     2
  9
$LUPREC
 70
     4
  9
$SKETCHINC
 40
0.1
  9
$FILLETRAD
 40
0.0
  9
$AUNITS
 70
     0
  9
$AUPREC
 70
     0
  9
$MENU
  1
.
  9
$ELEVATION
 40
0.0
  9
$PELEVATION
 40
0.0
  9
$THICKNESS
 40
0.0
  9
$LIMCHECK
 70
     0
  9
$BLIPMODE
 70
     0
  9
$CHAMFERA
 40
0.0
  9
$CHAMFERB
 40
0.0
  9
$SKPOLY
 70
     0
  9
$TDCREATE
 40
2458060.468368056230247
  9
$TDUPDATE
 40
2459128.7529398151673377
  9
$TDINDWG
 40
0.4084677083
  9
$TDUSRTIMER
 40
0.4084677083
  9
$USRTIMER
 70
     1
  9
$ANGBASE
 50
0.0
  9
$ANGDIR
 70
     0
  9
$PDMODE
 70
     0
  9
$PDSIZE
 40
0.3125
  9
$PLINEWID
 40
0.0
  9
$COORDS
 70
     1
  9
$SPLFRAME
 70
     0
  9
$SPLINETYPE
 70
     6
  9
$SPLINESEGS
 70
     8
  9
$ATTDIA
 70
     1
  9
$ATTREQ
 70
     1
  9
$HANDLING
 70
     1
  9
$HANDSEED
  5
159C9
  9
$SURFTAB1
 70
     6
  9
$SURFTAB2
 70
     6
  9
$SURFTYPE
 70
     6
  9
$SURFU
 70
     6
  9
$SURFV
 70
     6
  9
$UCSNAME
  2

  9
$UCSORG
 10
0.0
 20
0.0
 30
0.0
  9
$UCSXDIR
 10
1.0
 20
0.0
 30
0.0
  9
$UCSYDIR
 10
0.0
 20
1.0
 30
0.0
  9
$PUCSNAME
  2

  9
$PUCSORG
 10
0.0
 20
0.0
 30
0.0
  9
$PUCSXDIR
 10
1.0
 20
0.0
 30
0.0
  9
$PUCSYDIR
 10
0.0
 20
1.0
 30
0.0
  9
$USERI1
 70
     0
  9
$USERI2
 70
     0
  9
$USERI3
 70
     0
  9
$USERI4
 70
     0
  9
$USERI5
 70
     0
  9
$USERR1
 40
0.0
  9
$USERR2
 40
0.0
  9
$USERR3
 40
0.0
  9
$USERR4
 40
0.0
  9
$USERR5
 40
0.0
  9
$WORLDVIEW
 70
     1
  9
$SHADEDGE
 70
     3
  9
$SHADEDIF
 70
    70
  9
$TILEMODE
 70
     1
  9
$MAXACTVP
 70
    64
  9
$PLIMCHECK
 70
     0
  9
$PEXTMIN
 10
1.0000000000000000E+20
 20
1.0000000000000000E+20
 30
1.0000000000000000E+20
  9
$PEXTMAX
 10
-1.0000000000000000E+20
 20
-1.0000000000000000E+20
 30
-1.0000000000000000E+20
  9
$PLIMMIN
 10
0.0
 20
0.0
  9
$PLIMMAX
 10
12.0
 20
9.0
  9
$UNITMODE
 70
     0
  9
$VISRETAIN
 70
     1
  9
$PLINEGEN
 70
     0
  9
$PSLTSCALE
 70
     1
  0
ENDSEC
  0
SECTION
  2
TABLES
  0
TABLE
  2
VPORT
 70
     1
  0
VPORT
  2
*ACTIVE
 70
     0
 10
0.0
 20
0.0
 11
1.0
 21
1.0
 12
199.5087287443720072
 22
27.4604268365314717
 13
0.0
 23
0.0
 14
1.0
 24
1.0
 15
0.0
 25
0.0
 16
0.0
 26
0.0
 36
60.4960186965801583
 17
3911.3653564453120453
 27
132.5796051025390057
 37
0.0
 40
7.2881503433174446
 41
1.8592017738359199
 42
50.0
 43
0.0
 44
0.0
 50
0.0
 51
0.0
 71
     0
 72
   100
 73
     1
 74
     1
 75
     0
 76
     0
 77
     0
 78
     0
  0
ENDTAB
  0
TABLE
  2
LTYPE
 70
     3
  0
LTYPE
  2
CONTINUOUS
 70
     0
  3
Solid line
 72
    65
 73
     0
 40
0.0
  0
LTYPE
  2
PHANTOM2
 70
     0
  3
___ _ _ ___ _ _ ___ _ _ ___ _ _
 72
    65
 73
     6
 40
1.25
 49
0.625
 49
-0.125
 49
0.125
 49
-0.125
 49
0.125
 49
-0.125
  0
ENDTAB
  0
TABLE
  2
LAYER
 70
     2
  0
LAYER
  2
0
 70
     0
 62
   255
  6
CONTINUOUS
  0
LAYER
  2
DEFPOINTS
 70
     0
 62
     7
  6
CONTINUOUS
  0
ENDTAB
  0
TABLE
  2
STYLE
 70
     1
  0
STYLE
  2
STANDARD
 70
     0
 40
0.0
 41
0.8
 50
0.0
 71
     0
 42
0.2
  3
txt
  4

  0
ENDTAB
  0
TABLE
  2
VIEW
 70
     0
  0
ENDTAB
  0
TABLE
  2
UCS
 70
     0
  0
ENDTAB
  0
TABLE
  2
APPID
 70
    10
  0
APPID
  2
ACAD
 70
     0
  0
APPID
  2
ACAD_MLEADERVER
 70
     0
  0
APPID
  2
ACAD_EXEMPT_FROM_CAD_STANDARDS
 70
     0
  0
APPID
  2
ACAD_NAV_VCDISPLAY
 70
     0
  0
APPID
  2
ACAECLAYERSTANDARD
 70
     0
  0
APPID
  2
ACCMTRANSPARENCY
 70
     0
  0
APPID
  2
ACAD_DSTYLE_DIMJAG
 70
     0
  0
APPID
  2
ACAD_DSTYLE_DIMTALN
 70
     0
  0
APPID
  2
ACDBATTR
 70
     0
  0
APPID
  2
ACADANNOTATIVE
 70
     0
  0
ENDTAB
  0
TABLE
  2
DIMSTYLE
 70
     2
  0
DIMSTYLE
  2
STANDARD
 70
     0
  3

  4

  5

  6

  7

 40
1.0
 41
0.1875
 42
0.0625
 43
0.38
 44
0.125
 45
0.0
 46
0.0
 47
0.01
 48
0.01
140
0.15625
141
0.09
142
0.0
143
25.3999999999999986
144
1.0
145
0.0
146
1.0
147
0.09
 71
     1
 72
     0
 73
     1
 74
     1
 75
     0
 76
     0
 77
     0
 78
     4
170
     0
171
     2
172
     0
173
     0
174
     0
175
     0
176
     0
177
     0
178
     0
  0
ENDTAB
  0
ENDSEC
  0
SECTION
  2
BLOCKS
  0
BLOCK
  8
0
  2
$MODEL_SPACE
 70
     0
 10
0.0
 20
0.0
 30
0.0
  3
$MODEL_SPACE
  1

  0
ENDBLK
  5
21
  8
0
  0
BLOCK
 67
     1
  8
0
  2
$PAPER_SPACE
 70
     0
 10
0.0
 20
0.0
 30
0.0
  3
$PAPER_SPACE
  1

  0
ENDBLK
  5
1D
 67
     1
  8
0
  0
ENDSEC
  0
SECTION
  2
ENTITIES
  0
LINE
  5
1574C
  8
0
 10
4107.4410971075103589
 20
160.4716596758538003
 30
0.0
 11
4107.441102494284678
 21
159.8637988875603924
 31
0.0
  0
LINE
  5
1574D
  8
0
 10
4108.0815528037946933
 20
159.7601140864105957
 30
0.0
 11
4108.086164830193411
 21
159.7743084441289056
 31
0.0
  0
LINE
  5
1574E
  8
0
 10
4108.1137143091018515
 20
159.7571736211193922
 30
0.0
 11
4108.1154276989018399
 21
159.762446892519506
 31
0.0
  0
LINE
  5
1574F
  8
0
 10
4108.1126317479347563
 20
159.7538418403798062
 30
0.0
 11
4108.1132035746022666
 21
159.755601741819504
 31
0.0
  0
LINE
  5
15750
  8
0
 10
4108.1164634889028093
 20
159.7656347264195063
 30
0.0
 11
4108.1186451068033421
 21
159.7723490558194896
 31
0.0
  0
LINE
  5
15751
  8
0
 10
4108.128159937302371
 20
159.7639956398265895
 30
0.0
 11
4108.1269760920640692
 21
159.7603521387445085
 31
0.0
  0
LINE
  5
15752
  8
0
 10
4108.1253652521745607
 20
159.7553944833134949
 30
0.0
 11
4108.1247815708320559
 21
159.7535980970160949
 31
0.0
  0
LINE
  5
15753
  8
0
 10
4108.1305837964027887
 20
159.7512086031194087
 30
0.0
 11
4108.1308752093864314
 21
159.7521054798914122
 31
0.0
  0
LINE
  5
15754
  8
0
 10
4108.1319448358372028
 20
159.7553974516197002
 30
0.0
 11
4108.1328270681005961
 21
159.7581126833945859
 31
0.0
  0
LINE
  5
15755
  8
0
 10
4108.1349966659918209
 20
159.7647900190748089
 30
0.0
 11
4108.136493578163936
 21
159.7693970411285989
 31
0.0
  0
LINE
  5
15756
  8
0
 10
4108.1417144152028413
 20
159.750544374319503
 30
0.0
 11
4108.1428884999031652
 21
159.7541578354195053
 31
0.0
  0
LINE
  5
15757
  8
0
 10
4108.1472496574033357
 20
159.7675800981195096
 30
0.0
 11
4108.1483403821039246
 21
159.7709370036658925
 31
0.0
  0
LINE
  5
15758
  8
0
 10
4108.1436219060033181
 20
159.7564150272195036
 30
0.0
 11
4108.1460036241032867
 21
159.7637452020194928
 31
0.0
  0
LINE
  5
15759
  8
0
 10
4108.1546505629967214
 20
159.7554369925354081
 30
0.0
 11
4108.153761876513272
 21
159.7527018965795094
 31
0.0
  0
LINE
  5
1575A
  8
0
 10
4108.1583464317118342
 20
159.7668117069339075
 30
0.0
 11
4108.156836338181165
 21
159.7621641169072007
 31
0.0
  0
LINE
  5
1575B
  8
0
 10
4108.1526844878098927
 20
159.7493860354053936
 30
0.0
 11
4108.1523910469795737
 21
159.7484829173552043
 31
0.0
  0
LINE
  5
1575C
  8
0
 10
4108.1592386660913689
 20
159.7493108138627917
 30
0.0
 11
4108.1598290401625491
 21
159.7511277982480067
 31
0.0
  0
LINE
  5
1575D
  8
0
 10
4108.1614586051300648
 20
159.7561430835488068
 30
0.0
 11
4108.1626564238540595
 21
159.7598295905794998
 31
0.0
  0
LINE
  5
1575E
  8
0
 10
4108.1654257654799949
 20
159.7683527477682901
 30
0.0
 11
4108.1659849558063797
 21
159.7700737586386026
 31
0.0
  0
LINE
  5
1575F
  8
0
 10
4108.1736009707028643
 20
159.7585926912194907
 30
0.0
 11
4108.1766444984032205
 21
159.7679597066195072
 31
0.0
  0
LINE
  5
15760
  8
0
 10
4108.1708135815033529
 20
159.7500139895194877
 30
0.0
 11
4108.1726041463025467
 21
159.7555247814194104
 31
0.0
  0
LINE
  5
15761
  8
0
 10
4108.1697311431016715
 20
159.7466825867194871
 30
0.0
 11
4108.170322327003305
 21
159.7485020635195099
 31
0.0
  0
LINE
  5
15762
  8
0
 10
4108.1883132453731378
 20
159.7689516658286095
 30
0.0
 11
4108.187633716253913
 21
159.7668602904032014
 31
0.0
  0
LINE
  5
15763
  8
0
 10
4108.1819833016497796
 20
159.7494701023589982
 30
0.0
 11
4108.1813874717536237
 21
159.7476363266061981
 31
0.0
  0
LINE
  5
15764
  8
0
 10
4108.1848373641769285
 20
159.7582540035724037
 30
0.0
 11
4108.1836281493815477
 21
159.7545324232227983
 31
0.0
  0
LINE
  5
15765
  8
0
 10
4108.1873756886516276
 20
159.7458192549447062
 30
0.0
 11
4108.1876734498546284
 21
159.7467356696542993
 31
0.0
  0
LINE
  5
15766
  8
0
 10
4108.1887666619522861
 20
159.7501002307467104
 30
0.0
 11
4108.1896685440551664
 21
159.7528759382689998
 31
0.0
  0
LINE
  5
15767
  8
0
 10
4108.1918873740678464
 20
159.7597047948785018
 30
0.0
 11
4108.1934207982349108
 21
159.7644241891674994
 31
0.0
  0
LINE
  5
15768
  8
0
 10
4108.2008071520031081
 20
159.7522362978193939
 30
0.0
 11
4108.2032480581019627
 21
159.7597486342195054
 31
0.0
  0
LINE
  5
15769
  8
0
 10
4108.1988534367028478
 20
159.746223380419508
 30
0.0
 11
4108.2000558514027944
 21
159.7499240323195124
 31
0.0
  0
LINE
  5
1576A
  8
0
 10
4108.2045257294030307
 20
159.7636809021194892
 30
0.0
 11
4108.2059370855222369
 21
159.768024609584387
 31
0.0
  0
LINE
  5
1576B
  8
0
 10
4108.2159854758483561
 20
159.7640296242813065
 30
0.0
 11
4108.2144335762241099
 21
159.759253368490505
 31
0.0
  0
LINE
  5
1576C
  8
0
 10
4108.2101706141011164
 20
159.7461333201221976
 30
0.0
 11
4108.209869539596184
 21
159.7452067078860978
 31
0.0
  0
LINE
  5
1576D
  8
0
 10
4108.2121886186414486
 20
159.7523440995009025
 30
0.0
 11
4108.2112763272943994
 21
159.7495363551745982
 31
0.0
  0
LINE
  5
1576E
  8
0
 10
4108.2169330553479085
 20
159.7466990661461068
 30
0.0
 11
4108.2175396699522025
 21
159.748566033845691
 31
0.0
  0
LINE
  5
1576F
  8
0
 10
4108.2192146575544029
 20
159.7537211156812873
 30
0.0
 11
4108.2204464902861218
 21
159.7575123069877066
 31
0.0
  0
LINE
  5
15770
  8
0
 10
4108.2232963088636097
 20
159.7662831464704993
 30
0.0
 11
4108.2235554193975986
 21
159.767080606676501
 31
0.0
  0
LINE
  5
15771
  8
0
 10
4108.2277645672020299
 20
159.7451142807194913
 30
0.0
 11
4108.2283732499026883
 21
159.7469876134194919
 31
0.0
  0
LINE
  5
15772
  8
0
 10
4108.2288791387018136
 20
159.7485445791195104
 30
0.0
 11
4108.2307237735030867
 21
159.7542217813195009
 31
0.0
  0
LINE
  5
15773
  8
0
 10
4108.2317512053223254
 20
159.7573838911831956
 30
0.0
 11
4108.2347122457085788
 21
159.7664970364307067
 31
0.0
  0
LINE
  5
15774
  8
0
 10
4108.2404134320340745
 20
159.7491227328899015
 30
0.0
 11
4108.2397985333991528
 21
159.7472302696118049
 31
0.0
  0
LINE
  5
15775
  8
0
 10
4108.2433612553977582
 20
159.7581952003363028
 30
0.0
 11
4108.2421119178752633
 21
159.7543501349676944
 31
0.0
  0
LINE
  5
15776
  8
0
 10
4108.245947295183214
 20
159.7459073045224045
 30
0.0
 11
4108.2462909466303245
 21
159.7469649547846871
 31
0.0
  0
LINE
  5
15777
  8
0
 10
4108.2474208590838316
 20
159.7504424677977113
 30
0.0
 11
4108.2483533533268201
 21
159.7533123898595022
 31
0.0
  0
LINE
  5
15778
  8
0
 10
4108.2506489929646705
 20
159.760377642181993
 30
0.0
 11
4108.2519866773172907
 21
159.7644946112633875
 31
0.0
  0
LINE
  5
15779
  8
0
 10
4108.2578415042025881
 20
159.7475931648195058
 30
0.0
 11
4108.2590872641030728
 21
159.7514272196193872
 31
0.0
  0
LINE
  5
1577A
  8
0
 10
4108.2598659712029985
 20
159.7538238336194922
 30
0.0
 11
4108.2622496284911904
 21
159.7611599762834089
 31
0.0
  0
LINE
  5
1577B
  8
0
 10
4108.2695393744479588
 20
159.7486747564331893
 30
0.0
 11
4108.2692268675018568
 21
159.7477129590195091
 31
0.0
  0
LINE
  5
1577C
  8
0
 10
4108.2716359502019259
 20
159.7551273532195069
 30
0.0
 11
4108.270687827913207
 21
159.7522093328468884
 31
0.0
  0
LINE
  5
1577D
  8
0
 10
4108.2765331812597651
 20
159.7499525725824867
 30
0.0
 11
4108.2771642271236487
 21
159.7518947318795028
 31
0.0
  0
LINE
  5
1577E
  8
0
 10
4108.2877344328016989
 20
159.7495057292194929
 30
0.0
 11
4108.288369063103346
 21
159.751458920319493
 31
0.0
  0
LINE
  5
1577F
  8
0
 10
4108.3999486238817553
 20
159.7590229269729036
 30
0.0
 11
4108.3985499465015891
 21
159.7547182406194111
 31
0.0
  0
LINE
  5
15781
  8
0
 10
4114.4094193015025667
 20
158.6622590238193879
 30
0.0
 11
4114.1518126672053768
 21
158.6848438083193003
 31
0.0
  0
ARC
  5
15782
  8
0
 10
4114.1535331980157935
 20
158.7044685318510062
 30
0.0
 40
0.0196999999979416
 50
179.9895985842993014
 51
264.9895985892133012
  0
LINE
  5
15783
  8
0
 10
4108.2479036415597875
 20
159.7658212700021068
 30
0.0
 11
4108.3687060180036497
 21
159.726570198519795
 31
0.0
  0
LINE
  5
15784
  8
0
 10
4108.3687060180036497
 20
159.726570198519795
 30
0.0
 11
4108.3789804183033993
 21
159.7318052670194106
 31
0.0
  0
LINE
  5
15785
  8
0
 10
4108.1697311431016715
 20
159.7466825867194871
 30
0.0
 11
4108.1702070571018339
 21
159.7466502068195098
 31
0.0
  0
LINE
  5
15786
  8
0
 10
4108.1135087163029311
 20
159.7555627738194914
 30
0.0
 11
4108.1132035746022666
 21
159.755601741819504
 31
0.0
  0
LINE
  5
15787
  8
0
 10
4114.133979148024082
 20
159.5084302130921969
 30
0.0
 11
4108.2745605540030738
 21
159.7645027263195061
 31
0.0
  0
LINE
  5
15788
  8
0
 10
4108.2877344328016989
 20
159.7495057292194929
 30
0.0
 11
4108.295102498264896
 21
159.7504854318096079
 31
0.0
  0
LINE
  5
15789
  8
0
 10
4114.1341565458133118
 20
160.4856189705195106
 30
0.0
 11
4107.6530902562017218
 21
160.4845590014195125
 31
0.0
  0
LINE
  5
1578A
  8
0
 10
4114.1523047882456012
 20
161.3956732385277064
 30
0.0
 11
4114.409919605603136
 21
161.4181644902195103
 31
0.0
  0
LINE
  5
1578B
  8
0
 10
4114.1338331983433818
 20
158.7044721081682894
 30
0.0
 11
4114.1343181939628266
 21
161.3760514679183871
 31
0.0
  0
ARC
  5
1578C
  8
0
 10
4114.1540181936388763
 20
161.376047891601786
 30
0.0
 40
0.0197
 50
94.9895985755713639
 51
179.9895985864179977
  0
LINE
  5
1578D
  8
0
 10
4114.4094193015025667
 20
158.6622590238193879
 30
0.0
 11
4114.409919605603136
 21
161.4181644902195103
 31
0.0
  0
ARC
  5
1578E
  8
0
 10
4105.8642455884209994
 20
113.6077882116653939
 30
0.0
 40
46.2182976200968128
 50
87.2451348190484737
 51
87.5278709987606049
  0
ARC
  5
1578F
  8
0
 10
4108.1821873100016091
 20
160.2004182602194078
 30
0.0
 40
0.4516907885000001
 50
264.8592258673019728
 51
267.0877715483292718
  0
ARC
  5
15790
  8
0
 10
4108.1639438188030908
 20
160.2047227468194137
 30
0.0
 40
0.450463268
 50
263.7026418859063028
 51
265.9265222442074901
  0
ARC
  5
15791
  8
0
 10
4108.1674249618017711
 20
160.2354975731194884
 30
0.0
 40
0.483305158
 50
279.0396964930710055
 51
281.2165958990601098
  0
ARC
  5
15792
  8
0
 10
4108.1499123782032257
 20
160.2389386045194897
 30
0.0
 40
0.4794832570000001
 50
277.9205984371449745
 51
279.9131255057886278
  0
ARC
  5
15793
  8
0
 10
4108.1664045974030159
 20
160.23102073721941
 30
0.0
 40
0.478123458
 50
277.8553774152907749
 51
280.1483816575686774
  0
ARC
  5
15794
  8
0
 10
4108.1488394395028081
 20
160.2343581215193922
 30
0.0
 40
0.4739599220000001
 50
276.747355295805221
 51
279.038336227131083
  0
ARC
  5
15795
  8
0
 10
4108.1738397351027743
 20
160.2233191865194897
 30
0.0
 40
0.4725337760000001
 50
274.6550075136224791
 51
276.9140855587054943
  0
ARC
  5
15796
  8
0
 10
4108.1560784457033151
 20
160.2266408756194096
 30
0.0
 40
0.4692689392000001
 50
273.5135456554523898
 51
275.7689554606988054
  0
ARC
  5
15797
  8
0
 10
4108.1723835554030302
 20
160.2194505217194092
 30
0.0
 40
0.4680780189
 50
273.4813740074893076
 51
275.7420369556921855
  0
ARC
  5
15798
  8
0
 10
4108.1384227277030732
 20
160.23077861621951
 30
0.0
 40
0.4643944949
 50
272.4588892588503768
 51
274.7210425638078846
  0
ARC
  5
15799
  8
0
 10
4108.1545641775019249
 20
160.2225145109194102
 30
0.0
 40
0.4643122379
 50
272.3497845503933945
 51
274.6106286999723238
  0
ARC
  5
1579A
  8
0
 10
4108.179402861903327
 20
160.212199324319414
 30
0.0
 40
0.4627364169
 50
270.319510347011601
 51
272.5580920805890059
  0
ARC
  5
1579B
  8
0
 10
4108.1613763337018099
 20
160.2158341848194993
 30
0.0
 40
0.4604463168
 50
269.1630468819898283
 51
271.3972748206022061
  0
ARC
  5
1579C
  8
0
 10
4108.1368278398022085
 20
160.2269241500194141
 30
0.0
 40
0.4594622643000001
 50
271.2997310716941115
 51
273.568519974153503
  0
ARC
  5
1579D
  8
0
 10
4108.1775869784032693
 20
160.2086917344194887
 30
0.0
 40
0.4587277543
 50
269.1539619005931172
 51
271.3964973854817799
  0
ARC
  5
1579E
  8
0
 10
4108.1434873204016185
 20
160.2202649271193877
 30
0.0
 40
0.4565266599
 50
268.0759953185087738
 51
270.3158069927088718
  0
ARC
  5
1579F
  8
0
 10
4108.1594980181016581
 20
160.2126364729195132
 30
0.0
 40
0.4564975996000001
 50
268.0069606260976229
 51
270.2460773232743918
  0
ARC
  5
157A0
  8
0
 10
4108.16604000890311
 20
160.206983878119388
 30
0.0
 40
0.4534174868
 50
264.8532444105480863
 51
267.0732032703868981
  0
ARC
  5
157A1
  8
0
 10
4108.1415601209027955
 20
160.2173307181193991
 30
0.0
 40
0.4525882933
 50
266.9232556813072961
 51
269.1690650119152792
  0
ARC
  5
157A2
  8
0
 10
4108.2027374859017073
 20
159.9986569557194116
 30
0.0
 40
0.238638563
 50
251.8539666460486899
 51
253.8835218623626133
  0
ARC
  5
157A3
  8
0
 10
4108.1958154181029386
 20
160.2055090238193884
 30
0.0
 40
0.4592956911
 50
270.3789865999956987
 51
272.6352918698800067
  0
ARC
  5
157A4
  8
0
 10
4108.2702355174496915
 20
159.139318138094211
 30
0.0
 40
0.6070752297441819
 50
92.292935180580983
 51
93.4738359042348037
  0
ARC
  5
157A5
  8
0
 10
4108.1842603296017842
 20
160.2030116177195112
 30
0.0
 40
0.4547232155
 50
266.0181941535900023
 51
268.2435164941929884
  0
ARC
  5
157A6
  8
0
 10
4108.2022062616397307
 20
160.1721262559863987
 30
0.0
 40
0.4266813202677027
 50
265.6349427653041175
 51
269.5164676003976751
  0
ARC
  5
157A7
  8
0
 10
4108.2006358561020534
 20
160.1976173025194896
 30
0.0
 40
0.4519925971000001
 50
266.810261455103614
 51
268.3188648223260202
  0
ARC
  5
157A8
  8
0
 10
4108.221150872303042
 20
160.1970166908195097
 30
0.0
 40
0.4519508039000001
 50
268.5696675668178841
 51
270.8384769445908091
  0
ARC
  5
157A9
  8
0
 10
4108.2005780791032521
 20
160.1965649661194107
 30
0.0
 40
0.4509386761
 50
266.1381674777031776
 51
266.8101512470876742
  0
ARC
  5
157AA
  8
0
 10
4108.2182238799014158
 20
160.1701234323558936
 30
0.0
 40
0.4251162236662599
 50
267.3549513850005042
 51
271.2859707115073888
  0
ARC
  5
157AB
  8
0
 10
4108.1887049596016368
 20
160.1957879816195032
 30
0.0
 40
0.4484831512
 50
262.4578583743934814
 51
263.9545895498873165
  0
ARC
  5
157AC
  8
0
 10
4108.1866904866028563
 20
160.1953391909194977
 30
0.0
 40
0.4476605184000001
 50
261.9678803806314136
 51
262.8000064642125722
  0
ARC
  5
157AD
  8
0
 10
4108.1865780878051737
 20
160.194538650834005
 30
0.0
 40
0.4468521264147224
 50
261.3031820329107973
 51
261.9678083352902718
  0
ARC
  5
157AE
  8
0
 10
4108.2071930643032829
 20
160.1919082298194894
 30
0.0
 40
0.4467989132
 50
262.9546582879980861
 51
265.1903803220009763
  0
ARC
  5
157AF
  8
0
 10
4108.1864794672719654
 20
160.1938877653898032
 30
0.0
 40
0.4461938125918568
 50
260.5825916861718952
 51
261.3030624680226879
  0
ARC
  5
157B0
  8
0
 10
4108.2015815702170585
 20
160.1651809243086859
 30
0.0
 40
0.4197085992615635
 50
261.7659640367696738
 51
265.6478110022836745
  0
ARC
  5
157B1
  8
0
 10
4108.2258954997023466
 20
160.1891587954195018
 30
0.0
 40
0.4437601322999999
 50
264.2436984072883774
 51
266.5063183507062945
  0
ARC
  5
157B2
  8
0
 10
4108.22376161610282
 20
160.1873288147195069
 30
0.0
 40
0.4420686318
 50
263.0568419776906808
 51
265.3174620685039145
  0
ARC
  5
157B3
  8
0
 10
4108.2115726273314067
 20
160.1863801147771085
 30
0.0
 40
0.4413988699411819
 50
258.660199894988807
 51
260.8937661396121257
  0
ARC
  5
157B4
  8
0
 10
4108.2093999110029472
 20
160.1854987763194913
 30
0.0
 40
0.4404496318000001
 50
257.4975815333042988
 51
259.7302320076789215
  0
ARC
  5
157B5
  8
0
 10
4108.2447619525019036
 20
160.1871551778193918
 30
0.0
 40
0.4388980759
 50
265.6243799889289221
 51
267.9261314107931184
  0
ARC
  5
157B6
  8
0
 10
4108.2426504128015949
 20
160.185087661719507
 30
0.0
 40
0.4372432744000001
 50
264.4095991439048134
 51
266.7077100694505134
  0
ARC
  5
157B7
  8
0
 10
4108.2303544454016446
 20
160.1831636341194098
 30
0.0
 40
0.4372227454
 50
259.9108816986499164
 51
262.173158039994405
  0
ARC
  5
157B8
  8
0
 10
4108.2281722780016935
 20
160.1820970780194102
 30
0.0
 40
0.4363545786
 50
258.7292183283880718
 51
260.9890529976764242
  0
ARC
  5
157B9
  8
0
 10
4108.234824295503131
 20
160.1791691210194983
 30
0.0
 40
0.4324799413
 50
255.55967173465271
 51
257.8259343547899789
  0
ARC
  5
157BA
  8
0
 10
4108.2326926238029046
 20
160.1787808936194892
 30
0.0
 40
0.4323596562
 50
254.3817960811072965
 51
256.6453442429645975
  0
ARC
  5
157BB
  8
0
 10
4108.249339720304306
 20
160.1807565581194979
 30
0.0
 40
0.4312598100000001
 50
261.2356343563968153
 51
263.5384323753967237
  0
ARC
  5
157BC
  8
0
 10
4108.2471451837018321
 20
160.1794430153194924
 30
0.0
 40
0.4304219271
 50
260.0271605049122741
 51
262.3260521738948228
  0
ARC
  5
157BD
  8
0
 10
4108.2341476943029193
 20
160.2061754790194925
 30
0.0
 40
0.4598030002000001
 50
275.4100081392905963
 51
276.6926205816051265
  0
ARC
  5
157BE
  8
0
 10
4108.2343955390770134
 20
160.2035388080695952
 30
0.0
 40
0.4571547069220177
 50
274.3696893488299793
 51
275.4102400542818145
  0
ARC
  5
157BF
  8
0
 10
4108.2388186010657591
 20
160.1011301916724108
 30
0.0
 40
0.3548241505701895
 50
273.0316908937072071
 51
276.2584049207148951
  0
ARC
  5
157C0
  8
0
 10
4108.2398076344034052
 20
160.1955031123193862
 30
0.0
 40
0.4482728428
 50
269.9988367595400973
 51
272.3059149797372243
  0
ARC
  5
157C1
  8
0
 10
4108.2378957579030612
 20
160.1927002287195023
 30
0.0
 40
0.4458143264000001
 50
268.7760801242117168
 51
271.0790082034254169
  0
ARC
  5
157C2
  8
0
 10
4108.2637958511040779
 20
160.186110416819389
 30
0.0
 40
0.4323044459000001
 50
267.124897923646472
 51
269.4791433800971845
  0
ARC
  5
157C3
  8
0
 10
4108.2617171268029779
 20
160.1837235755195081
 30
0.0
 40
0.4306186006
 50
265.8726234941098028
 51
268.2216031152286178
  0
ARC
  5
157C4
  8
0
 10
4108.2538318997030728
 20
160.1763379206194884
 30
0.0
 40
0.4253799227
 50
256.8194114559231025
 51
259.1283205082988275
  0
ARC
  5
157C5
  8
0
 10
4108.2516560191033932
 20
160.1757075097195013
 30
0.0
 40
0.4252944528000001
 50
255.6158604916043942
 51
257.9206687076119238
  0
ARC
  5
157C6
  8
0
 10
4108.2685329891028232
 20
160.1792509445195094
 30
0.0
 40
0.4234674844
 50
262.6602106212238823
 51
265.0170910528070749
  0
ARC
  5
157C7
  8
0
 10
4108.2663302986029521
 20
160.1776311168194127
 30
0.0
 40
0.4226170113000001
 50
261.4156225287911184
 51
263.7670729961560028
  0
ARC
  5
157C8
  8
0
 10
4108.2585276868012443
 20
160.1738663691151032
 30
0.0
 40
0.4212497285954255
 50
252.7081988145197897
 51
254.682855291003591
  0
ARC
  5
157C9
  8
0
 10
4108.2708721659028015
 20
160.1735070064194986
 30
0.0
 40
0.4163501720000001
 50
256.9195883402048253
 51
259.2791262496830882
  0
ARC
  5
157CA
  8
0
 10
4108.2512513974043031
 20
160.2002996369195102
 30
0.0
 40
0.4503728567
 50
274.7274174241989044
 51
275.1047466473846725
  0
ARC
  5
157CB
  8
0
 10
4108.258584654601691
 20
160.1947741788193866
 30
0.0
 40
0.4427303126
 50
271.5665228565192137
 51
273.7336041475701904
  0
ARC
  5
157CC
  8
0
 10
4108.2567427163030516
 20
160.1918003970195059
 30
0.0
 40
0.4403794186
 50
270.3050399883874775
 51
272.657903826560073
  0
ARC
  5
157CD
  8
0
 10
4108.3611067766032647
 20
159.76688426401941
 30
0.0
 40
0.0393700787
 50
297.000000000001819
 51
341.9999999999968736
  0
ARC
  5
157CE
  8
0
 10
4108.2730874462022257
 20
160.1744107726194102
 30
0.0
 40
0.4164129387
 50
258.1579782112722228
 51
260.523191090093178
  0
ARC
  5
157CF
  8
0
 10
4108.202808715574065
 20
160.2808023332327991
 30
0.0
 40
0.5346206566534658
 50
256.8908184482344268
 51
262.155297639393325
  0
ARC
  5
157D0
  8
0
 10
4108.1854398060022504
 20
160.2306166766194906
 30
0.0
 40
0.4832389388000001
 50
280.2749294641005235
 51
280.9769993039849965
  0
ARC
  5
157D1
  8
0
 10
4108.1840330187033032
 20
160.2285348369194935
 30
0.0
 40
0.480729834
 50
279.0760592591992122
 51
281.0309953520813906
  0
ARC
  5
157D2
  8
0
 10
4108.1916441680032221
 20
160.221123890419392
 30
0.0
 40
0.4745139975
 50
275.8991219299559248
 51
278.1711704104098999
  0
ARC
  5
157D3
  8
0
 10
4108.2095770645019002
 20
160.2192742272193868
 30
0.0
 40
0.4744041953
 50
277.2613213926513822
 51
279.5603408899038982
  0
ARC
  5
157D4
  8
0
 10
4108.2082919429776666
 20
160.2153226441753873
 30
0.0
 40
0.4703468615148501
 50
276.0474400605356209
 51
278.3423200520118144
  0
ARC
  5
157D5
  8
0
 10
4108.1903918782018081
 20
160.2160739638194116
 30
0.0
 40
0.4691108555
 50
274.7060069644903137
 51
276.9826187870576746
  0
ARC
  5
157D6
  8
0
 10
4108.1975505317032002
 20
160.2093836821194088
 30
0.0
 40
0.4634222312
 50
271.5604923808966191
 51
273.8136200727013829
  0
ARC
  5
157D7
  8
0
 10
4108.2180929949254278
 20
160.1801227648952022
 30
0.0
 40
0.435115985168357
 50
271.2736510047409979
 51
275.2074003371687922
  0
LINE
  5
157D8
  8
0
 10
4108.1140510121031184
 20
159.7554935837194137
 30
0.0
 11
4108.1135087163029311
 21
159.7555627738194914
 31
0.0
  0
LINE
  5
157D9
  8
0
 10
4108.1162902402029431
 20
159.7623852195195013
 30
0.0
 11
4108.1154276989018399
 21
159.762446892519506
 31
0.0
  0
LINE
  5
157DA
  8
0
 10
4108.1137143091018515
 20
159.7571736211193922
 30
0.0
 11
4108.1145331877032731
 21
159.7569775678194901
 31
0.0
  0
LINE
  5
157DB
  8
0
 10
4108.1164634889028093
 20
159.7656347264195063
 30
0.0
 11
4108.1172681167026894
 21
159.7653948136195083
 31
0.0
  0
LINE
  5
157DC
  8
0
 10
4108.1133095008381133
 20
159.7537263073296003
 30
0.0
 11
4108.1134706891034512
 21
159.7537075333194139
 31
0.0
  0
LINE
  5
157DD
  8
0
 10
4107.4543426302516309
 20
159.8499449259373932
 30
0.0
 11
4114.1339886622608901
 21
159.5608390061825901
 31
0.0
  0
LINE
  5
157DE
  8
0
 10
4107.6530902562017218
 20
160.4845590014195125
 30
0.0
 11
4107.45105690919263
 21
160.484610664671294
 31
0.0
  0
LINE
  5
157DF
  8
0
 10
4114.1341634762766262
 20
160.523795162072588
 30
0.0
 11
4110.9124173977252212
 21
160.5156566443905035
 31
0.0
  0
ARC
  5
157E0
  8
0
 10
4113.8578122071112375
 20
-367.7882840276596994
 30
0.0
 40
528.3121511759881059
 50
90.3194315433232191
 51
90.6944857725711557
  0
ARC
  5
157E1
  8
0
 10
4107.4544971075101785
 20
160.4716597946026866
 30
0.0
 40
0.0134
 50
90.996926571999694
 51
180.0005077469394053
  0
ARC
  5
157E2
  8
0
 10
4107.4554136649112479
 20
159.8642222407181919
 30
0.0
 40
0.0143174310750945
 50
181.6944300361114983
 51
265.7099046878211084
  0
ARC
  5
157E3
  8
0
 10
4107.8254379476884424
 20
160.5035956911638095
 30
0.0
 40
0.7540981780691615
 50
240.0504881456782016
 51
247.7390746108453925
  0
ARC
  5
157E4
  8
0
 10
4107.4568024942846023
 20
159.8637990266915097
 30
0.0
 40
0.0157
 50
180.0005077469394053
 51
240.0504881456774058
  0
ARC
  5
157E5
  8
0
 10
4108.8212411050517403
 20
171.0868279166834043
 30
0.0
 40
11.3355153099118091
 50
266.854811925272827
 51
267.2357107575764985
  0
ARC
  5
157E6
  8
0
 10
4107.4202384466379954
 20
144.7079063033042985
 30
0.0
 40
15.0806175705263605
 50
87.0387822320232942
 51
87.398163101177218
  0
ARC
  5
157E7
  8
0
 10
4107.6195850489084478
 20
153.1019318940491871
 30
0.0
 40
6.6886699364191911
 50
85.8397484961080437
 51
85.9999849514239685
  0
ARC
  5
157E8
  8
0
 10
4108.2404143325957193
 20
169.7191986526088101
 30
0.0
 40
9.9434912743644048
 50
266.5873224607461793
 51
267.7947677288495925
  0
ARC
  5
157E9
  8
0
 10
4107.6899103973282763
 20
160.6664036509714037
 30
0.0
 40
0.8740445426939405
 50
260.5496885611041762
 51
267.2848014563343781
  0
ARC
  5
157EA
  8
0
 10
4107.5619899000275836
 20
159.8924334435938874
 30
0.0
 40
0.0895793035999157
 50
256.2979482935921851
 51
259.9769274295298942
  0
ARC
  5
157EB
  8
0
 10
4107.5426838151206539
 20
159.8136855782383066
 30
0.0
 40
0.008500092228596
 50
249.9283983125218072
 51
256.9949979836557077
  0
ATTDEF
  5
157ED
  8
DEFPOINTS
 10
4114.4099349945881841
 20
160.0436955361597882
 30
0.0
 40
0.001
  1
K-22543IN
  3

  2
MODELNUMBER
 70
     0
1001
ACDBATTR
1070
     0
1070
     1
  0
ATTDEF
  5
157EE
  8
DEFPOINTS
 10
4114.4098091849300545
 20
160.0420286957806013
 30
0.0
 40
0.001
  1
HONE
  3

  2
TRADENAME
 70
     0
1001
ACDBATTR
1070
     0
1070
     1
  0
ATTDEF
  5
157EF
  8
DEFPOINTS
 10
4114.4099349945881841
 20
160.0403622028264863
 30
0.0
 40
0.001
  1
BATH SPOUT
  3

  2
PRODUCT
 70
     0
1001
ACDBATTR
1070
     0
1070
     1
  0
ENDSEC
  0
EOF
