  0
SECTION
  2
HEADER
  9
$ACADVER
  1
AC1009
  9
$INSBASE
 10
4249.6633178796319044
 20
215.6633809156402037
 30
0.0
  9
$EXTMIN
 10
4247.438908430882293
 20
212.6952037596676064
 30
0.0
  9
$EXTMAX
 10
4251.8877273283833347
 20
215.6679070662275137
 30
0.0
  9
$LIMMIN
 10
0.0
 20
0.0
  9
$LIMMAX
 10
11.6929133858000007
 20
8.2677165353999982
  9
$ORTHOMODE
 70
     0
  9
$REGENMODE
 70
     1
  9
$FILLMODE
 70
     1
  9
$QTEXTMODE
 70
     0
  9
$MIRRTEXT
 70
     0
  9
$DRAGMODE
 70
     2
  9
$LTSCALE
 40
0.6431102362
  9
$OSMODE
 70
  3839
  9
$ATTMODE
 70
     1
  9
$TEXTSIZE
 40
0.2
  9
$TRACEWID
 40
0.05
  9
$TEXTSTYLE
  7
STANDARD
  9
$CLAYER
  8
0
  9
$CELTYPE
  6
BYLAYER
  9
$CECOLOR
 62
   256
  9
$DIMSCALE
 40
1.0
  9
$DIMASZ
 40
0.1875
  9
$DIMEXO
 40
0.0625
  9
$DIMDLI
 40
0.4443307087
  9
$DIMRND
 40
0.0
  9
$DIMDLE
 40
0.0
  9
$DIMEXE
 40
0.125
  9
$DIMTP
 40
0.01
  9
$DIMTM
 40
0.01
  9
$DIMTXT
 40
2.0
  9
$DIMCEN
 40
0.1052362205
  9
$DIMTSZ
 40
0.0
  9
$DIMTOL
 70
     1
  9
$DIMLIM
 70
     0
  9
$DIMTIH
 70
     1
  9
$DIMTOH
 70
     1
  9
$DIMSE1
 70
     0
  9
$DIMSE2
 70
     0
  9
$DIMTAD
 70
     0
  9
$DIMZIN
 70
     0
  9
$DIMBLK
  1

  9
$DIMASO
 70
     1
  9
$DIMSHO
 70
     1
  9
$DIMPOST
  1
\X
  9
$DIMAPOST
  1

  9
$DIMALT
 70
     1
  9
$DIMALTD
 70
     2
  9
$DIMALTF
 40
25.3999999999999986
  9
$DIMLFAC
 40
1.0
  9
$DIMTOFL
 70
     0
  9
$DIMTVP
 40
0.0
  9
$DIMTIX
 70
     0
  9
$DIMSOXD
 70
     0
  9
$DIMSAH
 70
     0
  9
$DIMBLK1
  1

  9
$DIMBLK2
  1

  9
$DIMSTYLE
  2
STANDARD
  9
$DIMCLRD
 70
     0
  9
$DIMCLRE
 70
     0
  9
$DIMCLRT
 70
     0
  9
$DIMTFAC
 40
1.0
  9
$DIMGAP
 40
0.09
  9
$LUNITS
 70
     2
  9
$LUPREC
 70
     4
  9
$SKETCHINC
 40
0.1
  9
$FILLETRAD
 40
0.0
  9
$AUNITS
 70
     0
  9
$AUPREC
 70
     0
  9
$MENU
  1
.
  9
$ELEVATION
 40
0.0
  9
$PELEVATION
 40
0.0
  9
$THICKNESS
 40
0.0
  9
$LIMCHECK
 70
     0
  9
$BLIPMODE
 70
     0
  9
$CHAMFERA
 40
0.0
  9
$CHAMFERB
 40
0.0
  9
$SKPOLY
 70
     0
  9
$TDCREATE
 40
2458060.468368056230247
  9
$TDUPDATE
 40
2459075.7720486111938953
  9
$TDINDWG
 40
0.5523334491
  9
$TDUSRTIMER
 40
0.5523334491
  9
$USRTIMER
 70
     1
  9
$ANGBASE
 50
0.0
  9
$ANGDIR
 70
     0
  9
$PDMODE
 70
     0
  9
$PDSIZE
 40
0.3125
  9
$PLINEWID
 40
0.0
  9
$COORDS
 70
     1
  9
$SPLFRAME
 70
     0
  9
$SPLINETYPE
 70
     6
  9
$SPLINESEGS
 70
     8
  9
$ATTDIA
 70
     1
  9
$ATTREQ
 70
     1
  9
$HANDLING
 70
     1
  9
$HANDSEED
  5
96B9
  9
$SURFTAB1
 70
     6
  9
$SURFTAB2
 70
     6
  9
$SURFTYPE
 70
     6
  9
$SURFU
 70
     6
  9
$SURFV
 70
     6
  9
$UCSNAME
  2

  9
$UCSORG
 10
0.0
 20
0.0
 30
0.0
  9
$UCSXDIR
 10
1.0
 20
0.0
 30
0.0
  9
$UCSYDIR
 10
0.0
 20
1.0
 30
0.0
  9
$PUCSNAME
  2

  9
$PUCSORG
 10
0.0
 20
0.0
 30
0.0
  9
$PUCSXDIR
 10
1.0
 20
0.0
 30
0.0
  9
$PUCSYDIR
 10
0.0
 20
1.0
 30
0.0
  9
$USERI1
 70
     0
  9
$USERI2
 70
     0
  9
$USERI3
 70
     0
  9
$USERI4
 70
     0
  9
$USERI5
 70
     0
  9
$USERR1
 40
0.0
  9
$USERR2
 40
0.0
  9
$USERR3
 40
0.0
  9
$USERR4
 40
0.0
  9
$USERR5
 40
0.0
  9
$WORLDVIEW
 70
     1
  9
$SHADEDGE
 70
     3
  9
$SHADEDIF
 70
    70
  9
$TILEMODE
 70
     1
  9
$MAXACTVP
 70
    64
  9
$PLIMCHECK
 70
     0
  9
$PEXTMIN
 10
1.0000000000000000E+20
 20
1.0000000000000000E+20
 30
1.0000000000000000E+20
  9
$PEXTMAX
 10
-1.0000000000000000E+20
 20
-1.0000000000000000E+20
 30
-1.0000000000000000E+20
  9
$PLIMMIN
 10
0.0
 20
0.0
  9
$PLIMMAX
 10
12.0
 20
9.0
  9
$UNITMODE
 70
     0
  9
$VISRETAIN
 70
     1
  9
$PLINEGEN
 70
     0
  9
$PSLTSCALE
 70
     1
  0
ENDSEC
  0
SECTION
  2
TABLES
  0
TABLE
  2
VPORT
 70
     1
  0
VPORT
  2
*ACTIVE
 70
     0
 10
0.0
 20
0.0
 11
1.0
 21
1.0
 12
0.0
 22
0.0
 13
0.0
 23
0.0
 14
1.0
 24
1.0
 15
0.0
 25
0.0
 16
0.0
 26
0.0
 36
22.2129747928182795
 17
4249.6633300781240905
 27
214.1815563773519955
 37
0.0
 40
5.3505285967711931
 41
3.314341846758349
 42
50.0
 43
0.0
 44
0.0
 50
0.0
 51
0.0
 71
     0
 72
   100
 73
     1
 74
     1
 75
     0
 76
     0
 77
     0
 78
     0
  0
ENDTAB
  0
TABLE
  2
LTYPE
 70
     2
  0
LTYPE
  2
CONTINUOUS
 70
     0
  3
Solid line
 72
    65
 73
     0
 40
0.0
  0
LTYPE
  2
PHANTOM2
 70
     0
  3
___ _ _ ___ _ _ ___ _ _ ___ _ _
 72
    65
 73
     6
 40
1.25
 49
0.625
 49
-0.125
 49
0.125
 49
-0.125
 49
0.125
 49
-0.125
  0
ENDTAB
  0
TABLE
  2
LAYER
 70
     2
  0
LAYER
  2
0
 70
     0
 62
   255
  6
CONTINUOUS
  0
LAYER
  2
DEFPOINTS
 70
     0
 62
     7
  6
CONTINUOUS
  0
ENDTAB
  0
TABLE
  2
STYLE
 70
     1
  0
STYLE
  2
STANDARD
 70
     0
 40
0.0
 41
0.8
 50
0.0
 71
     0
 42
0.2
  3
txt
  4

  0
ENDTAB
  0
TABLE
  2
VIEW
 70
     0
  0
ENDTAB
  0
TABLE
  2
UCS
 70
     0
  0
ENDTAB
  0
TABLE
  2
APPID
 70
     9
  0
APPID
  2
ACAD
 70
     0
  0
APPID
  2
ACAD_MLEADERVER
 70
     0
  0
APPID
  2
ACAD_EXEMPT_FROM_CAD_STANDARDS
 70
     0
  0
APPID
  2
ACAD_NAV_VCDISPLAY
 70
     0
  0
APPID
  2
ACAECLAYERSTANDARD
 70
     0
  0
APPID
  2
ACCMTRANSPARENCY
 70
     0
  0
APPID
  2
ACAD_DSTYLE_DIMJAG
 70
     0
  0
APPID
  2
ACAD_DSTYLE_DIMTALN
 70
     0
  0
APPID
  2
ACDBATTR
 70
     0
  0
ENDTAB
  0
TABLE
  2
DIMSTYLE
 70
     1
  0
DIMSTYLE
  2
STANDARD
 70
     0
  3

  4

  5

  6

  7

 40
1.0
 41
0.1875
 42
0.0625
 43
0.38
 44
0.125
 45
0.0
 46
0.0
 47
0.01
 48
0.01
140
0.15625
141
0.09
142
0.0
143
25.3999999999999986
144
1.0
145
0.0
146
1.0
147
0.09
 71
     1
 72
     0
 73
     1
 74
     1
 75
     0
 76
     0
 77
     0
 78
     4
170
     0
171
     2
172
     0
173
     0
174
     0
175
     0
176
     0
177
     0
178
     0
  0
ENDTAB
  0
ENDSEC
  0
SECTION
  2
BLOCKS
  0
BLOCK
  8
0
  2
$MODEL_SPACE
 70
     0
 10
0.0
 20
0.0
 30
0.0
  3
$MODEL_SPACE
  1

  0
ENDBLK
  5
21
  8
0
  0
BLOCK
 67
     1
  8
0
  2
$PAPER_SPACE
 70
     0
 10
0.0
 20
0.0
 30
0.0
  3
$PAPER_SPACE
  1

  0
ENDBLK
  5
1D
 67
     1
  8
0
  0
BLOCK
  8
0
  2
_FILLED
 70
     0
 10
0.0
 20
0.0
 30
0.0
  3
_FILLED
  1

  0
SOLID
  5
6F59
  8
0
  6
BYBLOCK
 62
     0
 10
0.0
 20
0.0
 30
0.0
 11
-1.0
 21
0.1666666667
 31
0.0
 12
-1.0
 22
-0.1666666667
 32
0.0
 13
-1.0
 23
-0.1666666667
 33
0.0
  0
ENDBLK
  5
6F5A
  8
0
  6
BYBLOCK
 62
     0
  0
ENDSEC
  0
SECTION
  2
ENTITIES
  0
ATTDEF
  5
3930
  8
DEFPOINTS
 10
4249.6636200048405954
 20
215.6669070662273953
 30
0.0
 40
0.001
  1
K-22541IN-4FP
  3

  2
MODELNUMBER
 70
     0
1001
ACDBATTR
1070
     0
1070
     1
  0
ATTDEF
  5
3931
  8
DEFPOINTS
 10
4249.6636200048405954
 20
215.6652403995607017
 30
0.0
 40
0.001
  1
HONE
  3

  2
TRADENAME
 70
     0
1001
ACDBATTR
1070
     0
1070
     1
  0
ATTDEF
  5
3932
  8
DEFPOINTS
 10
4249.6636200048405954
 20
215.6635737328940934
 30
0.0
 40
0.001
  1
VALVE TRIM
  3

  2
PRODUCT
 70
     0
1001
ACDBATTR
1070
     0
1070
     1
  0
LINE
  5
94FB
  8
0
 10
4251.8877273283833347
 20
215.6633809156402037
 30
0.0
 11
4247.438908430882293
 21
215.6633809156402037
 31
0.0
  0
LINE
  5
94FC
  8
0
 10
4250.6278848086822109
 20
213.938971466840087
 30
0.0
 11
4250.6278848086822109
 21
215.2565605385329945
 31
0.0
  0
LINE
  5
94FD
  8
0
 10
4250.6160737850823352
 20
213.9271604432400977
 30
0.0
 11
4248.7105605598562761
 21
213.9271604432400977
 31
0.0
  0
LINE
  5
94FE
  8
0
 10
4250.5936095854240193
 20
213.8838809364401072
 30
0.0
 11
4248.7330261738397894
 21
213.8838809364401072
 31
0.0
  0
LINE
  5
94FF
  8
0
 10
4250.6081997693818266
 20
213.9271604432400977
 30
0.0
 11
4250.6081997693818266
 21
213.9028952264401937
 31
0.0
  0
ARC
  5
9500
  8
0
 10
4250.5885147299823075
 20
213.9028952264401084
 30
0.0
 40
0.0196850393999988
 50
284.9999759622899091
 51
359.9999999999984084
  0
ARC
  5
9501
  8
0
 10
4259.5002404796032351
 20
180.6438261320878098
 30
0.0
 40
34.4126331059029766
 50
104.9999759622898949
 51
105.1174881460808024
  0
ARC
  5
9502
  8
0
 10
4250.5502726674540099
 20
213.788830008281991
 30
0.0
 40
0.0806286147457667
 50
107.9276836611837069
 51
183.5731515596528993
  0
ARC
  5
9503
  8
0
 10
4249.6826691634123563
 20
213.7969742282751042
 30
0.0
 40
0.7872417850709957
 50
341.2103881796484757
 51
359.0414937369902191
  0
LINE
  5
9504
  8
0
 10
4250.4746969529041962
 20
213.816924222740198
 30
0.0
 11
4250.7234221204817004
 21
213.816924222740198
 31
0.0
  0
LINE
  5
9505
  8
0
 10
4250.7234221204817004
 20
213.816924222740198
 30
0.0
 11
4250.7344289224811291
 21
213.6137012175402106
 31
0.0
  0
LINE
  5
9506
  8
0
 10
4250.7344289224811291
 20
213.6137012175402106
 30
0.0
 11
4250.697259423182004
 21
212.7430890548901914
 31
0.0
  0
ARC
  5
9507
  8
0
 10
4250.6778343814658001
 20
212.7439183783311023
 30
0.0
 40
0.0194427370246713
 50
267.7044858512039127
 51
357.5553260024428823
  0
ARC
  5
9508
  8
0
 10
4250.6257860747309678
 20
213.6416100590909082
 30
0.0
 40
0.1121702803950179
 50
289.6584667800514126
 51
345.5930243957261041
  0
ARC
  5
9509
  8
0
 10
4250.5177325326758364
 20
213.9047861614473049
 30
0.0
 40
0.3965780580235814
 50
270.0273132132508067
 51
291.5687595622148933
  0
LINE
  5
950A
  8
0
 10
4250.5179215836096773
 20
213.5082081484846128
 30
0.0
 11
4248.8087141756568599
 21
213.5082081484846128
 31
0.0
  0
LINE
  5
950B
  8
0
 10
4250.5283195635965967
 20
213.5434083295276935
 30
0.0
 11
4248.7983161956681215
 21
213.5434083295276935
 31
0.0
  0
ARC
  5
950C
  8
0
 10
4250.5091936274302498
 20
213.9358570271758992
 30
0.0
 40
0.3929144712529176
 50
272.7900948429947903
 51
287.5548436495428177
  0
ARC
  5
950D
  8
0
 10
4250.6058049507855685
 20
213.6272432294234136
 30
0.0
 40
0.0695402462059126
 50
288.3554287312132942
 51
353.5166619156894967
  0
LINE
  5
950E
  8
0
 10
4250.6749004686025728
 20
213.6193911430763137
 30
0.0
 11
4250.6672761771596925
 21
213.816924222740198
 31
0.0
  0
ARC
  5
950F
  8
0
 10
4250.6160751994066231
 20
213.9389700525144065
 30
0.0
 40
0.011809609358912
 50
269.9931382236377999
 51
0.0068617763621474
  0
LINE
  5
9510
  8
0
 10
4251.8877273283833347
 20
215.6633809156402037
 30
0.0
 11
4251.8554061295808424
 21
215.2944073046402025
 31
0.0
  0
ARC
  5
9511
  8
0
 10
4251.8243131651543081
 20
215.2963584208254986
 30
0.0
 40
0.0311541215784945
 50
270.5689899172007813
 51
356.4093376766273877
  0
LINE
  5
9512
  8
0
 10
4248.7184359898810726
 20
213.9271604432400977
 30
0.0
 11
4248.7184359898810726
 21
213.9028952264401937
 31
0.0
  0
ARC
  5
9513
  8
0
 10
4248.7381210292824107
 20
213.9028952264401084
 30
0.0
 40
0.0196850393999988
 50
180.0000000000015916
 51
255.0000240377100056
  0
ARC
  5
9514
  8
0
 10
4239.8263952796623926
 20
180.6438261320878098
 30
0.0
 40
34.4126331059029766
 50
74.8825118539191976
 51
75.0000240377100624
  0
ARC
  5
9515
  8
0
 10
4248.7763630918088893
 20
213.788830008281991
 30
0.0
 40
0.0806286147457667
 50
356.4268484403471007
 51
72.0723163388162362
  0
ARC
  5
9516
  8
0
 10
4249.6439665958523619
 20
213.7969742282751042
 30
0.0
 40
0.7872417850709957
 50
180.958506263008104
 51
198.7896118203514106
  0
LINE
  5
9517
  8
0
 10
4248.8519388063596125
 20
213.816924222740198
 30
0.0
 11
4248.6032136387821083
 21
213.816924222740198
 31
0.0
  0
LINE
  5
9518
  8
0
 10
4248.6032136387821083
 20
213.816924222740198
 30
0.0
 11
4248.5922068367808606
 21
213.6137012175402106
 31
0.0
  0
LINE
  5
9519
  8
0
 10
4248.5922068367808606
 20
213.6137012175402106
 30
0.0
 11
4248.6293763360818048
 21
212.7430890548901914
 31
0.0
  0
ARC
  5
951A
  8
0
 10
4248.6488013777970991
 20
212.7439183783311023
 30
0.0
 40
0.0194427370246713
 50
182.444673997557004
 51
272.295514148796201
  0
ARC
  5
951B
  8
0
 10
4248.7008496845310219
 20
213.6416100590909082
 30
0.0
 40
0.1121702803950179
 50
194.4069756042738106
 51
250.3415332199487011
  0
ARC
  5
951C
  8
0
 10
4248.8089032265879723
 20
213.9047861614473049
 30
0.0
 40
0.3965780580235814
 50
248.4312404377851067
 51
269.972686786749307
  0
ARC
  5
951D
  8
0
 10
4248.817442131833559
 20
213.9358570271758992
 30
0.0
 40
0.3929144712529176
 50
252.4451563504572107
 51
267.2099051570052097
  0
ARC
  5
951E
  8
0
 10
4248.7208308084782402
 20
213.6272432294234136
 30
0.0
 40
0.0695402462059126
 50
186.4833380843105033
 51
251.6445712687867058
  0
LINE
  5
951F
  8
0
 10
4248.6517352906603264
 20
213.6193911430763137
 30
0.0
 11
4248.6593595821041163
 21
213.816924222740198
 31
0.0
  0
ARC
  5
9520
  8
0
 10
4248.7105605598562761
 20
213.9389700525144065
 30
0.0
 40
0.011809609358912
 50
179.9931382236377999
 51
270.0068617763620864
  0
LINE
  5
9521
  8
0
 10
4247.438908430882293
 20
215.6633809156402037
 30
0.0
 11
4247.4712296296820568
 21
215.2944073046402025
 31
0.0
  0
ARC
  5
9522
  8
0
 10
4247.5023225941113196
 20
215.2963584208254986
 30
0.0
 40
0.0311541215784945
 50
183.5906623233724986
 51
269.431010082799105
  0
LINE
  5
9523
  8
0
 10
4248.6987509505815979
 20
213.938971466840087
 30
0.0
 11
4248.6987509505815979
 21
215.2565605385329945
 31
0.0
  0
ARC
  5
9524
  8
0
 10
4249.6633178796319044
 20
230.2542742553725077
 30
0.0
 40
17.5590704957049297
 50
266.6903026459423245
 51
273.3096973540576755
  0
ARC
  5
9525
  8
0
 10
4249.6633178796319044
 20
431.6125325777862258
 30
0.0
 40
216.3581221641811112
 50
269.4276355613196188
 51
270.5723644386803812
  0
ENDSEC
  0
EOF
