  0
SECTION
  2
HEADER
  9
$ACADVER
  1
AC1009
  9
$INSBASE
 10
5022.599777633578924
 20
-9.9520571047444513
 30
0.0
  9
$EXTMIN
 10
5017.1093792131778173
 20
-9.9571025759094631
 30
0.0
  9
$EXTMAX
 10
5023.5046166446627467
 20
0.6438647375065898
 30
0.0
  9
$LIMMIN
 10
0.0
 20
0.0
  9
$LIMMAX
 10
11.6929133858000007
 20
8.2677165353999982
  9
$ORTHOMODE
 70
     0
  9
$REGENMODE
 70
     1
  9
$FILLMODE
 70
     1
  9
$QTEXTMODE
 70
     0
  9
$MIRRTEXT
 70
     0
  9
$DRAGMODE
 70
     2
  9
$LTSCALE
 40
0.6431102362
  9
$OSMODE
 70
  4095
  9
$ATTMODE
 70
     1
  9
$TEXTSIZE
 40
0.2
  9
$TRACEWID
 40
0.05
  9
$TEXTSTYLE
  7
STANDARD
  9
$CLAYER
  8
0
  9
$CELTYPE
  6
BYLAYER
  9
$CECOLOR
 62
   256
  9
$DIMSCALE
 40
1.0
  9
$DIMASZ
 40
0.1875
  9
$DIMEXO
 40
0.0625
  9
$DIMDLI
 40
0.4443307087
  9
$DIMRND
 40
0.0
  9
$DIMDLE
 40
0.0
  9
$DIMEXE
 40
0.125
  9
$DIMTP
 40
0.01
  9
$DIMTM
 40
0.01
  9
$DIMTXT
 40
2.0
  9
$DIMCEN
 40
0.1052362205
  9
$DIMTSZ
 40
0.0
  9
$DIMTOL
 70
     1
  9
$DIMLIM
 70
     0
  9
$DIMTIH
 70
     1
  9
$DIMTOH
 70
     1
  9
$DIMSE1
 70
     0
  9
$DIMSE2
 70
     0
  9
$DIMTAD
 70
     0
  9
$DIMZIN
 70
     0
  9
$DIMBLK
  1

  9
$DIMASO
 70
     1
  9
$DIMSHO
 70
     1
  9
$DIMPOST
  1
\X
  9
$DIMAPOST
  1

  9
$DIMALT
 70
     1
  9
$DIMALTD
 70
     2
  9
$DIMALTF
 40
25.3999999999999986
  9
$DIMLFAC
 40
1.0
  9
$DIMTOFL
 70
     0
  9
$DIMTVP
 40
0.0
  9
$DIMTIX
 70
     0
  9
$DIMSOXD
 70
     0
  9
$DIMSAH
 70
     0
  9
$DIMBLK1
  1

  9
$DIMBLK2
  1

  9
$DIMSTYLE
  2
STANDARD
  9
$DIMCLRD
 70
     0
  9
$DIMCLRE
 70
     0
  9
$DIMCLRT
 70
     0
  9
$DIMTFAC
 40
1.0
  9
$DIMGAP
 40
0.09
  9
$LUNITS
 70
     2
  9
$LUPREC
 70
     4
  9
$SKETCHINC
 40
0.1
  9
$FILLETRAD
 40
0.0
  9
$AUNITS
 70
     0
  9
$AUPREC
 70
     0
  9
$MENU
  1
.
  9
$ELEVATION
 40
0.0
  9
$PELEVATION
 40
0.0
  9
$THICKNESS
 40
0.0
  9
$LIMCHECK
 70
     0
  9
$BLIPMODE
 70
     0
  9
$CHAMFERA
 40
0.0
  9
$CHAMFERB
 40
0.0
  9
$SKPOLY
 70
     0
  9
$TDCREATE
 40
2458060.468368056230247
  9
$TDUPDATE
 40
2460056.5182175929658115
  9
$TDINDWG
 40
0.5572177082999999
  9
$TDUSRTIMER
 40
0.5572177082999999
  9
$USRTIMER
 70
     1
  9
$ANGBASE
 50
0.0
  9
$ANGDIR
 70
     0
  9
$PDMODE
 70
     0
  9
$PDSIZE
 40
0.3125
  9
$PLINEWID
 40
0.0
  9
$COORDS
 70
     1
  9
$SPLFRAME
 70
     0
  9
$SPLINETYPE
 70
     6
  9
$SPLINESEGS
 70
     8
  9
$ATTDIA
 70
     1
  9
$ATTREQ
 70
     1
  9
$HANDLING
 70
     1
  9
$HANDSEED
  5
21211
  9
$SURFTAB1
 70
     6
  9
$SURFTAB2
 70
     6
  9
$SURFTYPE
 70
     6
  9
$SURFU
 70
     6
  9
$SURFV
 70
     6
  9
$UCSNAME
  2

  9
$UCSORG
 10
0.0
 20
0.0
 30
0.0
  9
$UCSXDIR
 10
1.0
 20
0.0
 30
0.0
  9
$UCSYDIR
 10
0.0
 20
1.0
 30
0.0
  9
$PUCSNAME
  2

  9
$PUCSORG
 10
0.0
 20
0.0
 30
0.0
  9
$PUCSXDIR
 10
1.0
 20
0.0
 30
0.0
  9
$PUCSYDIR
 10
0.0
 20
1.0
 30
0.0
  9
$USERI1
 70
     0
  9
$USERI2
 70
     0
  9
$USERI3
 70
     0
  9
$USERI4
 70
     0
  9
$USERI5
 70
     0
  9
$USERR1
 40
0.0
  9
$USERR2
 40
0.0
  9
$USERR3
 40
0.0
  9
$USERR4
 40
0.0
  9
$USERR5
 40
0.0
  9
$WORLDVIEW
 70
     1
  9
$SHADEDGE
 70
     3
  9
$SHADEDIF
 70
    70
  9
$TILEMODE
 70
     1
  9
$MAXACTVP
 70
    64
  9
$PLIMCHECK
 70
     0
  9
$PEXTMIN
 10
1.0000000000000000E+20
 20
1.0000000000000000E+20
 30
1.0000000000000000E+20
  9
$PEXTMAX
 10
-1.0000000000000000E+20
 20
-1.0000000000000000E+20
 30
-1.0000000000000000E+20
  9
$PLIMMIN
 10
0.0
 20
0.0
  9
$PLIMMAX
 10
12.0
 20
9.0
  9
$UNITMODE
 70
     0
  9
$VISRETAIN
 70
     1
  9
$PLINEGEN
 70
     0
  9
$PSLTSCALE
 70
     1
  0
ENDSEC
  0
SECTION
  2
TABLES
  0
TABLE
  2
VPORT
 70
     1
  0
VPORT
  2
*ACTIVE
 70
     0
 10
0.0
 20
0.0
 11
1.0
 21
1.0
 12
1227.9490877726709641
 22
-124.8372753523069036
 13
0.0
 23
0.0
 14
1.0
 24
1.0
 15
0.0
 25
0.0
 16
0.0
 26
0.0
 36
5.1040778033513332
 17
3792.35791015625
 27
120.1806564331053977
 37
0.0
 40
10.6891861814888607
 41
2.6486111111111108
 42
50.0
 43
0.0
 44
0.0
 50
0.0
 51
0.0
 71
     0
 72
   100
 73
     1
 74
     1
 75
     0
 76
     0
 77
     0
 78
     0
  0
ENDTAB
  0
TABLE
  2
LTYPE
 70
     2
  0
LTYPE
  2
CONTINUOUS
 70
     0
  3
Solid line
 72
    65
 73
     0
 40
0.0
  0
LTYPE
  2
PHANTOM2
 70
     0
  3
___ _ _ ___ _ _ ___ _ _ ___ _ _
 72
    65
 73
     6
 40
1.25
 49
0.625
 49
-0.125
 49
0.125
 49
-0.125
 49
0.125
 49
-0.125
  0
ENDTAB
  0
TABLE
  2
LAYER
 70
     2
  0
LAYER
  2
0
 70
     0
 62
   255
  6
CONTINUOUS
  0
LAYER
  2
DEFPOINTS
 70
     0
 62
     7
  6
CONTINUOUS
  0
ENDTAB
  0
TABLE
  2
STYLE
 70
     1
  0
STYLE
  2
STANDARD
 70
     0
 40
0.0
 41
0.8
 50
0.0
 71
     0
 42
0.2
  3
txt
  4

  0
ENDTAB
  0
TABLE
  2
VIEW
 70
     0
  0
ENDTAB
  0
TABLE
  2
UCS
 70
     0
  0
ENDTAB
  0
TABLE
  2
APPID
 70
     9
  0
APPID
  2
ACAD
 70
     0
  0
APPID
  2
ACAD_MLEADERVER
 70
     0
  0
APPID
  2
ACAD_EXEMPT_FROM_CAD_STANDARDS
 70
     0
  0
APPID
  2
ACAD_NAV_VCDISPLAY
 70
     0
  0
APPID
  2
ACAECLAYERSTANDARD
 70
     0
  0
APPID
  2
ACCMTRANSPARENCY
 70
     0
  0
APPID
  2
ACAD_DSTYLE_DIMJAG
 70
     0
  0
APPID
  2
ACAD_DSTYLE_DIMTALN
 70
     0
  0
APPID
  2
ACDBATTR
 70
     0
  0
ENDTAB
  0
TABLE
  2
DIMSTYLE
 70
     1
  0
DIMSTYLE
  2
STANDARD
 70
     0
  3

  4

  5

  6

  7

 40
1.0
 41
0.1875
 42
0.0625
 43
0.38
 44
0.125
 45
0.0
 46
0.0
 47
0.01
 48
0.01
140
0.15625
141
0.09
142
0.0
143
25.3999999999999986
144
1.0
145
0.0
146
1.0
147
0.09
 71
     1
 72
     0
 73
     1
 74
     1
 75
     0
 76
     0
 77
     0
 78
     4
170
     0
171
     2
172
     0
173
     0
174
     0
175
     0
176
     0
177
     0
178
     0
  0
ENDTAB
  0
ENDSEC
  0
SECTION
  2
BLOCKS
  0
BLOCK
  8
0
  2
$MODEL_SPACE
 70
     0
 10
0.0
 20
0.0
 30
0.0
  3
$MODEL_SPACE
  1

  0
ENDBLK
  5
21
  8
0
  0
BLOCK
 67
     1
  8
0
  2
$PAPER_SPACE
 70
     0
 10
0.0
 20
0.0
 30
0.0
  3
$PAPER_SPACE
  1

  0
ENDBLK
  5
1D
 67
     1
  8
0
  0
BLOCK
  8
0
  2
_FILLED
 70
     0
 10
0.0
 20
0.0
 30
0.0
  3
_FILLED
  1

  0
SOLID
  5
1CDE3
  8
0
  6
BYBLOCK
 62
     0
 10
0.0
 20
0.0
 30
0.0
 11
-1.0
 21
0.1666666667
 31
0.0
 12
-1.0
 22
-0.1666666667
 32
0.0
 13
-1.0
 23
-0.1666666667
 33
0.0
  0
ENDBLK
  5
1CDE4
  8
0
  6
BYBLOCK
 62
     0
  0
ENDSEC
  0
SECTION
  2
ENTITIES
  0
ATTDEF
  5
3930
  8
DEFPOINTS
 10
5022.5891457042107504
 20
-9.9537692425761293
 30
0.0
 40
0.001
  1
K-22535ME-4ND
  3

  2
MODELNUMBER
 70
     0
1001
ACDBATTR
1070
     0
1070
     1
  0
ATTDEF
  5
3931
  8
DEFPOINTS
 10
5022.5891457042107504
 20
-9.9554359092427944
 30
0.0
 40
0.001
  1
HONE
  3

  2
TRADENAME
 70
     0
1001
ACDBATTR
1070
     0
1070
     1
  0
ATTDEF
  5
3932
  8
DEFPOINTS
 10
5022.5891457042107504
 20
-9.9571025759094596
 30
0.0
 40
0.001
  1
BATHROOM SINK FAUCET
  3

  2
PRODUCT
 70
     0
1001
ACDBATTR
1070
     0
1070
     1
  0
LINE
  5
20E4F
  8
0
 10
5021.6949552484784363
 20
-9.9520571047444513
 30
0.0
 11
5023.5046166446627467
 21
-9.9520571047444513
 31
0.0
  0
LINE
  5
20E50
  8
0
 10
5020.1751970756158698
 20
0.6438647375055524
 30
0.0
 11
5022.4134777142453459
 21
0.6438647375055524
 31
0.0
  0
LINE
  5
20E51
  8
0
 10
5023.3058685817923106
 20
0.6253560620305514
 30
0.0
 11
5019.1481262301276729
 21
0.6253560620305514
 31
0.0
  0
LINE
  5
20E52
  8
0
 10
5019.1351262301277529
 20
0.6123560620305497
 30
0.0
 11
5019.1351262301277529
 21
0.5185970581187292
 31
0.0
  0
LINE
  5
20E53
  8
0
 10
5019.1475720623939196
 20
0.5056088751002932
 30
0.0
 11
5021.4586823561039637
 21
0.4070005665042587
 31
0.0
  0
LINE
  5
20E54
  8
0
 10
5021.6942915345789515
 20
0.1611242710552858
 30
0.0
 11
5021.6942915345789515
 21
-0.3206004882944491
 31
0.0
  0
LINE
  5
20E55
  8
0
 10
5023.3188626131768615
 20
0.6127499508120238
 30
0.0
 11
5023.3374304697654225
 21
0.0002133095361501
 31
0.0
  0
ARC
  5
20E56
  8
0
 10
5023.3058685817923106
 20
0.6123560620305533
 30
0.0
 40
0.013
 50
1.736278405712897
 51
90.0000000000521254
  0
ARC
  5
20E57
  8
0
 10
5019.1481262301276729
 20
0.6123560620305462
 30
0.0
 40
0.013
 50
90.0000000000521254
 51
179.9999999999766089
  0
ARC
  5
20E58
  8
0
 10
5019.5845502206739184
 20
-6.9575427467768938
 30
0.0
 40
7.5954473366706017
 50
90.3577790152457254
 51
93.2939511295333261
  0
ARC
  5
20E59
  8
0
 10
5023.3701532810873687
 20
-366.4367112848480019
 30
0.0
 40
367.0944797161321844
 50
90.4986722153159633
 51
90.5982670817847122
  0
ARC
  5
20E5A
  8
0
 10
5022.7750469053698907
 20
-9.5028962423371048
 30
0.0
 40
10.1421529466424793
 50
86.9998732622751589
 51
89.9156381457687957
  0
ARC
  5
20E5B
  8
0
 10
5023.0631073430840843
 20
38.2490621139658415
 30
0.0
 40
37.6108081324664028
 50
269.0103140876800012
 51
269.5839181572791858
  0
ARC
  5
20E5C
  8
0
 10
5019.1481262301276729
 20
0.5185970581187292
 30
0.0
 40
0.013
 50
180.0000000000077023
 51
267.5568387232813166
  0
ARC
  5
20E5D
  8
0
 10
5021.4481915345777452
 20
0.1611242710552858
 30
0.0
 40
0.2461
 50
0.0
 51
87.5568387232812455
  0
LINE
  5
20E5E
  8
0
 10
5021.6942915345789515
 20
-0.3206004882944491
 30
0.0
 11
5022.4208370870628642
 21
-0.3206004882944491
 31
0.0
  0
LINE
  5
20E5F
  8
0
 10
5023.3374304697654225
 20
0.0002133095361501
 30
0.0
 11
5022.7635136488888747
 21
-0.2493255633778517
 31
0.0
  0
ARC
  5
20E60
  8
0
 10
5022.4208370870628642
 20
0.5387995117055411
 30
0.0
 40
0.8594000000000001
 50
270.0
 51
293.4993902000795742
  0
LINE
  5
20E61
  8
0
 10
5021.6949368515788592
 20
-0.3993406008685198
 30
0.0
 11
5023.3367566150345738
 21
-0.3993406008685198
 31
0.0
  0
LINE
  5
20E62
  8
0
 10
5021.6949368515788592
 20
-0.9183881156978443
 30
0.0
 11
5021.6949368515788592
 21
-0.3993406008685198
 31
0.0
  0
LINE
  5
20E63
  8
0
 10
5017.1488792131785885
 20
-1.165188115697841
 30
0.0
 11
5021.4481368515789654
 21
-1.165188115697841
 31
0.0
  0
LINE
  5
20E64
  8
0
 10
5017.1093792131778173
 20
-1.2046881156978411
 30
0.0
 11
5017.1093792131778173
 21
-1.753576614351906
 31
0.0
  0
ARC
  5
20E65
  8
0
 10
5017.1488792131785885
 20
-1.2046881156978411
 30
0.0
 40
0.0395
 50
90.0
 51
179.9999999999972999
  0
ARC
  5
20E66
  8
0
 10
5021.4481368515789654
 20
-0.9183881156978443
 30
0.0
 40
0.2468
 50
270.0
 51
0.0000000000004071
  0
ARC
  5
20E67
  8
0
 10
5022.6215533123786372
 20
-0.5189418998445419
 30
0.0
 40
0.8661417323005272
 50
166.7621381247782892
 51
172.0629435585894953
  0
ARC
  5
20E68
  8
0
 10
5022.4098015024792403
 20
-0.5189418924444383
 30
0.0
 40
0.8661417322999602
 50
7.9370559471573463
 51
30.5434098021202196
  0
LINE
  5
20E69
  8
0
 10
5023.3367566150345738
 20
-0.3993406008685198
 30
0.0
 11
5023.5046166446627467
 21
-9.9520571047444477
 31
0.0
  0
LINE
  5
20E6A
  8
0
 10
5021.6949552484784363
 20
-9.9520571047444513
 30
0.0
 11
5021.6949552484784363
 21
-2.35433255560844
 31
0.0
  0
LINE
  5
20E6B
  8
0
 10
5021.0696557811152161
 20
-2.2789261296142982
 30
0.0
 11
5017.2425975557989659
 21
-1.903761922978588
 31
0.0
  0
ARC
  5
20E6C
  8
0
 10
5021.0020552484784275
 20
-2.9685206321934028
 30
0.0
 40
0.6929
 50
0.0
 51
84.4012179290602234
  0
ARC
  5
20E6D
  8
0
 10
5017.7575821390291821
 20
-1.2680973027671949
 30
0.0
 40
0.8180945118706524
 50
218.574588710923706
 51
230.9872898112705002
  0
ARC
  5
20E6E
  8
0
 10
5017.1488792131785885
 20
-1.75357661435191
 30
0.0
 40
0.0395
 50
179.9999999999949125
 51
218.5745887109447949
  0
LINE
  5
20E6F
  8
0
 10
5021.4481368515789654
 20
-1.151306033244452
 30
0.0
 11
5017.9801860378893252
 21
-1.151306033244452
 31
0.0
  0
ARC
  5
20E70
  8
0
 10
5021.4481368515789654
 20
-0.9045060332444521
 30
0.0
 40
0.2468
 50
270.0
 51
0.0
  0
ARC
  5
20E71
  8
0
 10
5018.1940554897637412
 20
-38.8562405205793766
 30
0.0
 40
37.7055410362543881
 50
90.3249889096020979
 51
91.5884100676392165
  0
LINE
  5
20E72
  8
0
 10
5021.4651392600344479
 20
-2.106535950078452
 30
0.0
 11
5017.1179982280118566
 21
-1.7782061647985681
 31
0.0
  0
ARC
  5
20E73
  8
0
 10
5021.4464552484787419
 20
-2.354332555608436
 30
0.0
 40
0.2485
 50
359.9999999999996021
 51
85.6880233228369974
  0
LINE
  5
20E74
  8
0
 10
5017.6847817112166013
 20
-1.962303742527979
 30
0.0
 11
5017.6895663925151894
 21
-1.9475780081137619
 31
0.0
  0
ARC
  5
20E75
  8
0
 10
5018.009239532236279
 20
-1.207278739521626
 30
0.0
 40
0.821788070481057
 50
243.5476702630193984
 51
246.7452929583654111
  0
LINE
  5
20E76
  8
0
 10
5017.7821170185598021
 20
-1.993987522476331
 30
0.0
 11
5017.7938740108438651
 21
-1.9578032209462251
 31
0.0
  0
ARC
  5
20E77
  8
0
 10
5017.9159919074072604
 20
-1.3970358420401781
 30
0.0
 40
0.6117792041571258
 50
257.3597498418378109
 51
277.4938624081357261
  0
LINE
  5
20E78
  8
0
 10
5018.0692888337998738
 20
-2.0274741622516741
 30
0.0
 11
5017.8812147182889021
 21
-1.9663651777512849
 31
0.0
  0
LINE
  5
20E79
  8
0
 10
5018.0692888337998738
 20
-2.0274741622516741
 30
0.0
 11
5018.0795152847149438
 21
-2.0222635251982619
 31
0.0
  0
LINE
  5
20E7A
  8
0
 10
5018.0991493922274458
 20
-1.9992749388220361
 30
0.0
 11
5018.1027850346217747
 21
-1.9880855820532579
 31
0.0
  0
ARC
  5
20E7B
  8
0
 10
5018.0615826598250351
 20
-1.9870687675690559
 30
0.0
 40
0.0395
 50
297.0000002435588726
 51
342.0000000378627192
  0
LINE
  5
20E7C
  8
0
 10
5017.8215480451790427
 20
-1.974554701944448
 30
0.0
 11
5017.8257453930791598
 21
-1.9616365934444491
 31
0.0
  0
LINE
  5
20E7D
  8
0
 10
5017.8257453930791598
 20
-1.9616365934444491
 30
0.0
 11
5017.8266423168797701
 21
-1.96159244814445
 31
0.0
  0
LINE
  5
20E7E
  8
0
 10
5017.8266423168797701
 20
-1.96159244814445
 30
0.0
 11
5017.8425750631786286
 21
-1.9677241561444481
 31
0.0
  0
LINE
  5
20E7F
  8
0
 10
5017.8425750631786286
 20
-1.9677241561444481
 30
0.0
 11
5017.8404128066786143
 21
-1.97437889734445
 31
0.0
  0
LINE
  5
20E80
  8
0
 10
5017.8404128066786143
 20
-1.97437889734445
 30
0.0
 11
5017.8223378881793906
 21
-1.9748401176444501
 31
0.0
  0
LINE
  5
20E81
  8
0
 10
5017.8223378881793906
 20
-1.9748401176444501
 30
0.0
 11
5017.8215480451790427
 21
-1.974554701944448
 31
0.0
  0
LINE
  5
20E82
  8
0
 10
5017.817046304779069
 20
-1.9884096344444511
 30
0.0
 11
5017.819957499677912
 21
-1.9794498978444499
 31
0.0
  0
LINE
  5
20E83
  8
0
 10
5017.819957499677912
 20
-1.9794498978444499
 30
0.0
 11
5017.8208461698786778
 21
-1.97946828164445
 31
0.0
  0
LINE
  5
20E84
  8
0
 10
5017.8208461698786778
 20
-1.97946828164445
 30
0.0
 11
5017.8370781675794206
 21
-1.9846418612444481
 31
0.0
  0
LINE
  5
20E85
  8
0
 10
5017.8370781675794206
 20
-1.9846418612444481
 30
0.0
 11
5017.8355793944783727
 21
-1.9892546106444511
 31
0.0
  0
LINE
  5
20E86
  8
0
 10
5017.8355793944783727
 20
-1.9892546106444511
 30
0.0
 11
5017.8178509326917265
 21
-1.9886495471780701
 31
0.0
  0
LINE
  5
20E87
  8
0
 10
5017.8178509326917265
 20
-1.9886495471780701
 30
0.0
 11
5017.817046304779069
 21
-1.9884096344444511
 31
0.0
  0
LINE
  5
20E88
  8
0
 10
5017.8142971249790207
 20
-1.9968707396444501
 30
0.0
 11
5017.8160105147790091
 21
-1.9915974682444491
 31
0.0
  0
LINE
  5
20E89
  8
0
 10
5017.8160105147790091
 20
-1.9915974682444491
 30
0.0
 11
5017.8168730560782933
 21
-1.9916591413444491
 31
0.0
  0
LINE
  5
20E8A
  8
0
 10
5017.8168730560782933
 20
-1.9916591413444491
 30
0.0
 11
5017.8334098700815957
 21
-1.995931720134805
 31
0.0
  0
LINE
  5
20E8B
  8
0
 10
5017.8334098700815957
 20
-1.995931720134805
 30
0.0
 11
5017.8325275873794453
 21
-1.9986471071444489
 31
0.0
  0
LINE
  5
20E8C
  8
0
 10
5017.8325275873794453
 20
-1.9986471071444489
 30
0.0
 11
5017.8151160035777139
 21
-1.997066793044449
 31
0.0
  0
LINE
  5
20E8D
  8
0
 10
5017.8151160035777139
 20
-1.997066793044449
 30
0.0
 11
5017.8142971249790207
 21
-1.9968707396444501
 31
0.0
  0
LINE
  5
20E8E
  8
0
 10
5017.8132399414407701
 20
-2.0001244160734331
 30
0.0
 11
5017.8137864040791101
 21
-1.9984425770444501
 31
0.0
  0
LINE
  5
20E8F
  8
0
 10
5017.8137864040791101
 20
-1.9984425770444501
 30
0.0
 11
5017.8146338433789424
 21
-1.9985507294444489
 31
0.0
  0
LINE
  5
20E90
  8
0
 10
5017.8146338433789424
 20
-1.9985507294444489
 30
0.0
 11
5017.8314579940006297
 21
-2.0019389769094502
 31
0.0
  0
LINE
  5
20E91
  8
0
 10
5017.8314579940006297
 20
-2.0019389769094502
 30
0.0
 11
5017.8311448296853996
 21
-2.0029027977667901
 31
0.0
  0
LINE
  5
20E92
  8
0
 10
5017.8208461698786778
 20
-1.97946828164445
 30
0.0
 11
5017.8178509326917265
 21
-1.9886495471780701
 31
0.0
  0
LINE
  5
20E93
  8
0
 10
5017.8266423168797701
 20
-1.96159244814445
 30
0.0
 11
5017.8223378881793906
 21
-1.9748401176444501
 31
0.0
  0
LINE
  5
20E94
  8
0
 10
5017.8168730560782933
 20
-1.9916591413444491
 30
0.0
 11
5017.8151160035777139
 21
-1.997066793044449
 31
0.0
  0
LINE
  5
20E95
  8
0
 10
5017.8146338433789424
 20
-1.9985507294444489
 30
0.0
 11
5017.814076409835252
 21
-2.0002663336385211
 31
0.0
  0
LINE
  5
20E96
  8
0
 10
5017.8378201914465535
 20
-1.9621112384913171
 30
0.0
 11
5017.8372457354626022
 21
-1.9638792323837739
 31
0.0
  0
LINE
  5
20E97
  8
0
 10
5017.8372457354626022
 20
-1.9638792323837739
 30
0.0
 11
5017.8532919711151408
 21
-1.9696616561311939
 31
0.0
  0
LINE
  5
20E98
  8
0
 10
5017.8532919711151408
 20
-1.9696616561311939
 30
0.0
 11
5017.8718483875782113
 21
-1.967718537544449
 31
0.0
  0
LINE
  5
20E99
  8
0
 10
5017.8718483875782113
 20
-1.967718537544449
 30
0.0
 11
5017.8725636712433698
 21
-1.9655171208339151
 31
0.0
  0
LINE
  5
20E9A
  8
0
 10
5017.831479049277732
 20
-1.9816272674444511
 30
0.0
 11
5017.8332985301631197
 21
-1.9760274810574849
 31
0.0
  0
LINE
  5
20E9B
  8
0
 10
5017.8332985301631197
 20
-1.9760274810574849
 30
0.0
 11
5017.8514939483002308
 21
-1.975195401278693
 31
0.0
  0
LINE
  5
20E9C
  8
0
 10
5017.8514939483002308
 20
-1.975195401278693
 30
0.0
 11
5017.8678505128109464
 21
-1.980022730867133
 31
0.0
  0
LINE
  5
20E9D
  8
0
 10
5017.8678505128109464
 20
-1.980022730867133
 30
0.0
 11
5017.8660084665543764
 21
-1.9856919663218799
 31
0.0
  0
LINE
  5
20E9E
  8
0
 10
5017.8660084665543764
 20
-1.9856919663218799
 30
0.0
 11
5017.8478324733223417
 21
-1.9864642626570861
 31
0.0
  0
LINE
  5
20E9F
  8
0
 10
5017.8478324733223417
 20
-1.9864642626570861
 30
0.0
 11
5017.8314790492613611
 21
-1.981627267496239
 31
0.0
  0
LINE
  5
20EA0
  8
0
 10
5017.8275589305776521
 20
-1.9936921523444511
 30
0.0
 11
5017.8287428431585795
 21
-1.9900484440052599
 31
0.0
  0
LINE
  5
20EA1
  8
0
 10
5017.8287428431585795
 20
-1.9900484440052599
 30
0.0
 11
5017.8465864400322971
 21
-1.990299158733293
 31
0.0
  0
LINE
  5
20EA2
  8
0
 10
5017.8465864400322971
 20
-1.990299158733293
 30
0.0
 11
5017.863239219078423
 21
-1.9942148337444501
 31
0.0
  0
LINE
  5
20EA3
  8
0
 10
5017.863239219078423
 20
-1.9942148337444501
 30
0.0
 11
5017.8620413315793485
 21
-1.997901552444449
 31
0.0
  0
LINE
  5
20EA4
  8
0
 10
5017.8620413315793485
 20
-1.997901552444449
 30
0.0
 11
5017.8442047218850348
 21
-1.9976293335229509
 31
0.0
  0
LINE
  5
20EA5
  8
0
 10
5017.8442047218850348
 20
-1.9976293335229509
 30
0.0
 11
5017.8275589305776521
 21
-1.9936921523444511
 31
0.0
  0
LINE
  5
20EA6
  8
0
 10
5017.8253644174792498
 20
-2.0004461690444511
 30
0.0
 11
5017.8259481377799602
 21
-1.998649662644449
 31
0.0
  0
LINE
  5
20EA7
  8
0
 10
5017.8259481377799602
 20
-1.998649662644449
 30
0.0
 11
5017.8434713156930229
 21
-1.999886525402139
 31
0.0
  0
LINE
  5
20EA8
  8
0
 10
5017.8434713156930229
 20
-1.999886525402139
 30
0.0
 11
5017.8604118270077379
 21
-2.0029166516499401
 31
0.0
  0
LINE
  5
20EA9
  8
0
 10
5017.8604118270077379
 20
-2.0029166516499401
 30
0.0
 11
5017.8598214101775739
 21
-2.0047337678444488
 31
0.0
  0
LINE
  5
20EAA
  8
0
 10
5017.8598214101775739
 20
-2.0047337678444488
 30
0.0
 11
5017.8422972311182093
 21
-2.0034999864052301
 31
0.0
  0
LINE
  5
20EAB
  8
0
 10
5017.8422972311182093
 20
-2.0034999864052301
 30
0.0
 11
5017.8253644174792498
 21
-2.0004461690444511
 31
0.0
  0
LINE
  5
20EAC
  8
0
 10
5017.862290130378824
 20
-1.9768889204444511
 30
0.0
 11
5017.8644698875914401
 21
-1.970180317249699
 31
0.0
  0
LINE
  5
20EAD
  8
0
 10
5017.8644698875914401
 20
-1.970180317249699
 30
0.0
 11
5017.8831557328776398
 21
-1.9678388579444499
 31
0.0
  0
LINE
  5
20EAE
  8
0
 10
5017.8831557328776398
 20
-1.9678388579444499
 30
0.0
 11
5017.8995833339404271
 21
-1.9724475595943141
 31
0.0
  0
LINE
  5
20EAF
  8
0
 10
5017.8995833339404271
 20
-1.9724475595943141
 30
0.0
 11
5017.8974178052149
 21
-1.979112371711671
 31
0.0
  0
LINE
  5
20EB0
  8
0
 10
5017.8974178052149
 20
-1.979112371711671
 30
0.0
 11
5017.8787605246907333
 21
-1.9813659180072341
 31
0.0
  0
LINE
  5
20EB1
  8
0
 10
5017.8787605246907333
 20
-1.9813659180072341
 30
0.0
 11
5017.862290130371548
 21
-1.9768889204763549
 31
0.0
  0
LINE
  5
20EB2
  8
0
 10
5017.857419176595613
 20
-1.991880174589894
 30
0.0
 11
5017.8589293648783496
 21
-1.987232292944447
 31
0.0
  0
LINE
  5
20EB3
  8
0
 10
5017.8589293648783496
 20
-1.987232292944447
 30
0.0
 11
5017.8772273142776612
 21
-1.9860846542444499
 31
0.0
  0
LINE
  5
20EB4
  8
0
 10
5017.8772273142776612
 20
-1.9860846542444499
 30
0.0
 11
5017.8940035902896852
 21
-1.989620244907683
 31
0.0
  0
LINE
  5
20EB5
  8
0
 10
5017.8940035902896852
 20
-1.989620244907683
 30
0.0
 11
5017.8924700719790053
 21
-1.9943399289444479
 31
0.0
  0
LINE
  5
20EB6
  8
0
 10
5017.8924700719790053
 20
-1.9943399289444479
 30
0.0
 11
5017.8741837866273272
 21
-1.995451669523195
 31
0.0
  0
LINE
  5
20EB7
  8
0
 10
5017.8741837866273272
 20
-1.995451669523195
 30
0.0
 11
5017.857419176595613
 21
-1.991880174589894
 31
0.0
  0
LINE
  5
20EB8
  8
0
 10
5017.854344725377814
 20
-2.001342362344448
 30
0.0
 11
5017.8552334736177727
 21
-1.9986070765188939
 31
0.0
  0
LINE
  5
20EB9
  8
0
 10
5017.8552334736177727
 20
-1.9986070765188939
 30
0.0
 11
5017.8731869621797159
 21
-1.9985195793172741
 31
0.0
  0
LINE
  5
20EBA
  8
0
 10
5017.8731869621797159
 20
-1.9985195793172741
 30
0.0
 11
5017.8902513277980688
 21
-2.0011685211897321
 31
0.0
  0
LINE
  5
20EBB
  8
0
 10
5017.8902513277980688
 20
-2.0011685211897321
 30
0.0
 11
5017.8893493828782084
 21
-2.0039444222444511
 31
0.0
  0
LINE
  5
20EBC
  8
0
 10
5017.8893493828782084
 20
-2.0039444222444511
 30
0.0
 11
5017.8713963973532373
 21
-2.0040303713233838
 31
0.0
  0
LINE
  5
20EBD
  8
0
 10
5017.8713963973532373
 20
-2.0040303713233838
 30
0.0
 11
5017.854344725377814
 21
-2.001342362344448
 31
0.0
  0
LINE
  5
20EBE
  8
0
 10
5017.8529740919348114
 20
-2.0055607384679091
 30
0.0
 11
5017.8532673800827979
 21
-2.0046580903495221
 31
0.0
  0
LINE
  5
20EBF
  8
0
 10
5017.8532673800827979
 20
-2.0046580903495221
 30
0.0
 11
5017.8709051428922976
 21
-2.0055422973057508
 31
0.0
  0
LINE
  5
20EC0
  8
0
 10
5017.8709051428922976
 20
-2.0055422973057508
 30
0.0
 11
5017.8882562208973468
 21
-2.007308828889474
 31
0.0
  0
LINE
  5
20EC1
  8
0
 10
5017.8882562208973468
 20
-2.007308828889474
 30
0.0
 11
5017.88797537028222
 21
-2.0081731983576239
 31
0.0
  0
LINE
  5
20EC2
  8
0
 10
5017.8882165601071392
 20
-1.9871839843571659
 30
0.0
 11
5017.8900770683785595
 21
-1.98145792854445
 31
0.0
  0
LINE
  5
20EC3
  8
0
 10
5017.8900770683785595
 20
-1.98145792854445
 30
0.0
 11
5017.9088657845022681
 21
-1.9787998651899339
 31
0.0
  0
LINE
  5
20EC4
  8
0
 10
5017.9088657845022681
 20
-1.9787998651899339
 30
0.0
 11
5017.9257760615928419
 21
-1.9819230428871919
 31
0.0
  0
LINE
  5
20EC5
  8
0
 10
5017.92577606157829
 20
-1.981923042844449
 30
0.0
 11
5017.9238789745868417
 21
-1.9877616764205359
 31
0.0
  0
LINE
  5
20EC6
  8
0
 10
5017.9238789745868417
 20
-1.9877616764205359
 30
0.0
 11
5017.9051085452847474
 21
-1.990363458629566
 31
0.0
  0
LINE
  5
20EC7
  8
0
 10
5017.9051085452847474
 20
-1.990363458629566
 30
0.0
 11
5017.8882165600789449
 21
-1.987183984444449
 31
0.0
  0
LINE
  5
20EC8
  8
0
 10
5017.8842110004779897
 20
-1.999511829144452
 30
0.0
 11
5017.8854203032378791
 21
-1.9957899780058701
 31
0.0
  0
LINE
  5
20EC9
  8
0
 10
5017.8854203032378791
 20
-1.9957899780058701
 30
0.0
 11
5017.9038308739663989
 21
-1.994295726583089
 31
0.0
  0
LINE
  5
20ECA
  8
0
 10
5017.9038308739663989
 20
-1.994295726583089
 30
0.0
 11
5017.9210292685784225
 21
-1.9965321695444509
 31
0.0
  0
LINE
  5
20ECB
  8
0
 10
5017.9210292685784225
 20
-1.9965321695444509
 30
0.0
 11
5017.9197973986520083
 21
-2.000323475124993
 31
0.0
  0
LINE
  5
20ECC
  8
0
 10
5017.9197973986520083
 20
-2.000323475124993
 30
0.0
 11
5017.901389967931209
 21
-2.0018080629600439
 31
0.0
  0
LINE
  5
20ECD
  8
0
 10
5017.901389967931209
 20
-2.0018080629600439
 30
0.0
 11
5017.8842110004779897
 21
-1.999511829144452
 31
0.0
  0
LINE
  5
20ECE
  8
0
 10
5017.8819703373783341
 20
-2.0064078810444488
 30
0.0
 11
5017.8825662192602977
 21
-2.004573945299899
 31
0.0
  0
LINE
  5
20ECF
  8
0
 10
5017.8825662192602977
 20
-2.004573945299899
 30
0.0
 11
5017.9006386672735971
 21
-2.004120328459897
 31
0.0
  0
LINE
  5
20ED0
  8
0
 10
5017.9006386672735971
 20
-2.004120328459897
 30
0.0
 11
5017.9181224371832286
 21
-2.0054784766301088
 31
0.0
  0
LINE
  5
20ED1
  8
0
 10
5017.9181224371832286
 20
-2.0054784766301088
 30
0.0
 11
5017.9175157644776846
 21
-2.0073456232444502
 31
0.0
  0
LINE
  5
20ED2
  8
0
 10
5017.9175157644776846
 20
-2.0073456232444502
 30
0.0
 11
5017.8994362526236728
 21
-2.007820980328006
 31
0.0
  0
LINE
  5
20ED3
  8
0
 10
5017.8994362526236728
 20
-2.007820980328006
 30
0.0
 11
5017.8819703373783341
 21
-2.0064078810444488
 31
0.0
  0
LINE
  5
20ED4
  8
0
 10
5017.9150164331776978
 20
-1.99479086584445
 30
0.0
 11
5017.9165684136787604
 21
-1.9900143612444481
 31
0.0
  0
LINE
  5
20ED5
  8
0
 10
5017.9165684136787604
 20
-1.9900143612444481
 30
0.0
 11
5017.9354733219061018
 21
-1.986998695188759
 31
0.0
  0
LINE
  5
20ED6
  8
0
 10
5017.9354733219061018
 20
-1.986998695188759
 30
0.0
 11
5017.9493591460659445
 21
-1.988506644531433
 31
0.0
  0
LINE
  5
20ED7
  8
0
 10
5017.9525694931926409
 20
-1.9895497495449059
 30
0.0
 11
5017.9512316507116338
 21
-1.9936672050636479
 31
0.0
  0
LINE
  5
20ED8
  8
0
 10
5017.9512316507116338
 20
-1.9936672050636479
 30
0.0
 11
5017.9323340211130926
 21
-1.9966604696617329
 31
0.0
  0
LINE
  5
20ED9
  8
0
 10
5017.9323340211130926
 20
-1.9966604696617329
 30
0.0
 11
5017.9150164331776978
 21
-1.99479086584445
 31
0.0
  0
LINE
  5
20EDA
  8
0
 10
5017.9118591935775839
 20
-2.0045078504444511
 30
0.0
 11
5017.9127715649783568
 21
-2.0016998598444502
 31
0.0
  0
LINE
  5
20EDB
  8
0
 10
5017.9127715649783568
 20
-2.0016998598444502
 30
0.0
 11
5017.9313065893011299
 21
-1.999822579576644
 31
0.0
  0
LINE
  5
20EDC
  8
0
 10
5017.9313065893011299
 20
-1.999822579576644
 30
0.0
 11
5017.9489361142732378
 21
-2.000732139980776
 31
0.0
  0
LINE
  5
20EDD
  8
0
 10
5017.9489361142732378
 20
-2.000732139980776
 30
0.0
 11
5017.9480035393826256
 21
-2.0036023102327318
 31
0.0
  0
LINE
  5
20EDE
  8
0
 10
5017.9480035393826256
 20
-2.0036023102327318
 30
0.0
 11
5017.9290098673091052
 21
-2.0054831755032998
 31
0.0
  0
LINE
  5
20EDF
  8
0
 10
5017.9290098673091052
 20
-2.0054831755032998
 30
0.0
 11
5017.9118591935621225
 21
-2.0045078504965721
 31
0.0
  0
LINE
  5
20EE0
  8
0
 10
5017.9104678045332548
 20
-2.008790105553373
 30
0.0
 11
5017.9107535405782983
 21
-2.007910700344449
 31
0.0
  0
LINE
  5
20EE1
  8
0
 10
5017.9107535405782983
 20
-2.007910700344449
 30
0.0
 11
5017.9289560656670801
 21
-2.0070567474828311
 31
0.0
  0
LINE
  5
20EE2
  8
0
 10
5017.9289560656670801
 20
-2.0070567474828311
 30
0.0
 11
5017.9468736970784448
 21
-2.007079607444449
 31
0.0
  0
LINE
  5
20EE3
  8
0
 10
5017.9468736970784448
 20
-2.007079607444449
 30
0.0
 11
5017.9465580776159186
 21
-2.0080509841421228
 31
0.0
  0
LINE
  5
20EE4
  8
0
 10
5017.9403814148718084
 20
-2.0068138892323679
 30
0.0
 11
5017.9409964438536917
 21
-2.0049210247688118
 31
0.0
  0
LINE
  5
20EE5
  8
0
 10
5017.9409964438536917
 20
-2.0049210247688118
 30
0.0
 11
5017.9596700799738755
 21
-2.00261714117272
 31
0.0
  0
LINE
  5
20EE6
  8
0
 10
5017.9596700799738755
 20
-2.00261714117272
 30
0.0
 11
5017.9777469696164189
 21
-2.0021498545837981
 31
0.0
  0
LINE
  5
20EE7
  8
0
 10
5017.9777469696164189
 20
-2.0021498545837981
 30
0.0
 11
5017.9771159368328881
 21
-2.0040919738492908
 31
0.0
  0
LINE
  5
20EE8
  8
0
 10
5017.9771159368328881
 20
-2.0040919738492908
 30
0.0
 11
5017.9584243201352365
 21
-2.0064511960350648
 31
0.0
  0
LINE
  5
20EE9
  8
0
 10
5017.9584243201352365
 20
-2.0064511960350648
 30
0.0
 11
5017.9403814148827223
 21
-2.0068138892323679
 31
0.0
  0
LINE
  5
20EEA
  8
0
 10
5017.9426947913170807
 20
-1.9996940487817341
 30
0.0
 11
5017.9439441622780578
 21
-1.9958488803453269
 31
0.0
  0
LINE
  5
20EEB
  8
0
 10
5017.9439441622780578
 20
-1.9958488803453269
 30
0.0
 11
5017.9620997846113823
 21
-1.9926463289386329
 31
0.0
  0
LINE
  5
20EEC
  8
0
 10
5017.9766597005764197
 20
-1.9973771324128791
 30
0.0
 11
5017.9604487870683442
 21
-2.000220527175038
 31
0.0
  0
LINE
  5
20EED
  8
0
 10
5017.9604487870683442
 20
-2.000220527175038
 30
0.0
 11
5017.9426947913170807
 21
-1.9996940487817341
 31
0.0
  0
LINE
  5
20EEE
  8
0
 10
5017.9780476535906928
 20
-1.9978281056846039
 30
0.0
 11
5017.9722187660790951
 21
-1.9989170075444489
 31
0.0
  0
LINE
  5
20EEF
  8
0
 10
5017.9722187660790951
 20
-1.9989170075444489
 30
0.0
 11
5017.9712707095186488
 21
-2.0018348257184959
 31
0.0
  0
LINE
  5
20EF0
  8
0
 10
5017.9712707095186488
 20
-2.0018348257184959
 30
0.0
 11
5017.9880805279772176
 21
-2.0010879841838012
 31
0.0
  0
LINE
  5
20EF1
  8
0
 10
5017.9697722540158793
 20
-2.0064465975718369
 30
0.0
 11
5017.9701223437223234
 21
-2.005369132062782
 31
0.0
  0
LINE
  5
20EF2
  8
0
 10
5017.9701223437223234
 20
-2.005369132062782
 30
0.0
 11
5017.9889518789786962
 21
-2.0025854405444501
 31
0.0
  0
LINE
  5
20EF3
  8
0
 10
5017.9889518789786962
 20
-2.0025854405444501
 30
0.0
 11
5017.9919119205897005
 21
-2.0023328791078572
 31
0.0
  0
LINE
  5
20EF4
  8
0
 10
5017.8514939483002308
 20
-1.975195401278693
 30
0.0
 11
5017.8478324733223417
 21
-1.9864642626570861
 31
0.0
  0
LINE
  5
20EF5
  8
0
 10
5017.8465864400322971
 20
-1.990299158733293
 30
0.0
 11
5017.8442047218850348
 21
-1.9976293335229509
 31
0.0
  0
LINE
  5
20EF6
  8
0
 10
5017.8434713156930229
 20
-1.999886525402139
 30
0.0
 11
5017.8422972311182093
 21
-2.0034999864052301
 31
0.0
  0
LINE
  5
20EF7
  8
0
 10
5017.8831557328776398
 20
-1.9678388579444499
 30
0.0
 11
5017.8787605246907333
 21
-1.9813659180072341
 31
0.0
  0
LINE
  5
20EF8
  8
0
 10
5017.8772273142776612
 20
-1.9860846542444499
 30
0.0
 11
5017.8741837866273272
 21
-1.995451669523195
 31
0.0
  0
LINE
  5
20EF9
  8
0
 10
5017.8731869621797159
 20
-1.9985195793172741
 30
0.0
 11
5017.8713963973532373
 21
-2.0040303713233838
 31
0.0
  0
LINE
  5
20EFA
  8
0
 10
5017.9006386672735971
 20
-2.004120328459897
 30
0.0
 11
5017.8994362526236728
 21
-2.007820980328006
 31
0.0
  0
LINE
  5
20EFB
  8
0
 10
5017.9038308739663989
 20
-1.994295726583089
 30
0.0
 11
5017.901389967931209
 21
-2.0018080629600439
 31
0.0
  0
LINE
  5
20EFC
  8
0
 10
5017.9088657845022681
 20
-1.9787998651899339
 30
0.0
 11
5017.9051085452847474
 21
-1.990363458629566
 31
0.0
  0
LINE
  5
20EFD
  8
0
 10
5017.9354733219061018
 20
-1.986998695188759
 30
0.0
 11
5017.9323340211130926
 21
-1.9966604696617329
 31
0.0
  0
LINE
  5
20EFE
  8
0
 10
5017.9313065893011299
 20
-1.999822579576644
 30
0.0
 11
5017.9290098673091052
 21
-2.0054831755032998
 31
0.0
  0
LINE
  5
20EFF
  8
0
 10
5017.9596700799738755
 20
-2.00261714117272
 30
0.0
 11
5017.9584243201352365
 21
-2.0064511960350648
 31
0.0
  0
LINE
  5
20F00
  8
0
 10
5017.8532919710778515
 20
-1.9696616562444469
 30
0.0
 11
5017.8551919313404142
 21
-1.9638141796621831
 31
0.0
  0
LINE
  5
20F01
  8
0
 10
5017.8709051428650127
 20
-2.0055422973049342
 30
0.0
 11
5017.8703946452897071
 21
-2.0071134472074581
 31
0.0
  0
LINE
  5
20F02
  8
0
 10
5017.9289560606821397
 20
-2.0070567477166601
 30
0.0
 11
5017.9284258228199178
 21
-2.0086886785304401
 31
0.0
  0
LINE
  5
20F03
  8
0
 10
5017.9604487870792582
 20
-2.0002205271444491
 30
0.0
 11
5017.962832444383821
 21
-1.992884384529467
 31
0.0
  0
LINE
  5
20F04
  8
0
 10
5017.9889518788122587
 20
-2.0025854405690242
 30
0.0
 11
5017.9883219222074331
 21
-2.004524248182971
 31
0.0
  0
LINE
  5
20F05
  8
0
 10
5017.6444112160406803
 20
-1.943151473433488
 30
0.0
 11
5017.6559591720788376
 21
-1.949086996144451
 31
0.0
  0
LINE
  5
20F06
  8
0
 10
5017.6559591720788376
 20
-1.949086996144451
 30
0.0
 11
5017.6565250767789621
 21
-1.9473453206444511
 31
0.0
  0
LINE
  5
20F07
  8
0
 10
5017.6565250767789621
 20
-1.9473453206444511
 30
0.0
 11
5017.6557759116785746
 21
-1.9469347111444499
 31
0.0
  0
LINE
  5
20F08
  8
0
 10
5017.6557759116785746
 20
-1.9469347111444499
 30
0.0
 11
5017.6480885415294324
 21
-1.9435119594303101
 31
0.0
  0
LINE
  5
20F09
  8
0
 10
5017.653863732200989
 20
-1.9440780978842651
 30
0.0
 11
5017.6562580873787738
 21
-1.9454507271444501
 31
0.0
  0
LINE
  5
20F0A
  8
0
 10
5017.6562580873787738
 20
-1.9454507271444501
 30
0.0
 11
5017.6570563885716183
 21
-1.94571011095298
 31
0.0
  0
LINE
  5
20F0B
  8
0
 10
5017.6570563885716183
 20
-1.94571011095298
 30
0.0
 11
5017.6574717406692798
 21
-1.9444317887755169
 31
0.0
  0
LINE
  5
20F0C
  8
0
 10
5017.6562580873787738
 20
-1.9454507271444501
 30
0.0
 11
5017.6566164043852041
 21
-1.9443479406761379
 31
0.0
  0
LINE
  5
20F0D
  8
0
 10
5017.6552056848540815
 20
-1.9486997119773191
 30
0.0
 11
5017.6557759116785746
 21
-1.9469347111444499
 31
0.0
  0
ENDSEC
  0
EOF
