  0
SECTION
  2
HEADER
  9
$ACADVER
  1
AC1009
  9
$INSBASE
 10
5147.5445758051591838
 20
-16.6606868410153304
 30
0.0
  9
$EXTMIN
 10
5146.6443455647940937
 20
-22.15108526133114
 30
0.0
  9
$EXTMAX
 10
5148.4448060455242739
 20
-15.75584782993114
 30
0.0
  9
$LIMMIN
 10
0.0
 20
0.0
  9
$LIMMAX
 10
11.6929133858000007
 20
8.2677165353999982
  9
$ORTHOMODE
 70
     0
  9
$REGENMODE
 70
     1
  9
$FILLMODE
 70
     1
  9
$QTEXTMODE
 70
     0
  9
$MIRRTEXT
 70
     0
  9
$DRAGMODE
 70
     2
  9
$LTSCALE
 40
0.6431102362
  9
$OSMODE
 70
  4095
  9
$ATTMODE
 70
     1
  9
$TEXTSIZE
 40
0.2
  9
$TRACEWID
 40
0.05
  9
$TEXTSTYLE
  7
STANDARD
  9
$CLAYER
  8
0
  9
$CELTYPE
  6
BYLAYER
  9
$CECOLOR
 62
   256
  9
$DIMSCALE
 40
1.0
  9
$DIMASZ
 40
0.1875
  9
$DIMEXO
 40
0.0625
  9
$DIMDLI
 40
0.4443307087
  9
$DIMRND
 40
0.0
  9
$DIMDLE
 40
0.0
  9
$DIMEXE
 40
0.125
  9
$DIMTP
 40
0.01
  9
$DIMTM
 40
0.01
  9
$DIMTXT
 40
2.0
  9
$DIMCEN
 40
0.1052362205
  9
$DIMTSZ
 40
0.0
  9
$DIMTOL
 70
     1
  9
$DIMLIM
 70
     0
  9
$DIMTIH
 70
     1
  9
$DIMTOH
 70
     1
  9
$DIMSE1
 70
     0
  9
$DIMSE2
 70
     0
  9
$DIMTAD
 70
     0
  9
$DIMZIN
 70
     0
  9
$DIMBLK
  1

  9
$DIMASO
 70
     1
  9
$DIMSHO
 70
     1
  9
$DIMPOST
  1
\X
  9
$DIMAPOST
  1

  9
$DIMALT
 70
     1
  9
$DIMALTD
 70
     2
  9
$DIMALTF
 40
25.3999999999999986
  9
$DIMLFAC
 40
1.0
  9
$DIMTOFL
 70
     0
  9
$DIMTVP
 40
0.0
  9
$DIMTIX
 70
     0
  9
$DIMSOXD
 70
     0
  9
$DIMSAH
 70
     0
  9
$DIMBLK1
  1

  9
$DIMBLK2
  1

  9
$DIMSTYLE
  2
STANDARD
  9
$DIMCLRD
 70
     0
  9
$DIMCLRE
 70
     0
  9
$DIMCLRT
 70
     0
  9
$DIMTFAC
 40
1.0
  9
$DIMGAP
 40
0.09
  9
$LUNITS
 70
     2
  9
$LUPREC
 70
     4
  9
$SKETCHINC
 40
0.1
  9
$FILLETRAD
 40
0.0
  9
$AUNITS
 70
     0
  9
$AUPREC
 70
     0
  9
$MENU
  1
.
  9
$ELEVATION
 40
0.0
  9
$PELEVATION
 40
0.0
  9
$THICKNESS
 40
0.0
  9
$LIMCHECK
 70
     0
  9
$BLIPMODE
 70
     0
  9
$CHAMFERA
 40
0.0
  9
$CHAMFERB
 40
0.0
  9
$SKPOLY
 70
     0
  9
$TDCREATE
 40
2458060.468368056230247
  9
$TDUPDATE
 40
2460056.5180902779102325
  9
$TDINDWG
 40
0.5548565972
  9
$TDUSRTIMER
 40
0.5548565972
  9
$USRTIMER
 70
     1
  9
$ANGBASE
 50
0.0
  9
$ANGDIR
 70
     0
  9
$PDMODE
 70
     0
  9
$PDSIZE
 40
0.3125
  9
$PLINEWID
 40
0.0
  9
$COORDS
 70
     1
  9
$SPLFRAME
 70
     0
  9
$SPLINETYPE
 70
     6
  9
$SPLINESEGS
 70
     8
  9
$ATTDIA
 70
     1
  9
$ATTREQ
 70
     1
  9
$HANDLING
 70
     1
  9
$HANDSEED
  5
21702
  9
$SURFTAB1
 70
     6
  9
$SURFTAB2
 70
     6
  9
$SURFTYPE
 70
     6
  9
$SURFU
 70
     6
  9
$SURFV
 70
     6
  9
$UCSNAME
  2

  9
$UCSORG
 10
0.0
 20
0.0
 30
0.0
  9
$UCSXDIR
 10
1.0
 20
0.0
 30
0.0
  9
$UCSYDIR
 10
0.0
 20
1.0
 30
0.0
  9
$PUCSNAME
  2

  9
$PUCSORG
 10
0.0
 20
0.0
 30
0.0
  9
$PUCSXDIR
 10
1.0
 20
0.0
 30
0.0
  9
$PUCSYDIR
 10
0.0
 20
1.0
 30
0.0
  9
$USERI1
 70
     0
  9
$USERI2
 70
     0
  9
$USERI3
 70
     0
  9
$USERI4
 70
     0
  9
$USERI5
 70
     0
  9
$USERR1
 40
0.0
  9
$USERR2
 40
0.0
  9
$USERR3
 40
0.0
  9
$USERR4
 40
0.0
  9
$USERR5
 40
0.0
  9
$WORLDVIEW
 70
     1
  9
$SHADEDGE
 70
     3
  9
$SHADEDIF
 70
    70
  9
$TILEMODE
 70
     1
  9
$MAXACTVP
 70
    64
  9
$PLIMCHECK
 70
     0
  9
$PEXTMIN
 10
1.0000000000000000E+20
 20
1.0000000000000000E+20
 30
1.0000000000000000E+20
  9
$PEXTMAX
 10
-1.0000000000000000E+20
 20
-1.0000000000000000E+20
 30
-1.0000000000000000E+20
  9
$PLIMMIN
 10
0.0
 20
0.0
  9
$PLIMMAX
 10
12.0
 20
9.0
  9
$UNITMODE
 70
     0
  9
$VISRETAIN
 70
     1
  9
$PLINEGEN
 70
     0
  9
$PSLTSCALE
 70
     1
  0
ENDSEC
  0
SECTION
  2
TABLES
  0
TABLE
  2
VPORT
 70
     1
  0
VPORT
  2
*ACTIVE
 70
     0
 10
0.0
 20
0.0
 11
1.0
 21
1.0
 12
1355.1866656489089564
 22
-139.134122978736599
 13
0.0
 23
0.0
 14
1.0
 24
1.0
 15
0.0
 25
0.0
 16
0.0
 26
0.0
 36
5.1040778033513332
 17
3792.35791015625
 27
120.1806564331053977
 37
0.0
 40
6.4484571603714178
 41
2.6486111111111108
 42
50.0
 43
0.0
 44
0.0
 50
0.0
 51
0.0
 71
     0
 72
   100
 73
     1
 74
     1
 75
     0
 76
     0
 77
     0
 78
     0
  0
ENDTAB
  0
TABLE
  2
LTYPE
 70
     2
  0
LTYPE
  2
CONTINUOUS
 70
     0
  3
Solid line
 72
    65
 73
     0
 40
0.0
  0
LTYPE
  2
PHANTOM2
 70
     0
  3
___ _ _ ___ _ _ ___ _ _ ___ _ _
 72
    65
 73
     6
 40
1.25
 49
0.625
 49
-0.125
 49
0.125
 49
-0.125
 49
0.125
 49
-0.125
  0
ENDTAB
  0
TABLE
  2
LAYER
 70
     2
  0
LAYER
  2
0
 70
     0
 62
   255
  6
CONTINUOUS
  0
LAYER
  2
DEFPOINTS
 70
     0
 62
     7
  6
CONTINUOUS
  0
ENDTAB
  0
TABLE
  2
STYLE
 70
     1
  0
STYLE
  2
STANDARD
 70
     0
 40
0.0
 41
0.8
 50
0.0
 71
     0
 42
0.2
  3
txt
  4

  0
ENDTAB
  0
TABLE
  2
VIEW
 70
     0
  0
ENDTAB
  0
TABLE
  2
UCS
 70
     0
  0
ENDTAB
  0
TABLE
  2
APPID
 70
     9
  0
APPID
  2
ACAD
 70
     0
  0
APPID
  2
ACAD_MLEADERVER
 70
     0
  0
APPID
  2
ACAD_EXEMPT_FROM_CAD_STANDARDS
 70
     0
  0
APPID
  2
ACAD_NAV_VCDISPLAY
 70
     0
  0
APPID
  2
ACAECLAYERSTANDARD
 70
     0
  0
APPID
  2
ACCMTRANSPARENCY
 70
     0
  0
APPID
  2
ACAD_DSTYLE_DIMJAG
 70
     0
  0
APPID
  2
ACAD_DSTYLE_DIMTALN
 70
     0
  0
APPID
  2
ACDBATTR
 70
     0
  0
ENDTAB
  0
TABLE
  2
DIMSTYLE
 70
     1
  0
DIMSTYLE
  2
STANDARD
 70
     0
  3

  4

  5

  6

  7

 40
1.0
 41
0.1875
 42
0.0625
 43
0.38
 44
0.125
 45
0.0
 46
0.0
 47
0.01
 48
0.01
140
0.15625
141
0.09
142
0.0
143
25.3999999999999986
144
1.0
145
0.0
146
1.0
147
0.09
 71
     1
 72
     0
 73
     1
 74
     1
 75
     0
 76
     0
 77
     0
 78
     4
170
     0
171
     2
172
     0
173
     0
174
     0
175
     0
176
     0
177
     0
178
     0
  0
ENDTAB
  0
ENDSEC
  0
SECTION
  2
BLOCKS
  0
BLOCK
  8
0
  2
$MODEL_SPACE
 70
     0
 10
0.0
 20
0.0
 30
0.0
  3
$MODEL_SPACE
  1

  0
ENDBLK
  5
21
  8
0
  0
BLOCK
 67
     1
  8
0
  2
$PAPER_SPACE
 70
     0
 10
0.0
 20
0.0
 30
0.0
  3
$PAPER_SPACE
  1

  0
ENDBLK
  5
1D
 67
     1
  8
0
  0
BLOCK
  8
0
  2
_FILLED
 70
     0
 10
0.0
 20
0.0
 30
0.0
  3
_FILLED
  1

  0
SOLID
  5
1CA7B
  8
0
  6
BYBLOCK
 62
     0
 10
0.0
 20
0.0
 30
0.0
 11
-1.0
 21
0.1666666667
 31
0.0
 12
-1.0
 22
-0.1666666667
 32
0.0
 13
-1.0
 23
-0.1666666667
 33
0.0
  0
ENDBLK
  5
1CA7C
  8
0
  6
BYBLOCK
 62
     0
  0
ENDSEC
  0
SECTION
  2
ENTITIES
  0
ATTDEF
  5
3930
  8
DEFPOINTS
 10
5147.5351936571132683
 20
-16.6564968055235383
 30
0.0
 40
0.001
  1
K-22535ME-4ND
  3

  2
MODELNUMBER
 70
     0
1001
ACDBATTR
1070
     0
1070
     1
  0
ATTDEF
  5
3931
  8
DEFPOINTS
 10
5147.5351936571132683
 20
-16.6581634721902105
 30
0.0
 40
0.001
  1
HONE
  3

  2
TRADENAME
 70
     0
1001
ACDBATTR
1070
     0
1070
     1
  0
ATTDEF
  5
3932
  8
DEFPOINTS
 10
5147.5351936571132683
 20
-16.6598301388568686
 30
0.0
 40
0.001
  1
BATHROOM SINK FAUCET
  3

  2
PRODUCT
 70
     0
1001
ACDBATTR
1070
     0
1070
     1
  0
LINE
  5
21322
  8
0
 10
5146.6443455647940937
 20
-15.9574478299311409
 30
0.0
 11
5146.6801553223685914
 21
-17.5269268329891901
 31
0.0
  0
LINE
  5
21323
  8
0
 10
5146.8459455647953291
 20
-15.75584782993114
 30
0.0
 11
5148.2432060455230385
 21
-15.75584782993114
 31
0.0
  0
ARC
  5
21324
  8
0
 10
5146.8459455647953291
 20
-15.9574478299311409
 30
0.0
 40
0.2016
 50
90.0
 51
179.9999999999990052
  0
LINE
  5
21325
  8
0
 10
5146.7196450448245741
 20
-17.5655258222811383
 30
0.0
 11
5146.7461721547060733
 21
-17.5655258222811383
 31
0.0
  0
ARC
  5
21326
  8
0
 10
5146.7196450448245741
 20
-17.5260258222811309
 30
0.0
 40
0.0395
 50
181.3070528787283138
 51
270.0
  0
LINE
  5
21327
  8
0
 10
5147.1239946112518737
 20
-22.15108526133114
 30
0.0
 11
5147.9651569990655844
 21
-22.15108526133114
 31
0.0
  0
LINE
  5
21328
  8
0
 10
5146.9399928087341323
 20
-15.9415421262811403
 30
0.0
 11
5148.1491588015851448
 21
-15.9415421262811403
 31
0.0
  0
ARC
  5
21329
  8
0
 10
5146.9399928087341323
 20
-16.1435421262811403
 30
0.0
 40
0.202
 50
90.0
 51
180.0
  0
LINE
  5
2132A
  8
0
 10
5146.8227421881119881
 20
-19.9395692638425714
 30
0.0
 11
5146.7379928087339067
 21
-16.1435421262811403
 31
0.0
  0
LINE
  5
2132B
  8
0
 10
5147.0126948538372744
 20
-20.1253284167811408
 30
0.0
 11
5148.0764567564810932
 21
-20.1253284167811408
 31
0.0
  0
ARC
  5
2132C
  8
0
 10
5147.0126948538372744
 20
-19.9353284167811502
 30
0.0
 40
0.19
 50
181.2789622005149965
 51
270.0
  0
LINE
  5
2132D
  8
0
 10
5146.9271914745631875
 20
-15.9230340050811403
 30
0.0
 11
5148.1619601357560896
 21
-15.9230340050811403
 31
0.0
  0
ARC
  5
2132E
  8
0
 10
5146.9271914745631875
 20
-16.1230340050811414
 30
0.0
 40
0.2
 50
90.0
 51
180.0000000000009948
  0
LINE
  5
2132F
  8
0
 10
5146.7271914745615504
 20
-16.1230340050811414
 30
0.0
 11
5146.756130272306109
 21
-17.5552383619329184
 31
0.0
  0
ARC
  5
21330
  8
0
 10
5146.7687280151430969
 20
-17.5535478910317089
 30
0.0
 40
0.0127106575934413
 50
187.6427736865908003
 51
274.6351862425510717
  0
LINE
  5
21331
  8
0
 10
5146.8485720976650555
 20
-21.8821189440030501
 30
0.0
 11
5146.7461721547060733
 21
-17.5655258222811383
 31
0.0
  0
ARC
  5
21332
  8
0
 10
5147.1239946112518737
 20
-21.875585261331139
 30
0.0
 40
0.2755
 50
181.3589384471567882
 51
270.0
  0
LINE
  5
21333
  8
0
 10
5148.4448060455242739
 20
-15.9574478299311409
 30
0.0
 11
5148.4089962879497762
 21
-17.5269268329891901
 31
0.0
  0
ARC
  5
21334
  8
0
 10
5148.2432060455230385
 20
-15.9574478299311409
 30
0.0
 40
0.2016
 50
0.0000000000010178
 51
90.0
  0
LINE
  5
21335
  8
0
 10
5148.369506565492884
 20
-17.5655258222811383
 30
0.0
 11
5148.3429794556132038
 21
-17.5655258222811383
 31
0.0
  0
ARC
  5
21336
  8
0
 10
5148.369506565492884
 20
-17.5260258222811309
 30
0.0
 40
0.0395
 50
270.0
 51
358.6929471212715725
  0
ARC
  5
21337
  8
0
 10
5148.1491588015851448
 20
-16.1435421262811403
 30
0.0
 40
0.202
 50
0.0
 51
90.0
  0
LINE
  5
21338
  8
0
 10
5148.266409422207289
 20
-19.9395692638425714
 30
0.0
 11
5148.3511588015853704
 21
-16.1435421262811403
 31
0.0
  0
ARC
  5
21339
  8
0
 10
5148.0764567564810932
 20
-19.9353284167811502
 30
0.0
 40
0.19
 50
270.0
 51
358.7210377994848045
  0
ARC
  5
2133A
  8
0
 10
5148.1619601357560896
 20
-16.1230340050811414
 30
0.0
 40
0.2
 50
359.9999999999989768
 51
90.0
  0
LINE
  5
2133B
  8
0
 10
5148.3619601357559077
 20
-16.1230340050811414
 30
0.0
 11
5148.3330213380140776
 21
-17.5552383619329184
 31
0.0
  0
ARC
  5
2133C
  8
0
 10
5148.3204235951761802
 20
-17.5535478910317089
 30
0.0
 40
0.0127106575934413
 50
265.3648137574488146
 51
352.3572263134092282
  0
LINE
  5
2133D
  8
0
 10
5148.2405795126533121
 20
-21.8821189440030501
 30
0.0
 11
5148.3429794556132038
 21
-17.5655258222811383
 31
0.0
  0
ARC
  5
2133E
  8
0
 10
5147.9651569990655844
 20
-21.875585261331139
 30
0.0
 40
0.2755
 50
270.0
 51
358.6410615528429275
  0
ENDSEC
  0
EOF
