  0
SECTION
  2
HEADER
  9
$ACADVER
  1
AC1009
  9
$INSBASE
 10
3638.1737055032008357
 20
157.5887829728889926
 30
0.0
  9
$EXTMIN
 10
3637.2734662578700409
 20
152.0983455414593095
 30
0.0
  9
$EXTMAX
 10
3639.0739447485320852
 20
158.4935829728889871
 30
0.0
  9
$LIMMIN
 10
0.0
 20
0.0
  9
$LIMMAX
 10
11.6929133858000007
 20
8.2677165353999982
  9
$ORTHOMODE
 70
     0
  9
$REGENMODE
 70
     1
  9
$FILLMODE
 70
     1
  9
$QTEXTMODE
 70
     0
  9
$MIRRTEXT
 70
     0
  9
$DRAGMODE
 70
     2
  9
$LTSCALE
 40
0.6431102362
  9
$OSMODE
 70
  3839
  9
$ATTMODE
 70
     1
  9
$TEXTSIZE
 40
0.2
  9
$TRACEWID
 40
0.05
  9
$TEXTSTYLE
  7
STANDARD
  9
$CLAYER
  8
0
  9
$CELTYPE
  6
BYLAYER
  9
$CECOLOR
 62
   256
  9
$DIMSCALE
 40
1.0
  9
$DIMASZ
 40
0.1875
  9
$DIMEXO
 40
0.0625
  9
$DIMDLI
 40
0.4443307087
  9
$DIMRND
 40
0.0
  9
$DIMDLE
 40
0.0
  9
$DIMEXE
 40
0.125
  9
$DIMTP
 40
0.01
  9
$DIMTM
 40
0.01
  9
$DIMTXT
 40
2.0
  9
$DIMCEN
 40
0.1052362205
  9
$DIMTSZ
 40
0.0
  9
$DIMTOL
 70
     1
  9
$DIMLIM
 70
     0
  9
$DIMTIH
 70
     1
  9
$DIMTOH
 70
     1
  9
$DIMSE1
 70
     0
  9
$DIMSE2
 70
     0
  9
$DIMTAD
 70
     0
  9
$DIMZIN
 70
     0
  9
$DIMBLK
  1

  9
$DIMASO
 70
     1
  9
$DIMSHO
 70
     1
  9
$DIMPOST
  1
\X
  9
$DIMAPOST
  1

  9
$DIMALT
 70
     1
  9
$DIMALTD
 70
     2
  9
$DIMALTF
 40
25.3999999999999986
  9
$DIMLFAC
 40
1.0
  9
$DIMTOFL
 70
     0
  9
$DIMTVP
 40
0.0
  9
$DIMTIX
 70
     0
  9
$DIMSOXD
 70
     0
  9
$DIMSAH
 70
     0
  9
$DIMBLK1
  1

  9
$DIMBLK2
  1

  9
$DIMSTYLE
  2
STANDARD
  9
$DIMCLRD
 70
     0
  9
$DIMCLRE
 70
     0
  9
$DIMCLRT
 70
     0
  9
$DIMTFAC
 40
1.0
  9
$DIMGAP
 40
0.09
  9
$LUNITS
 70
     2
  9
$LUPREC
 70
     4
  9
$SKETCHINC
 40
0.1
  9
$FILLETRAD
 40
0.0
  9
$AUNITS
 70
     0
  9
$AUPREC
 70
     0
  9
$MENU
  1
.
  9
$ELEVATION
 40
0.0
  9
$PELEVATION
 40
0.0
  9
$THICKNESS
 40
0.0
  9
$LIMCHECK
 70
     0
  9
$BLIPMODE
 70
     0
  9
$CHAMFERA
 40
0.0
  9
$CHAMFERB
 40
0.0
  9
$SKPOLY
 70
     0
  9
$TDCREATE
 40
2458060.468368056230247
  9
$TDUPDATE
 40
2459123.547858796082437
  9
$TDINDWG
 40
0.7157246528
  9
$TDUSRTIMER
 40
0.7157246528
  9
$USRTIMER
 70
     1
  9
$ANGBASE
 50
0.0
  9
$ANGDIR
 70
     0
  9
$PDMODE
 70
     0
  9
$PDSIZE
 40
0.3125
  9
$PLINEWID
 40
0.0
  9
$COORDS
 70
     1
  9
$SPLFRAME
 70
     0
  9
$SPLINETYPE
 70
     6
  9
$SPLINESEGS
 70
     8
  9
$ATTDIA
 70
     1
  9
$ATTREQ
 70
     1
  9
$HANDLING
 70
     1
  9
$HANDSEED
  5
10791
  9
$SURFTAB1
 70
     6
  9
$SURFTAB2
 70
     6
  9
$SURFTYPE
 70
     6
  9
$SURFU
 70
     6
  9
$SURFV
 70
     6
  9
$UCSNAME
  2

  9
$UCSORG
 10
0.0
 20
0.0
 30
0.0
  9
$UCSXDIR
 10
1.0
 20
0.0
 30
0.0
  9
$UCSYDIR
 10
0.0
 20
1.0
 30
0.0
  9
$PUCSNAME
  2

  9
$PUCSORG
 10
0.0
 20
0.0
 30
0.0
  9
$PUCSXDIR
 10
1.0
 20
0.0
 30
0.0
  9
$PUCSYDIR
 10
0.0
 20
1.0
 30
0.0
  9
$USERI1
 70
     0
  9
$USERI2
 70
     0
  9
$USERI3
 70
     0
  9
$USERI4
 70
     0
  9
$USERI5
 70
     0
  9
$USERR1
 40
0.0
  9
$USERR2
 40
0.0
  9
$USERR3
 40
0.0
  9
$USERR4
 40
0.0
  9
$USERR5
 40
0.0
  9
$WORLDVIEW
 70
     1
  9
$SHADEDGE
 70
     3
  9
$SHADEDIF
 70
    70
  9
$TILEMODE
 70
     1
  9
$MAXACTVP
 70
    64
  9
$PLIMCHECK
 70
     0
  9
$PEXTMIN
 10
1.0000000000000000E+20
 20
1.0000000000000000E+20
 30
1.0000000000000000E+20
  9
$PEXTMAX
 10
-1.0000000000000000E+20
 20
-1.0000000000000000E+20
 30
-1.0000000000000000E+20
  9
$PLIMMIN
 10
0.0
 20
0.0
  9
$PLIMMAX
 10
12.0
 20
9.0
  9
$UNITMODE
 70
     0
  9
$VISRETAIN
 70
     1
  9
$PLINEGEN
 70
     0
  9
$PSLTSCALE
 70
     1
  0
ENDSEC
  0
SECTION
  2
TABLES
  0
TABLE
  2
VPORT
 70
     1
  0
VPORT
  2
*ACTIVE
 70
     0
 10
0.0
 20
0.0
 11
1.0
 21
1.0
 12
0.0
 22
0.0
 13
0.0
 23
0.0
 14
1.0
 24
1.0
 15
0.0
 25
0.0
 16
0.0
 26
0.0
 36
27.582322226039981
 17
3638.1737060546879547
 27
155.2959594726561932
 37
0.0
 40
6.6438649128390947
 41
3.314341846758349
 42
50.0
 43
0.0
 44
0.0
 50
0.0
 51
0.0
 71
     0
 72
   100
 73
     1
 74
     1
 75
     0
 76
     0
 77
     0
 78
     0
  0
ENDTAB
  0
TABLE
  2
LTYPE
 70
     2
  0
LTYPE
  2
CONTINUOUS
 70
     0
  3
Solid line
 72
    65
 73
     0
 40
0.0
  0
LTYPE
  2
PHANTOM2
 70
     0
  3
___ _ _ ___ _ _ ___ _ _ ___ _ _
 72
    65
 73
     6
 40
1.25
 49
0.625
 49
-0.125
 49
0.125
 49
-0.125
 49
0.125
 49
-0.125
  0
ENDTAB
  0
TABLE
  2
LAYER
 70
     2
  0
LAYER
  2
0
 70
     0
 62
   255
  6
CONTINUOUS
  0
LAYER
  2
DEFPOINTS
 70
     0
 62
     7
  6
CONTINUOUS
  0
ENDTAB
  0
TABLE
  2
STYLE
 70
     1
  0
STYLE
  2
STANDARD
 70
     0
 40
0.0
 41
0.8
 50
0.0
 71
     0
 42
0.2
  3
txt
  4

  0
ENDTAB
  0
TABLE
  2
VIEW
 70
     0
  0
ENDTAB
  0
TABLE
  2
UCS
 70
     0
  0
ENDTAB
  0
TABLE
  2
APPID
 70
    10
  0
APPID
  2
ACAD
 70
     0
  0
APPID
  2
ACAD_MLEADERVER
 70
     0
  0
APPID
  2
ACAD_EXEMPT_FROM_CAD_STANDARDS
 70
     0
  0
APPID
  2
ACAD_NAV_VCDISPLAY
 70
     0
  0
APPID
  2
ACAECLAYERSTANDARD
 70
     0
  0
APPID
  2
ACCMTRANSPARENCY
 70
     0
  0
APPID
  2
ACAD_DSTYLE_DIMJAG
 70
     0
  0
APPID
  2
ACAD_DSTYLE_DIMTALN
 70
     0
  0
APPID
  2
ACDBATTR
 70
     0
  0
APPID
  2
ACAD_PSEXT
 70
     0
  0
ENDTAB
  0
TABLE
  2
DIMSTYLE
 70
     1
  0
DIMSTYLE
  2
STANDARD
 70
     0
  3

  4

  5

  6

  7

 40
1.0
 41
0.1875
 42
0.0625
 43
0.38
 44
0.125
 45
0.0
 46
0.0
 47
0.01
 48
0.01
140
0.15625
141
0.09
142
0.0
143
25.3999999999999986
144
1.0
145
0.0
146
1.0
147
0.09
 71
     1
 72
     0
 73
     1
 74
     1
 75
     0
 76
     0
 77
     0
 78
     4
170
     0
171
     2
172
     0
173
     0
174
     0
175
     0
176
     0
177
     0
178
     0
  0
ENDTAB
  0
ENDSEC
  0
SECTION
  2
BLOCKS
  0
BLOCK
  8
0
  2
$MODEL_SPACE
 70
     0
 10
0.0
 20
0.0
 30
0.0
  3
$MODEL_SPACE
  1

  0
ENDBLK
  5
21
  8
0
  0
BLOCK
 67
     1
  8
0
  2
$PAPER_SPACE
 70
     0
 10
0.0
 20
0.0
 30
0.0
  3
$PAPER_SPACE
  1

  0
ENDBLK
  5
1D
 67
     1
  8
0
  0
BLOCK
  8
0
  2
_FILLED
 70
     0
 10
0.0
 20
0.0
 30
0.0
  3
_FILLED
  1

  0
SOLID
  5
B630
  8
0
  6
BYBLOCK
 62
     0
 10
0.0
 20
0.0
 30
0.0
 11
-1.0
 21
0.1666666667
 31
0.0
 12
-1.0
 22
-0.1666666667
 32
0.0
 13
-1.0
 23
-0.1666666667
 33
0.0
  0
ENDBLK
  5
B631
  8
0
  6
BYBLOCK
 62
     0
  0
ENDSEC
  0
SECTION
  2
ENTITIES
  0
ATTDEF
  5
AA11
  8
DEFPOINTS
 10
3638.1739650077420265
 20
157.5874669058543986
 30
0.0
 40
0.001
  1
K-22535IN-4ND
  3

  2
MODELNUMBER
 70
     0
1001
ACDBATTR
1070
     0
1070
     1
  0
ATTDEF
  5
AA12
  8
DEFPOINTS
 10
3638.1739650077420265
 20
157.5858002391877051
 30
0.0
 40
0.001
  1
HONE
  3

  2
TRADENAME
 70
     0
1001
ACDBATTR
1070
     0
1070
     1
  0
ATTDEF
  5
AA13
  8
DEFPOINTS
 10
3638.1739650077420265
 20
157.5841335725210115
 30
0.0
 40
0.001
  1
BATHROOM SINK FAUCET
  3

  2
PRODUCT
 70
     0
1001
ACDBATTR
1070
     0
1070
     1
  0
LINE
  5
1059A
  8
0
 10
3638.794461021404004
 20
158.3132264155939026
 30
0.0
 11
3637.5529499849981221
 21
158.3132264155939026
 31
0.0
  0
LINE
  5
1059B
  8
0
 10
3638.7632834366409043
 20
158.3317339410874069
 30
0.0
 11
3637.5841275697598576
 21
158.3317339410874069
 31
0.0
  0
LINE
  5
1059C
  8
0
 10
3638.7693836668740914
 20
158.3392698465939077
 30
0.0
 11
3637.5780272395268184
 21
158.3392698465939077
 31
0.0
  0
LINE
  5
1059D
  8
0
 10
3638.6903932952031937
 20
154.1294424346484959
 30
0.0
 11
3637.6570177111989324
 21
154.1294424346484959
 31
0.0
  0
LINE
  5
1059E
  8
0
 10
3638.5894263642048827
 20
152.0983455414593095
 30
0.0
 11
3637.7579774821051615
 21
152.0983469448592871
 31
0.0
  0
ARC
  5
1059F
  8
0
 10
3638.7526730346107797
 20
158.0896310547603889
 30
0.0
 40
0.2274667475182423
 50
357.9986792190786105
 51
79.4140500285549535
  0
LINE
  5
105A0
  8
0
 10
3638.9800010324738651
 20
158.081687339393909
 30
0.0
 11
3638.8961176968741711
 21
154.3409925365938875
 31
0.0
  0
ARC
  5
105A1
  8
0
 10
3638.6655722738901204
 20
154.3593845469395092
 30
0.0
 40
0.231277880706087
 50
276.160917785406923
 51
355.4388269912603278
  0
ARC
  5
105A2
  8
0
 10
3638.8442228512549264
 20
158.2638873123943029
 30
0.0
 40
0.2297218972761516
 50
359.5389170815244029
 51
89.1340439604751111
  0
LINE
  5
105A3
  8
0
 10
3639.0739373100750527
 20
158.2620386648939075
 30
0.0
 11
3639.0388088443828565
 21
156.722377020693898
 31
0.0
  0
ARC
  5
105A4
  8
0
 10
3638.9994465470740579
 20
156.7232776286973035
 30
0.0
 40
0.0393725989014804
 50
269.9957234192194733
 51
358.6893032243809216
  0
LINE
  5
105A5
  8
0
 10
3638.9994436082870379
 20
156.6839050299055032
 30
0.0
 11
3638.9721049939012119
 21
156.6839050365369133
 31
0.0
  0
LINE
  5
105A6
  8
0
 10
3638.9721049939012119
 20
156.6839050365369133
 30
0.0
 11
3638.8697203051051474
 21
152.3676500181593099
 31
0.0
  0
ARC
  5
105A7
  8
0
 10
3638.5856108827979369
 20
152.3828348841421985
 30
0.0
 40
0.284514927549563
 50
270.7683868694654166
 51
356.9406093624780851
  0
ARC
  5
105A8
  8
0
 10
3638.773663273063903
 20
158.1171507339151958
 30
0.0
 40
0.222160334871858
 50
357.5688107139527006
 51
91.1037650348060737
  0
ARC
  5
105A9
  8
0
 10
3638.7609617189241362
 20
158.1017830969938132
 30
0.0
 40
0.2299625645024863
 50
0.3534606132834565
 51
89.4215280790553777
  0
LINE
  5
105AA
  8
0
 10
3638.9909199075750621
 20
158.1032017388938868
 30
0.0
 11
3638.9622107802738356
 21
156.7023547716939049
 31
0.0
  0
ARC
  5
105AB
  8
0
 10
3638.9496242934919792
 20
156.7011983918906992
 30
0.0
 40
0.0126394961834045
 50
288.764523750114904
 51
5.2492964318953383
  0
ARC
  5
105AC
  8
0
 10
4164.2086587924759442
 20
142.6377955189674935
 30
0.0
 40
525.4428845304063316
 50
178.467609049469587
 51
178.714143145576287
  0
LINE
  5
105AD
  8
0
 10
3638.9956236384891781
 20
158.1077267978720897
 30
0.0
 11
3638.9640140609740229
 21
156.7223722365939125
 31
0.0
  0
ARC
  5
105AE
  8
0
 10
3638.9246669287431359
 20
156.7232700184765974
 30
0.0
 40
0.039357373225369
 50
343.8143744668861927
 51
358.692911375259996
  0
ARC
  5
105AF
  8
0
 10
3637.5947379717908916
 20
158.0896310547603889
 30
0.0
 40
0.2274667475182423
 50
100.5859499714450038
 51
182.0013207809213895
  0
LINE
  5
105B0
  8
0
 10
3637.3674099739278063
 20
158.081687339393909
 30
0.0
 11
3637.4512933095270455
 21
154.3409925365938875
 31
0.0
  0
ARC
  5
105B1
  8
0
 10
3637.6818387325120057
 20
154.3593845469395092
 30
0.0
 40
0.231277880706087
 50
184.5611730087397007
 51
263.839082214593077
  0
ARC
  5
105B2
  8
0
 10
3637.5031881551471997
 20
158.2638873123943029
 30
0.0
 40
0.2297218972761547
 50
90.8659560395248747
 51
180.4610829184738918
  0
LINE
  5
105B3
  8
0
 10
3637.2734736963270734
 20
158.2620386648939075
 30
0.0
 11
3637.3086021620188149
 21
156.722377020693898
 31
0.0
  0
ARC
  5
105B4
  8
0
 10
3637.3479644593289777
 20
156.7232776286973035
 30
0.0
 40
0.0393725989014804
 50
181.3106967756191068
 51
270.0042765807805267
  0
LINE
  5
105B5
  8
0
 10
3637.3479673981159976
 20
156.6839050299055032
 30
0.0
 11
3637.3753031354740415
 21
156.6839050364347088
 31
0.0
  0
LINE
  5
105B6
  8
0
 10
3637.3753031354740415
 20
156.6839050364347088
 30
0.0
 11
3637.4776915164161437
 21
152.3676498975140987
 31
0.0
  0
ARC
  5
105B7
  8
0
 10
3637.762145984811923
 20
152.3831953785135056
 30
0.0
 40
0.2848789331805853
 50
183.1281115695927895
 51
269.1615872288882088
  0
ARC
  5
105B8
  8
0
 10
3637.573747733338223
 20
158.1171507339151958
 30
0.0
 40
0.222160334871858
 50
88.8962349651939263
 51
182.4311892860474131
  0
ARC
  5
105B9
  8
0
 10
3637.5864492874779899
 20
158.1017830969938132
 30
0.0
 40
0.2299625645024863
 50
90.5784719209446365
 51
179.6465393867165119
  0
LINE
  5
105BA
  8
0
 10
3637.356491098827064
 20
158.1032017388938868
 30
0.0
 11
3637.3852002261269263
 21
156.7023547716939049
 31
0.0
  0
ARC
  5
105BB
  8
0
 10
3637.3977867129101469
 20
156.7011983918906992
 30
0.0
 40
0.0126394961834045
 50
174.7507035681047114
 51
251.235476249885096
  0
ARC
  5
105BC
  8
0
 10
3112.1387522139261819
 20
142.6377955189674935
 30
0.0
 40
525.4428845304063316
 50
1.2858568544236539
 51
1.532390950530393
  0
LINE
  5
105BD
  8
0
 10
3637.351787367912948
 20
158.1077267978720897
 30
0.0
 11
3637.3833969454271937
 21
156.7223722365939125
 31
0.0
  0
ARC
  5
105BE
  8
0
 10
3637.4227440776589901
 20
156.7232700184765974
 30
0.0
 40
0.039357373225369
 50
181.307088624740004
 51
196.1856255331138073
  0
LINE
  5
105C0
  8
0
 10
3638.8476946862260775
 20
158.4935829728889871
 30
0.0
 11
3637.4997163201760486
 21
158.4935829728889871
 31
0.0
  0
ENDSEC
  0
EOF
