  0
SECTION
  2
HEADER
  9
$ACADVER
  1
AC1009
  9
$INSBASE
 10
143.8387512717843038
 20
-5.3567786049560846
 30
0.0
  9
$EXTMIN
 10
131.8161734649121968
 20
-15.3076689005551607
 30
-0.0000000349181948
  9
$EXTMAX
 10
155.8592834455141087
 20
4.5950872943275272
 30
0.0000000814935746
  9
$LIMMIN
 10
0.0
 20
0.0
  9
$LIMMAX
 10
11.6929133858000007
 20
8.2677165353999982
  9
$ORTHOMODE
 70
     0
  9
$REGENMODE
 70
     1
  9
$FILLMODE
 70
     1
  9
$QTEXTMODE
 70
     0
  9
$MIRRTEXT
 70
     0
  9
$DRAGMODE
 70
     2
  9
$LTSCALE
 40
0.6431102362
  9
$OSMODE
 70
  2047
  9
$ATTMODE
 70
     1
  9
$TEXTSIZE
 40
0.2
  9
$TRACEWID
 40
0.05
  9
$TEXTSTYLE
  7
STANDARD
  9
$CLAYER
  8
0
  9
$CELTYPE
  6
BYLAYER
  9
$CECOLOR
 62
   256
  9
$DIMSCALE
 40
1.0
  9
$DIMASZ
 40
0.1875
  9
$DIMEXO
 40
0.0625
  9
$DIMDLI
 40
0.4443307087
  9
$DIMRND
 40
0.0
  9
$DIMDLE
 40
0.0
  9
$DIMEXE
 40
0.125
  9
$DIMTP
 40
0.01
  9
$DIMTM
 40
0.01
  9
$DIMTXT
 40
1.0
  9
$DIMCEN
 40
0.1052362205
  9
$DIMTSZ
 40
0.0
  9
$DIMTOL
 70
     1
  9
$DIMLIM
 70
     0
  9
$DIMTIH
 70
     1
  9
$DIMTOH
 70
     1
  9
$DIMSE1
 70
     0
  9
$DIMSE2
 70
     0
  9
$DIMTAD
 70
     0
  9
$DIMZIN
 70
     0
  9
$DIMBLK
  1

  9
$DIMASO
 70
     1
  9
$DIMSHO
 70
     1
  9
$DIMPOST
  1
\X
  9
$DIMAPOST
  1

  9
$DIMALT
 70
     1
  9
$DIMALTD
 70
     2
  9
$DIMALTF
 40
25.3999999999999986
  9
$DIMLFAC
 40
1.0
  9
$DIMTOFL
 70
     0
  9
$DIMTVP
 40
0.0
  9
$DIMTIX
 70
     0
  9
$DIMSOXD
 70
     0
  9
$DIMSAH
 70
     0
  9
$DIMBLK1
  1

  9
$DIMBLK2
  1

  9
$DIMSTYLE
  2
STANDARD
  9
$DIMCLRD
 70
     0
  9
$DIMCLRE
 70
     0
  9
$DIMCLRT
 70
     0
  9
$DIMTFAC
 40
1.0
  9
$DIMGAP
 40
0.09
  9
$LUNITS
 70
     2
  9
$LUPREC
 70
     4
  9
$SKETCHINC
 40
0.1
  9
$FILLETRAD
 40
0.0
  9
$AUNITS
 70
     0
  9
$AUPREC
 70
     0
  9
$MENU
  1
.
  9
$ELEVATION
 40
0.0
  9
$PELEVATION
 40
0.0
  9
$THICKNESS
 40
0.0
  9
$LIMCHECK
 70
     0
  9
$BLIPMODE
 70
     0
  9
$CHAMFERA
 40
0.0
  9
$CHAMFERB
 40
0.0
  9
$SKPOLY
 70
     0
  9
$TDCREATE
 40
2458172.4620254631154239
  9
$TDUPDATE
 40
2459037.8629745370708406
  9
$TDINDWG
 40
0.0834202894
  9
$TDUSRTIMER
 40
0.0834202894
  9
$USRTIMER
 70
     1
  9
$ANGBASE
 50
0.0
  9
$ANGDIR
 70
     0
  9
$PDMODE
 70
     0
  9
$PDSIZE
 40
0.3125
  9
$PLINEWID
 40
0.0
  9
$COORDS
 70
     1
  9
$SPLFRAME
 70
     0
  9
$SPLINETYPE
 70
     6
  9
$SPLINESEGS
 70
     8
  9
$ATTDIA
 70
     1
  9
$ATTREQ
 70
     1
  9
$HANDLING
 70
     1
  9
$HANDSEED
  5
4298
  9
$SURFTAB1
 70
     6
  9
$SURFTAB2
 70
     6
  9
$SURFTYPE
 70
     6
  9
$SURFU
 70
     6
  9
$SURFV
 70
     6
  9
$UCSNAME
  2

  9
$UCSORG
 10
0.0
 20
0.0
 30
0.0
  9
$UCSXDIR
 10
1.0
 20
0.0
 30
0.0
  9
$UCSYDIR
 10
0.0
 20
1.0
 30
0.0
  9
$PUCSNAME
  2

  9
$PUCSORG
 10
0.0
 20
0.0
 30
0.0
  9
$PUCSXDIR
 10
1.0
 20
0.0
 30
0.0
  9
$PUCSYDIR
 10
0.0
 20
1.0
 30
0.0
  9
$USERI1
 70
     0
  9
$USERI2
 70
     0
  9
$USERI3
 70
     0
  9
$USERI4
 70
     0
  9
$USERI5
 70
     0
  9
$USERR1
 40
0.0
  9
$USERR2
 40
0.0
  9
$USERR3
 40
0.0
  9
$USERR4
 40
0.0
  9
$USERR5
 40
0.0
  9
$WORLDVIEW
 70
     1
  9
$SHADEDGE
 70
     3
  9
$SHADEDIF
 70
    70
  9
$TILEMODE
 70
     1
  9
$MAXACTVP
 70
    64
  9
$PLIMCHECK
 70
     0
  9
$PEXTMIN
 10
1.0000000000000000E+20
 20
1.0000000000000000E+20
 30
1.0000000000000000E+20
  9
$PEXTMAX
 10
-1.0000000000000000E+20
 20
-1.0000000000000000E+20
 30
-1.0000000000000000E+20
  9
$PLIMMIN
 10
0.0
 20
0.0
  9
$PLIMMAX
 10
12.0
 20
9.0
  9
$UNITMODE
 70
     0
  9
$VISRETAIN
 70
     1
  9
$PLINEGEN
 70
     0
  9
$PSLTSCALE
 70
     1
  0
ENDSEC
  0
SECTION
  2
TABLES
  0
TABLE
  2
VPORT
 70
     1
  0
VPORT
  2
*ACTIVE
 70
     0
 10
0.0
 20
0.0
 11
1.0
 21
1.0
 12
19.2265698551405286
 22
-10.6685649734916392
 13
0.0
 23
0.0
 14
1.0
 24
1.0
 15
0.0
 25
0.0
 16
0.0
 26
0.0
 36
30.6214257250603907
 17
124.6111586000725993
 27
5.3122741703778242
 37
0.0
 40
20.0683824600273404
 41
2.6486111111111108
 42
50.0
 43
0.0
 44
0.0
 50
0.0
 51
0.0
 71
     0
 72
   100
 73
     1
 74
     1
 75
     0
 76
     0
 77
     0
 78
     0
  0
ENDTAB
  0
TABLE
  2
LTYPE
 70
     2
  0
LTYPE
  2
CONTINUOUS
 70
     0
  3
Solid line
 72
    65
 73
     0
 40
0.0
  0
LTYPE
  2
PHANTOM2
 70
     0
  3
___ _ _ ___ _ _ ___ _ _ ___ _ _
 72
    65
 73
     6
 40
1.25
 49
0.625
 49
-0.125
 49
0.125
 49
-0.125
 49
0.125
 49
-0.125
  0
ENDTAB
  0
TABLE
  2
LAYER
 70
     3
  0
LAYER
  2
0
 70
     0
 62
   255
  6
CONTINUOUS
  0
LAYER
  2
DEFPOINTS
 70
     0
 62
     7
  6
CONTINUOUS
  0
LAYER
  2
2239-8_1_1
 70
     0
 62
     7
  6
CONTINUOUS
  0
ENDTAB
  0
TABLE
  2
STYLE
 70
     1
  0
STYLE
  2
STANDARD
 70
     0
 40
0.0
 41
0.8
 50
0.0
 71
     0
 42
0.2
  3
txt
  4

  0
ENDTAB
  0
TABLE
  2
VIEW
 70
     0
  0
ENDTAB
  0
TABLE
  2
UCS
 70
     0
  0
ENDTAB
  0
TABLE
  2
APPID
 70
     9
  0
APPID
  2
ACAD
 70
     0
  0
APPID
  2
ACAD_MLEADERVER
 70
     0
  0
APPID
  2
ACAD_EXEMPT_FROM_CAD_STANDARDS
 70
     0
  0
APPID
  2
ACAD_DSTYLE_DIMJAG
 70
     0
  0
APPID
  2
ACAD_DSTYLE_DIMTALN
 70
     0
  0
APPID
  2
ACAD_NAV_VCDISPLAY
 70
     0
  0
APPID
  2
ACAECLAYERSTANDARD
 70
     0
  0
APPID
  2
ACCMTRANSPARENCY
 70
     0
  0
APPID
  2
ACDBATTR
 70
     0
  0
ENDTAB
  0
TABLE
  2
DIMSTYLE
 70
     1
  0
DIMSTYLE
  2
STANDARD
 70
     0
  3

  4

  5

  6

  7

 40
1.0
 41
0.1875
 42
0.0625
 43
0.38
 44
0.125
 45
0.0
 46
0.0
 47
0.01
 48
0.01
140
0.15625
141
0.09
142
0.0
143
25.3999999999999986
144
1.0
145
0.0
146
1.0
147
0.09
 71
     1
 72
     0
 73
     1
 74
     1
 75
     0
 76
     0
 77
     0
 78
     4
170
     0
171
     2
172
     0
173
     0
174
     0
175
     0
176
     0
177
     0
178
     0
  0
ENDTAB
  0
ENDSEC
  0
SECTION
  2
BLOCKS
  0
BLOCK
  8
0
  2
$MODEL_SPACE
 70
     0
 10
0.0
 20
0.0
 30
0.0
  3
$MODEL_SPACE
  1

  0
ENDBLK
  5
21
  8
0
  0
BLOCK
 67
     1
  8
0
  2
$PAPER_SPACE
 70
     0
 10
0.0
 20
0.0
 30
0.0
  3
$PAPER_SPACE
  1

  0
ENDBLK
  5
1D
 67
     1
  8
0
  0
BLOCK
  8
0
  2
_FILLED
 70
     0
 10
0.0
 20
0.0
 30
0.0
  3
_FILLED
  1

  0
SOLID
  5
2F06
  8
0
  6
BYBLOCK
 62
     0
 10
0.0
 20
0.0
 30
0.0
 11
-1.0
 21
0.1666666667
 31
0.0
 12
-1.0
 22
-0.1666666667
 32
0.0
 13
-1.0
 23
-0.1666666667
 33
0.0
  0
ENDBLK
  5
2F07
  8
0
  6
BYBLOCK
 62
     0
  0
ENDSEC
  0
SECTION
  2
ENTITIES
  0
ATTDEF
  5
3BEE
  8
DEFPOINTS
 10
143.8388226660354121
 20
-5.3531367501806377
 30
0.0
 40
0.001
  1
K-2239T-8
  3

  2
MODELNUMBER
 70
     0
1001
ACDBATTR
1070
     0
1070
     1
  0
ATTDEF
  5
3BEF
  8
DEFPOINTS
 10
143.8388226660354121
 20
-5.3548034168473029
 30
0.0
 40
0.001
  1
MEMOIRS
  3

  2
TRADENAME
 70
     0
1001
ACDBATTR
1070
     0
1070
     1
  0
ATTDEF
  5
3BF0
  8
DEFPOINTS
 10
143.8388226660354121
 20
-5.356470083513968
 30
0.0
 40
0.001
  1
BATHROOM SINK
  3

  2
PRODUCT
 70
     0
1001
ACDBATTR
1070
     0
1070
     1
  0
LINE
  5
3E7F
  8
0
 10
132.0155240904809091
 20
-15.3076484093263101
 30
0.0
 11
155.6624016510698993
 21
-15.3076484093263101
 31
0.0
  0
LINE
  5
3E80
  8
0
 10
133.2232270957289018
 20
-14.0964776476263101
 30
0.0
 11
154.4542754478397057
 21
-14.0964776476263101
 31
0.0
  0
LINE
  5
3E81
  8
0
 10
132.4216106335838958
 20
-14.8939709347263101
 30
0.0
 11
155.2558919099847969
 21
-14.8939709347263101
 31
0.0
  0
LINE
  5
3E82
  8
0
 10
132.8718823610884101
 20
-14.4076292010263103
 30
0.0
 11
154.8056201824803111
 21
-14.4076292010263103
 31
0.0
  0
POINT
  5
3E84
  8
DEFPOINTS
 10
143.8497101012094959
 20
2.0673515906736859
 30
0.0
  0
LINE
  5
3E85
  8
0
 10
136.5042430251176029
 20
0.0669836250736875
 30
0.0
 11
151.1732595184512036
 21
0.0669836250736875
 31
0.0
  0
LINE
  5
3E86
  8
0
 10
136.6682175386638107
 20
-0.2012144265263149
 30
0.0
 11
151.0092850049049105
 21
-0.2012144265263149
 31
0.0
  0
LINE
  5
3E87
  8
0
 10
150.560871164801199
 20
-0.4639430649263101
 30
0.0
 11
137.1166313787682896
 21
-0.4639430649263066
 31
0.0
  0
CIRCLE
  5
3E88
  8
0
 10
143.8497028244595128
 20
-3.3707615541263118
 30
0.0
 40
0.8756131879778081
  0
CIRCLE
  5
3E89
  8
0
 10
143.8497028244595128
 20
-3.3707615541263118
 30
0.0
 40
1.0883109082
  0
ARC
  5
3E8A
  8
0
 10
143.8471399618514965
 20
-3.9781563432124272
 30
0.0
 40
3.3167296556614421
 50
89.9556014001741886
 51
92.206021291122525
  0
ARC
  5
3E8B
  8
0
 10
143.7997186145080946
 20
-2.747116402078527
 30
0.0
 40
2.0847766854345671
 50
92.206021291122525
 51
94.9597814555049098
  0
ARC
  5
3E8C
  8
0
 10
143.6766946894177863
 20
-1.329486101292511
 30
0.0
 40
0.6618183038044925
 50
94.9597814555049098
 51
99.8807236336879498
  0
ARC
  5
3E8D
  8
0
 10
143.5843036869939908
 20
-0.7990559373912891
 30
0.0
 40
0.1234018700794961
 50
99.8807236336879498
 51
111.0467891319283069
  0
ARC
  5
3E8E
  8
0
 10
143.5442560394280918
 20
-0.6949823565761779
 30
0.0
 40
0.0118889815901281
 50
111.0467891319195957
 51
136.9099927678153961
  0
ARC
  5
3E8F
  8
0
 10
143.5379255613351006
 20
-0.68906047052179
 30
0.0
 40
0.0032204357300922
 50
136.9099927677767994
 51
176.8125387534998936
  0
ARC
  5
3E90
  8
0
 10
143.5369431863269085
 20
-0.689005762886799
 30
0.0
 40
0.0022365385900839
 50
176.8125387534923902
 51
219.1338152970519957
  0
ARC
  5
3E91
  8
0
 10
143.5434132122989013
 20
-0.6837413718983303
 30
0.0
 40
0.010577704489283
 50
219.1338152970515978
 51
240.2123349342797098
  0
ARC
  5
3E92
  8
0
 10
143.5722594764885969
 20
-0.6202562565232146
 30
0.0
 40
0.080269050211492
 50
244.8597566639826084
 51
259.9105273619700824
  0
ARC
  5
3E93
  8
0
 10
143.7176399456342892
 20
0.2411934830794404
 30
0.0
 40
0.9538971399314158
 50
260.3779323863971058
 51
267.5456131996872955
  0
ARC
  5
3E94
  8
0
 10
143.8445231004976961
 20
2.4044169681294121
 30
0.0
 40
3.1207564207417371
 50
266.919010122646398
 51
270.0952312022740784
  0
LINE
  5
3E95
  8
0
 10
143.8387512717843038
 20
-12.9372804437263103
 30
0.0
 11
143.8497101012094959
 21
-12.9372804437263103
 31
0.0
  0
LINE
  5
3E96
  8
0
 10
143.8387512717843038
 20
-12.6690823921263096
 30
0.0
 11
143.8497101012094959
 21
-12.6690823921263096
 31
0.0
  0
LINE
  5
3E97
  8
0
 10
143.8387512717843038
 20
-12.4807819949282806
 30
0.0
 11
143.8497100841094891
 21
-12.4807819949263106
 31
0.0
  0
ARC
  5
3E98
  8
0
 10
143.8522832474371
 20
-3.9781563407921872
 30
0.0
 40
3.3167296556614421
 50
87.7940326314721915
 51
90.0444505428569926
  0
ARC
  5
3E99
  8
0
 10
143.8997034362157024
 20
-2.7471163550293278
 30
0.0
 40
2.0847766854345671
 50
85.0402724670907588
 51
87.7940326314721915
  0
ARC
  5
3E9A
  8
0
 10
144.0227260271360876
 20
-1.3294859384628219
 30
0.0
 40
0.6618183038044925
 50
80.1193302889082162
 51
85.0402724670907588
  0
ARC
  5
3E9B
  8
0
 10
144.1151165303577955
 20
-0.7990556876101831
 30
0.0
 40
0.1234018700794961
 50
68.9532647906673049
 51
80.1193302889082162
  0
ARC
  5
3E9C
  8
0
 10
144.1551640799771974
 20
-0.6949820691052029
 30
0.0
 40
0.0118889815901281
 50
43.0900611547802583
 51
68.9532647906760445
  0
ARC
  5
3E9D
  8
0
 10
144.161494552497004
 20
-0.6890601770930349
 30
0.0
 40
0.0032204357300922
 50
3.187515169096208
 51
43.0900611548199777
  0
ARC
  5
3E9E
  8
0
 10
144.1624769274536959
 20
-0.6890054685335035
 30
0.0
 40
0.0022365385900839
 50
320.866238625543815
 51
3.187515169103817
  0
ARC
  5
3E9F
  8
0
 10
144.1560068965272876
 20
-0.6837410836341516
 30
0.0
 40
0.010577704489283
 50
299.7877189883168967
 51
320.8662386255442129
  0
ARC
  5
3EA0
  8
0
 10
144.127160572589986
 20
-0.6202559954070548
 30
0.0
 40
0.080269050211492
 50
280.0895265606256999
 51
295.1402972586138276
  0
ARC
  5
3EA1
  8
0
 10
143.981779292710911
 20
0.2411936073737539
 30
0.0
 40
0.9538971399314158
 50
272.4544407229096237
 51
279.6221215361996997
  0
ARC
  5
3EA2
  8
0
 10
143.8548941074107859
 20
2.4044168370212029
 30
0.0
 40
3.1207562846579782
 50
269.9048237716071981
 51
273.0810438345758939
  0
ARC
  5
3EA3
  8
0
 10
142.8471373867189129
 20
-3.9781563271951632
 30
0.0
 40
3.3167296556614421
 50
89.9556014001741886
 51
92.206021291122525
  0
ARC
  5
3EA4
  8
0
 10
142.7997160393755962
 20
-2.7471163860612631
 30
0.0
 40
2.0847766854345671
 50
92.206021291122525
 51
94.9597814555049098
  0
ARC
  5
3EA5
  8
0
 10
142.6766921142852027
 20
-1.329486085275247
 30
0.0
 40
0.6618183038044925
 50
94.9597814555049098
 51
99.8807236336879498
  0
ARC
  5
3EA6
  8
0
 10
142.5843011118614072
 20
-0.7990559213740251
 30
0.0
 40
0.1234018700794961
 50
99.8807236336879498
 51
111.0467891319283069
  0
ARC
  5
3EA7
  8
0
 10
142.5442534642955934
 20
-0.6949823405589139
 30
0.0
 40
0.0118889815901281
 50
111.0467891319195957
 51
136.9099927678153961
  0
ARC
  5
3EA8
  8
0
 10
142.5379229862024886
 20
-0.6890604545045261
 30
0.0
 40
0.0032204357300922
 50
136.9099927677767994
 51
176.8125387534998936
  0
ARC
  5
3EA9
  8
0
 10
142.5369406111942965
 20
-0.689005746869535
 30
0.0
 40
0.0022365385900839
 50
176.8125387534923902
 51
219.1338152970519957
  0
ARC
  5
3EAA
  8
0
 10
142.5434106371662892
 20
-0.6837413558810664
 30
0.0
 40
0.010577704489283
 50
219.1338152970515978
 51
240.2123349342797098
  0
ARC
  5
3EAB
  8
0
 10
142.5722569013560133
 20
-0.6202562405059507
 30
0.0
 40
0.080269050211492
 50
244.8597566639826084
 51
259.9105273619700824
  0
ARC
  5
3EAC
  8
0
 10
142.7176373705017056
 20
0.2411934990967044
 30
0.0
 40
0.9538971399314158
 50
260.3779323863971058
 51
267.5456131996872955
  0
ARC
  5
3EAD
  8
0
 10
142.8445205253651977
 20
2.404416984146676
 30
0.0
 40
3.1207564207417371
 50
266.919010122646398
 51
270.0952312022740784
  0
ARC
  5
3EAE
  8
0
 10
142.852280672304488
 20
-3.9781563247749232
 30
0.0
 40
3.3167296556614421
 50
87.7940326314721915
 51
90.0444505428569926
  0
ARC
  5
3EAF
  8
0
 10
142.8997008610830903
 20
-2.7471163390120639
 30
0.0
 40
2.0847766854345671
 50
85.0402724670907588
 51
87.7940326314721915
  0
ARC
  5
3EB0
  8
0
 10
143.022723452003504
 20
-1.329485922445558
 30
0.0
 40
0.6618183038044925
 50
80.1193302889082162
 51
85.0402724670907588
  0
ARC
  5
3EB1
  8
0
 10
143.1151139552252118
 20
-0.7990556715929192
 30
0.0
 40
0.1234018700794961
 50
68.9532647906673049
 51
80.1193302889082162
  0
ARC
  5
3EB2
  8
0
 10
143.1551615048446138
 20
-0.694982053087939
 30
0.0
 40
0.0118889815901281
 50
43.0900611547802583
 51
68.9532647906760445
  0
ARC
  5
3EB3
  8
0
 10
143.1614919773643919
 20
-0.6890601610757709
 30
0.0
 40
0.0032204357300922
 50
3.187515169096208
 51
43.0900611548199777
  0
ARC
  5
3EB4
  8
0
 10
143.1624743523211123
 20
-0.6890054525162395
 30
0.0
 40
0.0022365385900839
 50
320.866238625543815
 51
3.187515169103817
  0
ARC
  5
3EB5
  8
0
 10
143.156004321394704
 20
-0.6837410676168876
 30
0.0
 40
0.010577704489283
 50
299.7877189883168967
 51
320.8662386255442129
  0
ARC
  5
3EB6
  8
0
 10
143.1271579974574024
 20
-0.6202559793897909
 30
0.0
 40
0.080269050211492
 50
280.0895265606256999
 51
295.1402972586138276
  0
ARC
  5
3EB7
  8
0
 10
142.981776717578299
 20
0.2411936233910179
 30
0.0
 40
0.9538971399314158
 50
272.4544407229096237
 51
279.6221215361996997
  0
ARC
  5
3EB8
  8
0
 10
142.8548915322782022
 20
2.4044168530384669
 30
0.0
 40
3.1207562846579782
 50
269.9048237716071981
 51
273.0810438345758939
  0
ARC
  5
3EB9
  8
0
 10
144.8471372703897089
 20
-3.9781563271951632
 30
0.0
 40
3.3167296556614421
 50
89.9556014001741886
 51
92.206021291122525
  0
ARC
  5
3EBA
  8
0
 10
144.7997159230463069
 20
-2.7471163860612631
 30
0.0
 40
2.0847766854345671
 50
92.206021291122525
 51
94.9597814555049098
  0
ARC
  5
3EBB
  8
0
 10
144.6766919979559134
 20
-1.329486085275247
 30
0.0
 40
0.6618183038044925
 50
94.9597814555049098
 51
99.8807236336879498
  0
ARC
  5
3EBC
  8
0
 10
144.5843009955322032
 20
-0.7990559213740251
 30
0.0
 40
0.1234018700794961
 50
99.8807236336879498
 51
111.0467891319283069
  0
ARC
  5
3EBD
  8
0
 10
144.5442533479663041
 20
-0.6949823405589139
 30
0.0
 40
0.0118889815901281
 50
111.0467891319195957
 51
136.9099927678153961
  0
ARC
  5
3EBE
  8
0
 10
144.5379228698731993
 20
-0.6890604545045261
 30
0.0
 40
0.0032204357300922
 50
136.9099927677767994
 51
176.8125387534998936
  0
ARC
  5
3EBF
  8
0
 10
144.5369404948650072
 20
-0.689005746869535
 30
0.0
 40
0.0022365385900839
 50
176.8125387534923902
 51
219.1338152970519957
  0
ARC
  5
3EC0
  8
0
 10
144.5434105208369999
 20
-0.6837413558810664
 30
0.0
 40
0.010577704489283
 50
219.1338152970515978
 51
240.2123349342797098
  0
ARC
  5
3EC1
  8
0
 10
144.5722567850268092
 20
-0.6202562405059507
 30
0.0
 40
0.080269050211492
 50
244.8597566639826084
 51
259.9105273619700824
  0
ARC
  5
3EC2
  8
0
 10
144.7176372541725016
 20
0.2411934990967044
 30
0.0
 40
0.9538971399314158
 50
260.3779323863971058
 51
267.5456131996872955
  0
ARC
  5
3EC3
  8
0
 10
144.8445204090359084
 20
2.404416984146676
 30
0.0
 40
3.1207564207417371
 50
266.919010122646398
 51
270.0952312022740784
  0
ARC
  5
3EC4
  8
0
 10
144.8522805559753124
 20
-3.9781563247749232
 30
0.0
 40
3.3167296556614421
 50
87.7940326314721915
 51
90.0444505428569926
  0
ARC
  5
3EC5
  8
0
 10
144.8997007447538863
 20
-2.7471163390120639
 30
0.0
 40
2.0847766854345671
 50
85.0402724670907588
 51
87.7940326314721915
  0
ARC
  5
3EC6
  8
0
 10
145.0227233356741863
 20
-1.329485922445558
 30
0.0
 40
0.6618183038044925
 50
80.1193302889082162
 51
85.0402724670907588
  0
ARC
  5
3EC7
  8
0
 10
145.1151138388958941
 20
-0.7990556715929192
 30
0.0
 40
0.1234018700794961
 50
68.9532647906673049
 51
80.1193302889082162
  0
ARC
  5
3EC8
  8
0
 10
145.1551613885154097
 20
-0.694982053087939
 30
0.0
 40
0.0118889815901281
 50
43.0900611547802583
 51
68.9532647906760445
  0
ARC
  5
3EC9
  8
0
 10
145.1614918610351026
 20
-0.6890601610757709
 30
0.0
 40
0.0032204357300922
 50
3.187515169096208
 51
43.0900611548199777
  0
ARC
  5
3ECA
  8
0
 10
145.1624742359919082
 20
-0.6890054525162395
 30
0.0
 40
0.0022365385900839
 50
320.866238625543815
 51
3.187515169103817
  0
ARC
  5
3ECB
  8
0
 10
145.1560042050653863
 20
-0.6837410676168876
 30
0.0
 40
0.010577704489283
 50
299.7877189883168967
 51
320.8662386255442129
  0
ARC
  5
3ECC
  8
0
 10
145.1271578811281131
 20
-0.6202559793897909
 30
0.0
 40
0.080269050211492
 50
280.0895265606256999
 51
295.1402972586138276
  0
ARC
  5
3ECD
  8
0
 10
144.9817766012490097
 20
0.2411936233910179
 30
0.0
 40
0.9538971399314158
 50
272.4544407229096237
 51
279.6221215361996997
  0
ARC
  5
3ECE
  8
0
 10
144.8548914159489982
 20
2.4044168530384669
 30
0.0
 40
3.1207562846579782
 50
269.9048237716071981
 51
273.0810438345758939
  0
ARC
  5
3ECF
  8
0
 10
155.6621900520785005
 20
-15.1201379172028094
 30
0.0
 40
0.1875106115144664
 50
269.9353437572078747
 51
359.9990200996446106
  0
LINE
  5
3ED0
  8
0
 10
155.8497006635654998
 20
-15.1201411241007104
 30
0.0
 11
155.8496921258928865
 21
4.4881821782974258
 31
0.0
  0
ARC
  5
3ED1
  8
0
 10
155.2450752507245966
 20
-14.7030272436920999
 30
0.0
 40
0.1912498189889909
 50
273.2422504265620091
 51
356.7604198096597088
  0
LINE
  5
3ED2
  8
0
 10
155.4360224693554073
 20
-14.7138348558205596
 30
0.0
 11
155.4360141214590101
 21
4.4586328352416276
 31
0.0
  0
ARC
  5
3ED3
  8
0
 10
154.7588882907515995
 20
-14.2168308049413898
 30
0.0
 40
0.1964380249674645
 50
283.762415205032994
 51
346.2315243429530938
  0
LINE
  5
3ED4
  8
0
 10
154.9496816574510945
 20
-14.2635832260189002
 30
0.0
 11
154.9496783863754104
 21
-6.7509609629770413
 31
0.0
  0
LINE
  5
3ED5
  8
0
 10
154.9496783863754104
 20
-6.7509609629770413
 30
0.0
 11
154.9496740306360891
 21
4.4435341312409138
 31
0.0
  0
ARC
  5
3ED6
  8
0
 10
154.465192726692095
 20
-13.9231363716453593
 30
0.0
 40
0.1736847285636941
 50
266.3720390953340029
 51
3.6280107990482251
  0
LINE
  5
3ED7
  8
0
 10
154.6385293757913928
 20
-13.91214587505746
 30
0.0
 11
154.6385216106762073
 21
3.9218584515408468
 31
0.0
  0
ARC
  5
3ED8
  8
0
 10
154.465184951932514
 20
3.9328487971098389
 30
0.0
 40
0.1736847286325509
 50
356.3720391211222136
 51
93.6280107732592342
  0
LINE
  5
3ED9
  8
0
 10
154.4541944554183033
 20
4.1061854462828631
 30
0.0
 11
133.2011821092000901
 21
4.1061761924952167
 31
0.0
  0
ARC
  5
3EDA
  8
0
 10
155.8487264227007074
 20
4.488218453021231
 30
0.0
 40
0.0009663842461132
 50
322.4627998863691118
 51
357.8488091385362964
  0
ARC
  5
3EDB
  8
0
 10
155.8443611194363996
 20
4.4932758221542217
 30
0.0
 40
0.0076297145261066
 50
284.5825467487482001
 51
312.2666250160045252
  0
ARC
  5
3EDC
  8
0
 10
155.8036613403646129
 20
4.65759091019103
 30
0.0
 40
0.1769098102301587
 50
274.9998953990256041
 51
283.9407242757663994
  0
ARC
  5
3EDD
  8
0
 10
155.5821733880231932
 20
7.1292022626667713
 30
0.0
 40
2.6584250262449638
 50
271.9467172260947905
 51
275.1127128457221147
  0
ARC
  5
3EDE
  8
0
 10
155.870942675923402
 20
-1.009314342887728
 30
0.0
 40
5.4852173791712184
 50
92.073488969483833
 51
94.5477716953396481
  0
ARC
  5
3EDF
  8
0
 10
155.330559170796505
 20
6.7644147778545101
 30
0.0
 40
2.3081919869019898
 50
269.6419875691913717
 51
272.6187021264926216
  0
ARC
  5
3EE0
  8
0
 10
155.3015360013201018
 20
2.994504048139587
 30
0.0
 40
1.461836718290074
 50
89.42773158513954
 51
93.3267519029280663
  0
LINE
  5
3EE1
  8
0
 10
155.2167053896295954
 20
4.4538773239882712
 30
0.0
 11
155.2124234510164911
 21
4.4525957108066807
 31
0.0
  0
ARC
  5
3EE2
  8
0
 10
155.1836761869450925
 20
4.7069604281037822
 30
0.0
 40
0.2559840123859621
 50
270.8215105176552129
 51
276.4479759902127967
  0
LINE
  5
3EE3
  8
0
 10
155.1873463761812104
 20
4.4510027278050313
 30
0.0
 11
154.9496748727331124
 21
4.4435341577203413
 31
0.0
  0
LINE
  5
3EE4
  8
0
 10
154.9496748727331124
 20
4.4435341577203413
 30
0.0
 11
154.8536452878458931
 21
4.4423563819080458
 31
0.0
  0
LINE
  5
3EE5
  8
0
 10
154.8536452878458931
 20
4.4423563819080458
 30
0.0
 11
143.8387512717843038
 21
4.4423515859060148
 31
0.0
  0
LINE
  5
3EE6
  8
0
 10
143.8387512717843038
 20
4.48555719364973
 30
0.0
 11
148.6002435983164105
 21
4.4860383453305754
 31
0.0
  0
ARC
  5
3EE7
  8
0
 10
148.5929500958725953
 20
76.6627703451619169
 30
0.0
 40
72.1767323683377668
 50
270.0057897731705907
 51
270.4073524270100961
  0
ARC
  5
3EE8
  8
0
 10
148.9033333094446903
 20
33.0068415901728613
 30
0.0
 40
28.5197002520801597
 50
270.4073524270100961
 51
271.7874324048564745
  0
ARC
  5
3EE9
  8
0
 10
149.6149029938611932
 20
10.20502114256041
 30
0.0
 40
5.7067796336907293
 50
271.7874324048564745
 51
274.4113676205088836
  0
ARC
  5
3EEA
  8
0
 10
148.8721652120034946
 20
10.1511541230445292
 30
0.0
 40
5.7585542953729183
 50
281.8415112821072057
 51
285.100551099849099
  0
ARC
  5
3EEB
  8
0
 10
150.405321744262892
 20
4.460397923634372
 30
0.0
 40
0.1351288691530644
 50
98.3591962975242353
 51
104.1237303919075998
  0
ARC
  5
3EEC
  8
0
 10
148.663633549167713
 20
-113.6806255552642
 30
0.0
 40
118.2872523003030949
 50
88.1327374493262852
 51
89.1658500755252703
  0
ARC
  5
3EED
  8
0
 10
152.3535819293161921
 20
-318.4169961492082166
 30
0.0
 40
322.9608538047324942
 50
89.5109233966362012
 51
89.970845408240379
  0
ARC
  5
3EEE
  8
0
 10
155.3380625187473072
 20
7.248036036175475
 30
0.0
 40
2.7254743369501662
 50
265.2071860758537127
 51
270.8739234451044808
  0
ARC
  5
3EEF
  8
0
 10
157.529280480275105
 20
33.2406506087984113
 30
0.0
 40
28.7981146871241513
 50
265.7191487878621956
 51
266.1054119418503205
  0
ARC
  5
3EF0
  8
0
 10
155.4135380412313907
 20
-0.1424375814390562
 30
0.0
 40
4.6542192352328469
 50
84.7630275379534339
 51
88.0330826398477342
  0
ARC
  5
3EF1
  8
0
 10
155.8290893062257112
 20
4.4362606764548982
 30
0.0
 40
0.0568526718065944
 50
71.6680676748013781
 51
80.6224786965422737
  0
ARC
  5
3EF2
  8
0
 10
155.844888847139714
 20
4.483700236117838
 30
0.0
 40
0.0068517900837495
 50
49.1486127723489474
 51
72.3115989229742127
  0
ARC
  5
3EF3
  8
0
 10
155.848414100656214
 20
4.4879701350255958
 30
0.0
 40
0.001322191806183
 50
21.5675363941830511
 51
43.6625949630117987
  0
ARC
  5
3EF4
  8
0
 10
155.8489482614783981
 20
4.4881920295141651
 30
0.0
 40
0.000743929642936
 50
359.241259379309497
 51
20.7971628617117616
  0
CIRCLE
  5
3EF5
  8
0
 10
143.8497028244595128
 20
-3.3707615541263118
 30
0.0
 40
0.8756131879778081
  0
CIRCLE
  5
3EF6
  8
0
 10
143.8497028244595128
 20
-3.3707615541263118
 30
0.0
 40
1.0883109082
  0
ARC
  5
3EF7
  8
0
 10
151.1717180736023067
 20
-0.2907693666050459
 30
0.0
 40
0.357756312463255
 50
86.2006388000491057
 51
89.7531320779485355
  0
ARC
  5
3EF8
  8
0
 10
151.1921970161691888
 20
-0.1542414677876653
 30
0.0
 40
0.2204657575117503
 50
355.0070271612308943
 51
89.161324853999389
  0
LINE
  5
3EF9
  8
0
 10
151.4118261899077993
 20
-0.1734293878970536
 30
0.0
 11
151.4118316427430955
 21
-12.6968608454958591
 31
0.0
  0
ARC
  5
3EFA
  8
0
 10
151.1946166531974995
 20
-12.7171000707363699
 30
0.0
 40
0.2181558569500261
 50
277.3502225819505043
 51
5.3232224236000434
  0
ARC
  5
3EFB
  8
0
 10
151.1728286053028114
 20
-12.6118431454501199
 30
0.0
 40
0.3254371785681411
 50
269.7512006526937967
 51
278.7840236285833271
  0
LINE
  5
3EFC
  8
0
 10
151.1714154418230009
 20
-12.9372772557756601
 30
0.0
 11
136.503495687649405
 21
-12.9372836423439601
 31
0.0
  0
ARC
  5
3EFD
  8
0
 10
150.9310525669623075
 20
-0.4137870191724869
 30
0.0
 40
0.2265114158066874
 50
20.2030240274264088
 51
69.7950260751189546
  0
LINE
  5
3EFE
  8
0
 10
151.1436278219019016
 20
-0.3355618155734863
 30
0.0
 11
151.1436331335488887
 21
-12.5347286513723297
 31
0.0
  0
ARC
  5
3EFF
  8
0
 10
150.9310556565280024
 20
-12.4565022475138498
 30
0.0
 40
0.2265139184959194
 50
290.2034461967198808
 51
339.7968108964976182
  0
LINE
  5
3F00
  8
0
 10
151.0092832907465947
 20
-12.6690792747697003
 30
0.0
 11
136.6682362231219088
 21
-12.6690855190141498
 31
0.0
  0
ARC
  5
3F01
  8
0
 10
150.5593137743888974
 20
-0.8515747616322445
 30
0.0
 40
0.3876348252621493
 50
24.7664189399654084
 51
89.7698036091617269
  0
ARC
  5
3F02
  8
0
 10
150.5624115832526968
 20
-0.8501455756558602
 30
0.0
 40
0.3842232285228158
 50
359.9279955310005903
 51
24.7664189399654084
  0
LINE
  5
3F03
  8
0
 10
150.9466345083673957
 20
-0.8506284346465253
 30
0.0
 11
150.9466377667019117
 21
-12.05531200085316
 31
0.0
  0
ARC
  5
3F04
  8
0
 10
150.5402140186338897
 20
-12.0739676210301194
 30
0.0
 40
0.4068516869300612
 50
270.8057204128779745
 51
2.6281400702196231
  0
LINE
  5
3F05
  8
0
 10
150.5459351713587068
 20
-12.4807790805163705
 30
0.0
 11
137.1315673722129134
 21
-12.4807849188708904
 31
0.0
  0
ARC
  5
3F07
  8
0
 10
132.0153124914901923
 20
-15.1201379172028094
 30
0.0
 40
0.1875106115144664
 50
180.0009799003553042
 51
270.0646562427921253
  0
LINE
  5
3F08
  8
0
 10
131.827801880003193
 20
-15.1201411241007104
 30
0.0
 11
131.8278104176756926
 21
4.4881821782974258
 31
0.0
  0
ARC
  5
3F09
  8
0
 10
132.4324272928440962
 20
-14.7030272436920999
 30
0.0
 40
0.1912498189889909
 50
183.2395801903402912
 51
266.7577495734381046
  0
LINE
  5
3F0A
  8
0
 10
132.2414800742133139
 20
-14.7138348558205596
 30
0.0
 11
132.2414884221095974
 21
4.4586328352416276
 31
0.0
  0
ARC
  5
3F0B
  8
0
 10
132.918614252817008
 20
-14.2168308049413898
 30
0.0
 40
0.1964380249674645
 50
193.7684756570467073
 51
256.2375847949668923
  0
LINE
  5
3F0C
  8
0
 10
132.7278208861175983
 20
-14.2635832260189002
 30
0.0
 11
132.7278241571931972
 21
-6.7509609629770413
 31
0.0
  0
LINE
  5
3F0D
  8
0
 10
132.7278241571931972
 20
-6.7509609629770413
 30
0.0
 11
132.7278285129326036
 21
4.4435341312409138
 31
0.0
  0
ARC
  5
3F0E
  8
0
 10
133.2123098168765978
 20
-13.9231363716453593
 30
0.0
 40
0.1736847285636941
 50
176.3719892009517878
 51
273.6279609046658834
  0
LINE
  5
3F0F
  8
0
 10
133.0389731677773
 20
-13.91214587505746
 30
0.0
 11
133.0389809328925139
 21
3.9218584515408468
 31
0.0
  0
ARC
  5
3F10
  8
0
 10
133.2123175916362072
 20
3.9328487971098389
 30
0.0
 40
0.1736847286325509
 50
86.3719892267407943
 51
183.6279608788777011
  0
ARC
  5
3F11
  8
0
 10
131.8287761208680138
 20
4.488218453021231
 30
0.0
 40
0.0009663842461132
 50
182.15119086146359
 51
217.5372001136310018
  0
ARC
  5
3F12
  8
0
 10
131.8331414241322932
 20
4.4932758221542217
 30
0.0
 40
0.0076297145261066
 50
227.7333749839955033
 51
255.4174532512519136
  0
ARC
  5
3F13
  8
0
 10
131.8738412032041083
 20
4.65759091019103
 30
0.0
 40
0.1769098102301587
 50
256.0592757242336006
 51
265.0001046009728043
  0
ARC
  5
3F14
  8
0
 10
132.0953291555453859
 20
7.1292022626667713
 30
0.0
 40
2.6584250262449638
 50
264.887287154277999
 51
268.0532827739052095
  0
ARC
  5
3F15
  8
0
 10
131.8065598676452055
 20
-1.009314342887728
 30
0.0
 40
5.4852173791712184
 50
85.4522283046603661
 51
87.926511030516167
  0
ARC
  5
3F16
  8
0
 10
132.3469433727721878
 20
6.7644147778545101
 30
0.0
 40
2.3081919869019898
 50
267.3812978735073784
 51
270.3580124308086283
  0
ARC
  5
3F17
  8
0
 10
132.3759665422485909
 20
2.994504048139587
 30
0.0
 40
1.461836718290074
 50
86.6732480970719337
 51
90.5722684148604742
  0
LINE
  5
3F18
  8
0
 10
132.4607971539390974
 20
4.4538773239882712
 30
0.0
 11
132.4650790925522017
 21
4.4525957108066807
 31
0.0
  0
ARC
  5
3F19
  8
0
 10
132.4938263566234866
 20
4.7069604281037822
 30
0.0
 40
0.2559840123859621
 50
263.5520240097870897
 51
269.1784894823447871
  0
LINE
  5
3F1A
  8
0
 10
132.4901561673875108
 20
4.4510027278050313
 30
0.0
 11
132.7278276708356088
 21
4.4435341577203413
 31
0.0
  0
LINE
  5
3F1B
  8
0
 10
132.7278276708356088
 20
4.4435341577203413
 30
0.0
 11
132.8238572557227997
 21
4.4423563819080458
 31
0.0
  0
LINE
  5
3F1C
  8
0
 10
132.8238572557227997
 20
4.4423563819080458
 30
0.0
 11
143.8387512717843038
 21
4.4423515859060148
 31
0.0
  0
ARC
  5
3F1D
  8
0
 10
131.84841323734301
 20
4.4362606764548982
 30
0.0
 40
0.0568526718065944
 50
99.3775213034577121
 51
108.3319323251985935
  0
ARC
  5
3F1E
  8
0
 10
131.8326136964290072
 20
4.483700236117838
 30
0.0
 40
0.0068517900837495
 50
107.6884010770258016
 51
130.8513872276510028
  0
ARC
  5
3F1F
  8
0
 10
131.8290884429125072
 20
4.4879701350255958
 30
0.0
 40
0.001322191806183
 50
136.3374050369882013
 51
158.4324636058169915
  0
ARC
  5
3F20
  8
0
 10
131.8285542820902094
 20
4.4881920295141651
 30
0.0
 40
0.000743929642936
 50
159.2028371382882028
 51
180.758740620690503
  0
ARC
  5
3F21
  8
0
 10
136.5057844699663008
 20
-0.2907693666050459
 30
0.0
 40
0.357756312463255
 50
90.2468679220514645
 51
93.7993611999508659
  0
ARC
  5
3F22
  8
0
 10
136.4853055273995039
 20
-0.1542414677876653
 30
0.0
 40
0.2204657575117503
 50
90.838675146000611
 51
184.9929728387689067
  0
LINE
  5
3F23
  8
0
 10
136.2656763536608935
 20
-0.1734293878970536
 30
0.0
 11
136.2656709008255973
 21
-12.6968608454958591
 31
0.0
  0
ARC
  5
3F24
  8
0
 10
136.482885890371108
 20
-12.7171000707363699
 30
0.0
 40
0.2181558569500261
 50
174.6767775763998998
 51
262.6497774180494957
  0
ARC
  5
3F25
  8
0
 10
136.5047912525525931
 20
-12.6108175999911101
 30
0.0
 40
0.3264686130364533
 50
261.2231145532538221
 51
270.2274242662552979
  0
ARC
  5
3F26
  8
0
 10
136.7464499766064137
 20
-0.4137870191724869
 30
0.0
 40
0.2265114158066874
 50
110.2049739248810027
 51
159.7969759725735912
  0
LINE
  5
3F27
  8
0
 10
136.5338747216667059
 20
-0.3355618155734863
 30
0.0
 11
136.5338694100196903
 21
-12.5347286513723297
 31
0.0
  0
ARC
  5
3F28
  8
0
 10
136.7464468870406904
 20
-12.4565022475138498
 30
0.0
 40
0.2265139184959194
 50
200.2031891035022966
 51
249.8011277325051935
  0
ARC
  5
3F29
  8
0
 10
137.1181887691797954
 20
-0.8515747616322445
 30
0.0
 40
0.3876348252621493
 50
90.2301963908382731
 51
155.2335810600345951
  0
ARC
  5
3F2A
  8
0
 10
137.1150909603159107
 20
-0.8501455756558602
 30
0.0
 40
0.3842232285228158
 50
155.2335810600345951
 51
180.072004468999296
  0
LINE
  5
3F2B
  8
0
 10
136.7308680352012971
 20
-0.8506284346465253
 30
0.0
 11
136.7308647768666958
 21
-12.05531200085316
 31
0.0
  0
ARC
  5
3F2C
  8
0
 10
137.1372982957612976
 20
-12.0739640013661393
 30
0.0
 40
0.4068612815249504
 50
177.3724322217036899
 51
269.1929224873406952
  0
LINE
  5
3F2D
  8
0
 10
143.8387512718298922
 20
4.48555719364973
 30
0.0
 11
139.0772589452523107
 21
4.4860383453305754
 31
0.0
  0
ARC
  5
3F2E
  8
0
 10
139.0845524476960975
 20
76.6627703451619169
 30
0.0
 40
72.1767323683377668
 50
269.5926475729899039
 51
269.9942102268292956
  0
ARC
  5
3F2F
  8
0
 10
138.7741692341240025
 20
33.0068415901728613
 30
0.0
 40
28.5197002520801597
 50
268.2125675951435255
 51
269.5926475729899039
  0
ARC
  5
3F30
  8
0
 10
138.0625995497074996
 20
10.20502114256041
 30
0.0
 40
5.7067796336907293
 50
265.5886323794911164
 51
268.2125675951435255
  0
ARC
  5
3F31
  8
0
 10
138.8053373315651129
 20
10.1511541230445292
 30
0.0
 40
5.7585542953729183
 50
254.899448900150901
 51
258.1584887178927943
  0
ARC
  5
3F32
  8
0
 10
137.2721807993056871
 20
4.460397923634372
 30
0.0
 40
0.1351288691530644
 50
75.8762696080939918
 51
81.6408037024757789
  0
ARC
  5
3F33
  8
0
 10
139.0138689944010082
 20
-113.6806255552642
 30
0.0
 40
118.2872523003030949
 50
90.8341499244747155
 51
91.8672625506737006
  0
ARC
  5
3F34
  8
0
 10
135.3239206142523869
 20
-318.4169961492082166
 30
0.0
 40
322.9608538047324942
 50
90.029154591759621
 51
90.4890766033637988
  0
ARC
  5
3F35
  8
0
 10
132.3394400248213003
 20
7.248036036175475
 30
0.0
 40
2.7254743369501662
 50
269.1260765548955192
 51
274.792813924146401
  0
ARC
  5
3F36
  8
0
 10
130.1482220632935878
 20
33.2406506087984113
 30
0.0
 40
28.7981146871241513
 50
273.8945880581496795
 51
274.2808512121376907
  0
ARC
  5
3F37
  8
0
 10
132.2639645023373021
 20
-0.1424375814390562
 30
0.0
 40
4.6542192352328469
 50
91.9669173601539143
 51
95.2369724620465661
  0
CIRCLE
  5
40CB
  8
0
 10
139.849702961159494
 20
2.0676312983736849
 30
0.0
 40
0.6899999999999999
  0
CIRCLE
  5
40CC
  8
0
 10
143.849702961159494
 20
2.0676312983736849
 30
0.0
 40
0.6899999999999999
  0
CIRCLE
  5
40CD
  8
0
 10
147.849702961159494
 20
2.0676312983736849
 30
0.0
 40
0.6899999999999999
  0
ENDSEC
  0
EOF
