  0
SECTION
  2
HEADER
  9
$ACADVER
  1
AC1009
  9
$INSBASE
 10
177.5414004085018007
 20
-31.4414399912806317
 30
0.0
  9
$EXTMIN
 10
167.5818524732576975
 20
-37.5664667820681828
 30
-0.0000000000112498
  9
$EXTMAX
 10
187.4949468578701044
 20
-27.6907023747247507
 30
0.0000000000002956
  9
$LIMMIN
 10
0.0
 20
0.0
  9
$LIMMAX
 10
11.6929133858000007
 20
8.2677165353999982
  9
$ORTHOMODE
 70
     0
  9
$REGENMODE
 70
     1
  9
$FILLMODE
 70
     1
  9
$QTEXTMODE
 70
     0
  9
$MIRRTEXT
 70
     0
  9
$DRAGMODE
 70
     2
  9
$LTSCALE
 40
0.6431102362
  9
$OSMODE
 70
  2047
  9
$ATTMODE
 70
     1
  9
$TEXTSIZE
 40
0.2
  9
$TRACEWID
 40
0.05
  9
$TEXTSTYLE
  7
STANDARD
  9
$CLAYER
  8
0
  9
$CELTYPE
  6
BYLAYER
  9
$CECOLOR
 62
   256
  9
$DIMSCALE
 40
1.0
  9
$DIMASZ
 40
0.1875
  9
$DIMEXO
 40
0.0625
  9
$DIMDLI
 40
0.4443307087
  9
$DIMRND
 40
0.0
  9
$DIMDLE
 40
0.0
  9
$DIMEXE
 40
0.125
  9
$DIMTP
 40
0.01
  9
$DIMTM
 40
0.01
  9
$DIMTXT
 40
1.0
  9
$DIMCEN
 40
0.1052362205
  9
$DIMTSZ
 40
0.0
  9
$DIMTOL
 70
     1
  9
$DIMLIM
 70
     0
  9
$DIMTIH
 70
     1
  9
$DIMTOH
 70
     1
  9
$DIMSE1
 70
     0
  9
$DIMSE2
 70
     0
  9
$DIMTAD
 70
     0
  9
$DIMZIN
 70
     0
  9
$DIMBLK
  1

  9
$DIMASO
 70
     1
  9
$DIMSHO
 70
     1
  9
$DIMPOST
  1
\X
  9
$DIMAPOST
  1

  9
$DIMALT
 70
     1
  9
$DIMALTD
 70
     2
  9
$DIMALTF
 40
25.3999999999999986
  9
$DIMLFAC
 40
1.0
  9
$DIMTOFL
 70
     0
  9
$DIMTVP
 40
0.0
  9
$DIMTIX
 70
     0
  9
$DIMSOXD
 70
     0
  9
$DIMSAH
 70
     0
  9
$DIMBLK1
  1

  9
$DIMBLK2
  1

  9
$DIMSTYLE
  2
STANDARD
  9
$DIMCLRD
 70
     0
  9
$DIMCLRE
 70
     0
  9
$DIMCLRT
 70
     0
  9
$DIMTFAC
 40
1.0
  9
$DIMGAP
 40
0.09
  9
$LUNITS
 70
     2
  9
$LUPREC
 70
     4
  9
$SKETCHINC
 40
0.1
  9
$FILLETRAD
 40
0.0
  9
$AUNITS
 70
     0
  9
$AUPREC
 70
     0
  9
$MENU
  1
.
  9
$ELEVATION
 40
0.0
  9
$PELEVATION
 40
0.0
  9
$THICKNESS
 40
0.0
  9
$LIMCHECK
 70
     0
  9
$BLIPMODE
 70
     0
  9
$CHAMFERA
 40
0.0
  9
$CHAMFERB
 40
0.0
  9
$SKPOLY
 70
     0
  9
$TDCREATE
 40
2458172.4620254631154239
  9
$TDUPDATE
 40
2459037.8465972221456468
  9
$TDINDWG
 40
0.0822976042
  9
$TDUSRTIMER
 40
0.0822976042
  9
$USRTIMER
 70
     1
  9
$ANGBASE
 50
0.0
  9
$ANGDIR
 70
     0
  9
$PDMODE
 70
     0
  9
$PDSIZE
 40
0.3125
  9
$PLINEWID
 40
0.0
  9
$COORDS
 70
     1
  9
$SPLFRAME
 70
     0
  9
$SPLINETYPE
 70
     6
  9
$SPLINESEGS
 70
     8
  9
$ATTDIA
 70
     1
  9
$ATTREQ
 70
     1
  9
$HANDLING
 70
     1
  9
$HANDSEED
  5
407E
  9
$SURFTAB1
 70
     6
  9
$SURFTAB2
 70
     6
  9
$SURFTYPE
 70
     6
  9
$SURFU
 70
     6
  9
$SURFV
 70
     6
  9
$UCSNAME
  2

  9
$UCSORG
 10
0.0
 20
0.0
 30
0.0
  9
$UCSXDIR
 10
1.0
 20
0.0
 30
0.0
  9
$UCSYDIR
 10
0.0
 20
1.0
 30
0.0
  9
$PUCSNAME
  2

  9
$PUCSORG
 10
0.0
 20
0.0
 30
0.0
  9
$PUCSXDIR
 10
1.0
 20
0.0
 30
0.0
  9
$PUCSYDIR
 10
0.0
 20
1.0
 30
0.0
  9
$USERI1
 70
     0
  9
$USERI2
 70
     0
  9
$USERI3
 70
     0
  9
$USERI4
 70
     0
  9
$USERI5
 70
     0
  9
$USERR1
 40
0.0
  9
$USERR2
 40
0.0
  9
$USERR3
 40
0.0
  9
$USERR4
 40
0.0
  9
$USERR5
 40
0.0
  9
$WORLDVIEW
 70
     1
  9
$SHADEDGE
 70
     3
  9
$SHADEDIF
 70
    70
  9
$TILEMODE
 70
     1
  9
$MAXACTVP
 70
    64
  9
$PLIMCHECK
 70
     0
  9
$PEXTMIN
 10
1.0000000000000000E+20
 20
1.0000000000000000E+20
 30
1.0000000000000000E+20
  9
$PEXTMAX
 10
-1.0000000000000000E+20
 20
-1.0000000000000000E+20
 30
-1.0000000000000000E+20
  9
$PLIMMIN
 10
0.0
 20
0.0
  9
$PLIMMAX
 10
12.0
 20
9.0
  9
$UNITMODE
 70
     0
  9
$VISRETAIN
 70
     1
  9
$PLINEGEN
 70
     0
  9
$PSLTSCALE
 70
     1
  0
ENDSEC
  0
SECTION
  2
TABLES
  0
TABLE
  2
VPORT
 70
     1
  0
VPORT
  2
*ACTIVE
 70
     0
 10
0.0
 20
0.0
 11
1.0
 21
1.0
 12
52.9272410654912875
 22
-37.9408587487742892
 13
0.0
 23
0.0
 14
1.0
 24
1.0
 15
0.0
 25
0.0
 16
0.0
 26
0.0
 36
30.6214257250603907
 17
124.6111586000725993
 27
5.3122741703778242
 37
0.0
 40
9.9612688610866513
 41
2.7557803468208091
 42
50.0
 43
0.0
 44
0.0
 50
0.0
 51
0.0
 71
     0
 72
   100
 73
     1
 74
     1
 75
     0
 76
     0
 77
     0
 78
     0
  0
ENDTAB
  0
TABLE
  2
LTYPE
 70
     2
  0
LTYPE
  2
CONTINUOUS
 70
     0
  3
Solid line
 72
    65
 73
     0
 40
0.0
  0
LTYPE
  2
PHANTOM2
 70
     0
  3
___ _ _ ___ _ _ ___ _ _ ___ _ _
 72
    65
 73
     6
 40
1.25
 49
0.625
 49
-0.125
 49
0.125
 49
-0.125
 49
0.125
 49
-0.125
  0
ENDTAB
  0
TABLE
  2
LAYER
 70
     2
  0
LAYER
  2
0
 70
     0
 62
   255
  6
CONTINUOUS
  0
LAYER
  2
DEFPOINTS
 70
     0
 62
     7
  6
CONTINUOUS
  0
ENDTAB
  0
TABLE
  2
STYLE
 70
     1
  0
STYLE
  2
STANDARD
 70
     0
 40
0.0
 41
0.8
 50
0.0
 71
     0
 42
0.2
  3
txt
  4

  0
ENDTAB
  0
TABLE
  2
VIEW
 70
     0
  0
ENDTAB
  0
TABLE
  2
UCS
 70
     0
  0
ENDTAB
  0
TABLE
  2
APPID
 70
     9
  0
APPID
  2
ACAD
 70
     0
  0
APPID
  2
ACAD_MLEADERVER
 70
     0
  0
APPID
  2
ACAD_EXEMPT_FROM_CAD_STANDARDS
 70
     0
  0
APPID
  2
ACAD_DSTYLE_DIMJAG
 70
     0
  0
APPID
  2
ACAD_DSTYLE_DIMTALN
 70
     0
  0
APPID
  2
ACAD_NAV_VCDISPLAY
 70
     0
  0
APPID
  2
ACAECLAYERSTANDARD
 70
     0
  0
APPID
  2
ACCMTRANSPARENCY
 70
     0
  0
APPID
  2
ACDBATTR
 70
     0
  0
ENDTAB
  0
TABLE
  2
DIMSTYLE
 70
     1
  0
DIMSTYLE
  2
STANDARD
 70
     0
  3

  4

  5

  6

  7

 40
1.0
 41
0.1875
 42
0.0625
 43
0.38
 44
0.125
 45
0.0
 46
0.0
 47
0.01
 48
0.01
140
0.15625
141
0.09
142
0.0
143
25.3999999999999986
144
1.0
145
0.0
146
1.0
147
0.09
 71
     1
 72
     0
 73
     1
 74
     1
 75
     0
 76
     0
 77
     0
 78
     4
170
     0
171
     2
172
     0
173
     0
174
     0
175
     0
176
     0
177
     0
178
     0
  0
ENDTAB
  0
ENDSEC
  0
SECTION
  2
BLOCKS
  0
BLOCK
  8
0
  2
$MODEL_SPACE
 70
     0
 10
0.0
 20
0.0
 30
0.0
  3
$MODEL_SPACE
  1

  0
ENDBLK
  5
21
  8
0
  0
BLOCK
 67
     1
  8
0
  2
$PAPER_SPACE
 70
     0
 10
0.0
 20
0.0
 30
0.0
  3
$PAPER_SPACE
  1

  0
ENDBLK
  5
1D
 67
     1
  8
0
  0
BLOCK
  8
0
  2
_FILLED
 70
     0
 10
0.0
 20
0.0
 30
0.0
  3
_FILLED
  1

  0
SOLID
  5
2F06
  8
0
  6
BYBLOCK
 62
     0
 10
0.0
 20
0.0
 30
0.0
 11
-1.0
 21
0.1666666667
 31
0.0
 12
-1.0
 22
-0.1666666667
 32
0.0
 13
-1.0
 23
-0.1666666667
 33
0.0
  0
ENDBLK
  5
2F07
  8
0
  6
BYBLOCK
 62
     0
  0
ENDSEC
  0
SECTION
  2
ENTITIES
  0
ATTDEF
  5
3BEB
  8
DEFPOINTS
 10
177.541625547920404
 20
-31.4374647380350183
 30
0.0
 40
0.001
  1
K-2239T-1
  3

  2
MODELNUMBER
 70
     0
1001
ACDBATTR
1070
     0
1070
     1
  0
ATTDEF
  5
3BEC
  8
DEFPOINTS
 10
177.541625547920404
 20
-31.4391314047016799
 30
0.0
 40
0.001
  1
MEMOIRS
  3

  2
TRADENAME
 70
     0
1001
ACDBATTR
1070
     0
1070
     1
  0
ATTDEF
  5
3BED
  8
DEFPOINTS
 10
177.541625547920404
 20
-31.4407980713683486
 30
0.0
 40
0.001
  1
BATHROOM SINK
  3

  2
PRODUCT
 70
     0
1001
ACDBATTR
1070
     0
1070
     1
  0
LINE
  5
3E7E
  8
0
 10
168.5858457606805985
 20
-27.6914399930424295
 30
0.0
 11
187.3397987924805932
 21
-27.6914399930424686
 31
0.0
  0
LINE
  5
3E7F
  8
0
 10
180.7467335554806027
 20
-35.6289399930425219
 30
0.0
 11
178.3078640325907998
 21
-35.6289399930425077
 31
0.0
  0
LINE
  5
3E80
  8
0
 10
168.1234817134632067
 20
-28.2226899889119984
 30
0.0
 11
187.3537100633103023
 21
-28.2226899930424686
 31
0.0
  0
LINE
  5
3E81
  8
0
 10
168.2227852449663033
 20
-28.1314055672424708
 30
0.0
 11
187.3513196964962901
 21
-28.1314055672424708
 31
0.0
  0
LINE
  5
3E82
  8
0
 10
168.1334668548736033
 20
-30.7901898172424708
 30
0.0
 11
187.420942412320187
 21
-30.7901898172424708
 31
0.0
  0
LINE
  5
3E83
  8
0
 10
168.2219866095805969
 20
-30.8723459761424692
 30
0.0
 11
187.4230937470526897
 21
-30.8723459761424692
 31
0.0
  0
LINE
  5
3E84
  8
0
 10
168.231485806074005
 20
-30.9809234318664686
 30
0.0
 11
187.4259369477913992
 21
-30.9809234318664686
 31
0.0
  0
ARC
  5
3E85
  8
0
 10
168.5858457606805985
 20
-27.8164399930424295
 30
0.0
 40
0.1249999999999982
 50
90.0
 51
140.1949017620005975
  0
LINE
  5
3E86
  8
0
 10
168.4898174403149085
 20
-27.736417735590301
 30
0.0
 11
168.2521470020462004
 21
-28.0216270475267599
 31
0.0
  0
ARC
  5
3E87
  8
0
 10
168.3366649159085
 20
-28.0920574605199995
 30
0.0
 40
0.1100169116001401
 50
140.1949017620005975
 51
174.9944470950771915
  0
ARC
  5
3E88
  8
0
 10
420.739538402271819
 20
-50.1990969761747081
 30
0.0
 40
253.4791779006988008
 50
174.9944470950771915
 51
175.0055527696210902
  0
ARC
  5
3E89
  8
0
 10
168.1231726619249969
 20
-28.122698027014291
 30
0.0
 40
0.0999924394992142
 50
270.1683851690950178
 51
355.0055527696213176
  0
ARC
  5
3E8A
  8
0
 10
168.1238349392149871
 20
-28.3480479467523203
 30
0.0
 40
0.1253584534147938
 50
90.1683851690949609
 51
163.7625235634745877
  0
ARC
  5
3E8B
  8
0
 10
166.0541012880493099
 20
-27.7452664017723407
 30
0.0
 40
2.0303648539083401
 50
327.5271668839059203
 51
343.7625235634745877
  0
ARC
  5
3E8C
  8
0
 10
168.7194259502437035
 20
-29.4414893370012116
 30
0.0
 40
1.1289274404035861
 50
147.5271668839058918
 51
211.2508489941751861
  0
ARC
  5
3E8D
  8
0
 10
166.0231052802714942
 20
-31.0777115504707488
 30
0.0
 40
2.0250174365989762
 50
11.0544933617072694
 51
31.2508489941752714
  0
ARC
  5
3E8E
  8
0
 10
168.1329017238049062
 20
-30.6655251479401301
 30
0.0
 40
0.1246659502245362
 50
191.0548143956914942
 51
270.2597319954027171
  0
ARC
  5
3E8F
  8
0
 10
168.1333003265768866
 20
-30.8791354526168114
 30
0.0
 40
0.08894579126535
 50
4.37780256078186
 51
89.8927282110659434
  0
ARC
  5
3E90
  8
0
 10
173.2251121642935061
 20
-30.4893334770242213
 30
0.0
 40
5.0177648301511768
 50
184.3777193261556988
 51
185.6222806455687078
  0
ARC
  5
3E91
  8
0
 10
168.3545788244695984
 20
-30.9688057356998492
 30
0.0
 40
0.123687934435763
 50
185.6222806455687078
 51
224.4800889827236006
  0
LINE
  5
3E92
  8
0
 10
168.2663282277237897
 20
-31.0554690918488099
 30
0.0
 11
168.6156728570005043
 21
-31.4048139575623608
 31
0.0
  0
ARC
  5
3E93
  8
0
 10
168.7040755832676098
 20
-31.316439992266119
 30
0.0
 40
0.1249999990145058
 50
224.9906781702237026
 51
270.0000020227586788
  0
LINE
  5
3E94
  8
0
 10
187.3397987924805932
 20
-27.6914399930424686
 30
0.0
 11
187.3409111112806045
 21
-27.7364182554424801
 31
0.0
  0
LINE
  5
3E95
  8
0
 10
187.3409111112806045
 20
-27.7364182554424801
 30
0.0
 11
187.3513196964962901
 21
-28.1314055672424708
 31
0.0
  0
LINE
  5
3E96
  8
0
 10
187.3513196964962901
 20
-28.1314055672424708
 30
0.0
 11
187.4009617996806014
 21
-30.027161004442469
 31
0.0
  0
LINE
  5
3E97
  8
0
 10
187.4009617996806014
 20
-30.027161004442469
 30
0.0
 11
187.4922381185805875
 21
-33.5128629948424717
 31
0.0
  0
LINE
  5
3E98
  8
0
 10
187.4922381185805875
 20
-33.5128629948424717
 30
0.0
 11
185.532423641580607
 21
-33.5129035906424733
 31
0.0
  0
ARC
  5
3E99
  8
0
 10
185.5324971525323861
 20
-37.0617393713303684
 30
0.0
 40
3.5488357814492542
 50
90.0011868307086189
 51
131.3995194800172897
  0
ARC
  5
3E9A
  8
0
 10
181.9653086504806083
 20
-34.1289399930425077
 30
0.0
 40
1.2499999999999549
 50
269.9999999999984084
 51
347.4901791741007173
  0
LINE
  5
3E9B
  8
0
 10
181.9653086504806083
 20
-35.3789399930424722
 30
0.0
 11
180.7332499856856032
 21
-35.3789399930424722
 31
0.0
  0
ARC
  5
3E9C
  8
0
 10
180.9936086051484097
 20
-35.498939992958519
 30
0.0
 40
0.119999999916045
 50
89.9999999846111933
 51
174.0000000323096003
  0
LINE
  5
3E9D
  8
0
 10
180.8742659777805954
 20
-35.4863965774424699
 30
0.0
 11
180.8710487924805932
 21
-35.5170060509424701
 31
0.0
  0
ARC
  5
3E9E
  8
0
 10
180.7467335555668058
 20
-35.5039399930514676
 30
0.0
 40
0.124999999991004
 50
269.9999999604971777
 51
354.000000007610879
  0
ARC
  5
3E9F
  8
0
 10
178.3078640325907998
 20
-35.5039399895016032
 30
0.0
 40
0.1250000035408664
 50
186.0000014628514862
 51
269.99999852858042
  0
LINE
  5
3EA0
  8
0
 10
178.1835487924819006
 20
-35.5170060509541514
 30
0.0
 11
178.1093928022008868
 21
-34.8114590380187323
 31
0.0
  0
ARC
  5
3EA1
  8
0
 10
182.4091491062708883
 20
-34.5556406604848121
 30
0.0
 40
0.2607114176230659
 50
281.1281220512631762
 51
289.0235465514094813
  0
ARC
  5
3EA2
  8
0
 10
181.8181277867682013
 20
-32.8414789056197378
 30
0.0
 40
2.0739010717819402
 50
289.0235465514094813
 51
309.8024944593574901
  0
ARC
  5
3EA3
  8
0
 10
182.4963871234849933
 20
-33.6554789820252935
 30
0.0
 40
1.0143578436728959
 50
309.8024944593574901
 51
312.8037359422360737
  0
LINE
  5
3EA4
  8
0
 10
180.3946791802706002
 20
-34.811458949022871
 30
0.0
 11
180.3796805071806091
 21
-35.4863987223424715
 31
0.0
  0
ARC
  5
3EA5
  8
0
 10
181.346484423445105
 20
-37.6453440227749425
 30
0.0
 40
2.3655347435122911
 50
108.0195816197572043
 51
114.1234588077333996
  0
ARC
  5
3EA6
  8
0
 10
180.7335784101285867
 20
-35.8053973648055504
 30
0.0
 40
0.426457498226591
 50
90.0441247643632749
 51
106.1825705787699974
  0
ARC
  5
3EA7
  8
0
 10
175.0843166571044947
 20
-34.563427527203487
 30
0.0
 40
0.2527944080917549
 50
244.4653578298299124
 51
258.7917951662817018
  0
ARC
  5
3EA8
  8
0
 10
179.1727998402733988
 20
-25.9862495747837983
 30
0.0
 40
9.7545665934162464
 50
219.1202700459436983
 51
244.5129967454373912
  0
ARC
  5
3EA9
  8
0
 10
181.4660897203845025
 20
-24.1211959071553395
 30
0.0
 40
12.7105103779552095
 50
217.9400412602352048
 51
219.1202700459436983
  0
ARC
  5
3EAA
  8
0
 10
170.4447424619139895
 20
-32.692886678155638
 30
0.0
 40
1.2518193186411259
 50
37.1974813838146403
 51
88.6019666981828635
  0
LINE
  5
3EAB
  8
0
 10
187.2978020033206121
 20
-31.4414399912806317
 30
0.0
 11
187.2985677107946003
 21
-31.4639332163330891
 31
0.0
  0
ARC
  5
3EAC
  8
0
 10
187.2304474757285959
 20
-31.4490871237415384
 30
0.0
 40
0.0697192433312016
 50
311.0288953174767244
 51
347.705235672357901
  0
LINE
  5
3EAD
  8
0
 10
187.2762139451091912
 20
-31.5016818304249391
 30
0.0
 11
186.6113619199913956
 21
-31.9882631916424707
 31
0.0
  0
LINE
  5
3EAE
  8
0
 10
186.6113619199913956
 20
-31.9882631916424707
 30
0.0
 11
171.4827873404373122
 21
-31.9882631916424707
 31
0.0
  0
LINE
  5
3EAF
  8
0
 10
175.0355899669951043
 20
-34.8114591577217567
 30
0.0
 11
182.4594134263473961
 21
-34.8114588686159721
 31
0.0
  0
ARC
  5
3EB0
  8
0
 10
182.4593566213802092
 20
-34.8109337993363894
 30
0.0
 40
0.0005281330823275
 50
276.1745671910865099
 51
282.1018098691163232
  0
ARC
  5
3EB1
  8
0
 10
175.0357404652818047
 20
-34.8089445060264566
 30
0.0
 40
0.0025191512227346
 50
257.1402277311361217
 51
266.5750153766921926
  0
LINE
  5
3EB3
  8
0
 10
168.7040755832676098
 20
-31.4414399912806317
 30
0.0
 11
187.4379959982929904
 21
-31.4414399912806317
 31
0.0
  0
ENDSEC
  0
EOF
