  0
SECTION
  2
HEADER
  9
$ACADVER
  1
AC1009
  9
$INSBASE
 10
3992.3771112387721587
 20
131.9873686668192079
 30
0.0
  9
$EXTMIN
 10
3991.1960088765717956
 20
131.1212269345191999
 30
0.0
  9
$EXTMAX
 10
3993.5582136009720671
 20
132.8535103991193012
 30
0.0
  9
$LIMMIN
 10
0.0
 20
0.0
  9
$LIMMAX
 10
11.6929133858000007
 20
8.2677165353999982
  9
$ORTHOMODE
 70
     0
  9
$REGENMODE
 70
     1
  9
$FILLMODE
 70
     1
  9
$QTEXTMODE
 70
     0
  9
$MIRRTEXT
 70
     0
  9
$DRAGMODE
 70
     2
  9
$LTSCALE
 40
0.6431102362
  9
$OSMODE
 70
  4095
  9
$ATTMODE
 70
     1
  9
$TEXTSIZE
 40
0.2
  9
$TRACEWID
 40
0.05
  9
$TEXTSTYLE
  7
STANDARD
  9
$CLAYER
  8
0
  9
$CELTYPE
  6
BYLAYER
  9
$CECOLOR
 62
   256
  9
$DIMSCALE
 40
1.0
  9
$DIMASZ
 40
0.1875
  9
$DIMEXO
 40
0.0625
  9
$DIMDLI
 40
0.4443307087
  9
$DIMRND
 40
0.0
  9
$DIMDLE
 40
0.0
  9
$DIMEXE
 40
0.125
  9
$DIMTP
 40
0.01
  9
$DIMTM
 40
0.01
  9
$DIMTXT
 40
2.0
  9
$DIMCEN
 40
0.1052362205
  9
$DIMTSZ
 40
0.0
  9
$DIMTOL
 70
     1
  9
$DIMLIM
 70
     0
  9
$DIMTIH
 70
     1
  9
$DIMTOH
 70
     1
  9
$DIMSE1
 70
     0
  9
$DIMSE2
 70
     0
  9
$DIMTAD
 70
     0
  9
$DIMZIN
 70
     0
  9
$DIMBLK
  1

  9
$DIMASO
 70
     1
  9
$DIMSHO
 70
     1
  9
$DIMPOST
  1
\X
  9
$DIMAPOST
  1

  9
$DIMALT
 70
     1
  9
$DIMALTD
 70
     2
  9
$DIMALTF
 40
25.3999999999999986
  9
$DIMLFAC
 40
1.0
  9
$DIMTOFL
 70
     0
  9
$DIMTVP
 40
0.0
  9
$DIMTIX
 70
     0
  9
$DIMSOXD
 70
     0
  9
$DIMSAH
 70
     0
  9
$DIMBLK1
  1

  9
$DIMBLK2
  1

  9
$DIMSTYLE
  2
STANDARD
  9
$DIMCLRD
 70
     0
  9
$DIMCLRE
 70
     0
  9
$DIMCLRT
 70
     0
  9
$DIMTFAC
 40
1.0
  9
$DIMGAP
 40
0.09
  9
$LUNITS
 70
     2
  9
$LUPREC
 70
     4
  9
$SKETCHINC
 40
0.1
  9
$FILLETRAD
 40
0.0
  9
$AUNITS
 70
     0
  9
$AUPREC
 70
     0
  9
$MENU
  1
.
  9
$ELEVATION
 40
0.0
  9
$PELEVATION
 40
0.0
  9
$THICKNESS
 40
0.0
  9
$LIMCHECK
 70
     0
  9
$BLIPMODE
 70
     0
  9
$CHAMFERA
 40
0.0
  9
$CHAMFERB
 40
0.0
  9
$SKPOLY
 70
     0
  9
$TDCREATE
 40
2458060.468368056230247
  9
$TDUPDATE
 40
2459076.662812499795109
  9
$TDINDWG
 40
0.3683519676
  9
$TDUSRTIMER
 40
0.3683519676
  9
$USRTIMER
 70
     1
  9
$ANGBASE
 50
0.0
  9
$ANGDIR
 70
     0
  9
$PDMODE
 70
     0
  9
$PDSIZE
 40
0.3125
  9
$PLINEWID
 40
0.0
  9
$COORDS
 70
     1
  9
$SPLFRAME
 70
     0
  9
$SPLINETYPE
 70
     6
  9
$SPLINESEGS
 70
     8
  9
$ATTDIA
 70
     1
  9
$ATTREQ
 70
     1
  9
$HANDLING
 70
     1
  9
$HANDSEED
  5
F054
  9
$SURFTAB1
 70
     6
  9
$SURFTAB2
 70
     6
  9
$SURFTYPE
 70
     6
  9
$SURFU
 70
     6
  9
$SURFV
 70
     6
  9
$UCSNAME
  2

  9
$UCSORG
 10
0.0
 20
0.0
 30
0.0
  9
$UCSXDIR
 10
1.0
 20
0.0
 30
0.0
  9
$UCSYDIR
 10
0.0
 20
1.0
 30
0.0
  9
$PUCSNAME
  2

  9
$PUCSORG
 10
0.0
 20
0.0
 30
0.0
  9
$PUCSXDIR
 10
1.0
 20
0.0
 30
0.0
  9
$PUCSYDIR
 10
0.0
 20
1.0
 30
0.0
  9
$USERI1
 70
     0
  9
$USERI2
 70
     0
  9
$USERI3
 70
     0
  9
$USERI4
 70
     0
  9
$USERI5
 70
     0
  9
$USERR1
 40
0.0
  9
$USERR2
 40
0.0
  9
$USERR3
 40
0.0
  9
$USERR4
 40
0.0
  9
$USERR5
 40
0.0
  9
$WORLDVIEW
 70
     1
  9
$SHADEDGE
 70
     3
  9
$SHADEDIF
 70
    70
  9
$TILEMODE
 70
     1
  9
$MAXACTVP
 70
    64
  9
$PLIMCHECK
 70
     0
  9
$PEXTMIN
 10
1.0000000000000000E+20
 20
1.0000000000000000E+20
 30
1.0000000000000000E+20
  9
$PEXTMAX
 10
-1.0000000000000000E+20
 20
-1.0000000000000000E+20
 30
-1.0000000000000000E+20
  9
$PLIMMIN
 10
0.0
 20
0.0
  9
$PLIMMAX
 10
12.0
 20
9.0
  9
$UNITMODE
 70
     0
  9
$VISRETAIN
 70
     1
  9
$PLINEGEN
 70
     0
  9
$PSLTSCALE
 70
     1
  0
ENDSEC
  0
SECTION
  2
TABLES
  0
TABLE
  2
VPORT
 70
     1
  0
VPORT
  2
*ACTIVE
 70
     0
 10
0.0
 20
0.0
 11
1.0
 21
1.0
 12
81.0117547934594313
 22
-0.5922364357197978
 13
0.0
 23
0.0
 14
1.0
 24
1.0
 15
0.0
 25
0.0
 16
0.0
 26
0.0
 36
60.4960186965801583
 17
3911.3653564453120453
 27
132.5796051025390057
 37
0.0
 40
1.7431328391173431
 41
2.005224660397074
 42
50.0
 43
0.0
 44
0.0
 50
0.0
 51
0.0
 71
     0
 72
   100
 73
     1
 74
     1
 75
     0
 76
     0
 77
     0
 78
     0
  0
ENDTAB
  0
TABLE
  2
LTYPE
 70
     2
  0
LTYPE
  2
CONTINUOUS
 70
     0
  3
Solid line
 72
    65
 73
     0
 40
0.0
  0
LTYPE
  2
PHANTOM2
 70
     0
  3
___ _ _ ___ _ _ ___ _ _ ___ _ _
 72
    65
 73
     6
 40
1.25
 49
0.625
 49
-0.125
 49
0.125
 49
-0.125
 49
0.125
 49
-0.125
  0
ENDTAB
  0
TABLE
  2
LAYER
 70
     2
  0
LAYER
  2
0
 70
     0
 62
   255
  6
CONTINUOUS
  0
LAYER
  2
DEFPOINTS
 70
     0
 62
     7
  6
CONTINUOUS
  0
ENDTAB
  0
TABLE
  2
STYLE
 70
     1
  0
STYLE
  2
STANDARD
 70
     0
 40
0.0
 41
0.8
 50
0.0
 71
     0
 42
0.2
  3
txt
  4

  0
ENDTAB
  0
TABLE
  2
VIEW
 70
     0
  0
ENDTAB
  0
TABLE
  2
UCS
 70
     0
  0
ENDTAB
  0
TABLE
  2
APPID
 70
    10
  0
APPID
  2
ACAD
 70
     0
  0
APPID
  2
ACAD_MLEADERVER
 70
     0
  0
APPID
  2
ACAD_EXEMPT_FROM_CAD_STANDARDS
 70
     0
  0
APPID
  2
ACAD_NAV_VCDISPLAY
 70
     0
  0
APPID
  2
ACAECLAYERSTANDARD
 70
     0
  0
APPID
  2
ACCMTRANSPARENCY
 70
     0
  0
APPID
  2
ACAD_DSTYLE_DIMJAG
 70
     0
  0
APPID
  2
ACAD_DSTYLE_DIMTALN
 70
     0
  0
APPID
  2
ACDBATTR
 70
     0
  0
APPID
  2
ACADANNOTATIVE
 70
     0
  0
ENDTAB
  0
TABLE
  2
DIMSTYLE
 70
     1
  0
DIMSTYLE
  2
STANDARD
 70
     0
  3

  4

  5

  6

  7

 40
1.0
 41
0.1875
 42
0.0625
 43
0.38
 44
0.125
 45
0.0
 46
0.0
 47
0.01
 48
0.01
140
0.15625
141
0.09
142
0.0
143
25.3999999999999986
144
1.0
145
0.0
146
1.0
147
0.09
 71
     1
 72
     0
 73
     1
 74
     1
 75
     0
 76
     0
 77
     0
 78
     4
170
     0
171
     2
172
     0
173
     0
174
     0
175
     0
176
     0
177
     0
178
     0
  0
ENDTAB
  0
ENDSEC
  0
SECTION
  2
BLOCKS
  0
BLOCK
  8
0
  2
$MODEL_SPACE
 70
     0
 10
0.0
 20
0.0
 30
0.0
  3
$MODEL_SPACE
  1

  0
ENDBLK
  5
21
  8
0
  0
BLOCK
 67
     1
  8
0
  2
$PAPER_SPACE
 70
     0
 10
0.0
 20
0.0
 30
0.0
  3
$PAPER_SPACE
  1

  0
ENDBLK
  5
1D
 67
     1
  8
0
  0
ENDSEC
  0
SECTION
  2
ENTITIES
  0
ATTDEF
  5
3930
  8
DEFPOINTS
 10
3992.3731199605781512
 20
131.9851790492770078
 30
0.0
 40
0.001
  1
K-22309T
  3

  2
MODELNUMBER
 70
     0
1001
ACDBATTR
1070
     0
1070
     1
  0
ATTDEF
  5
3931
  8
DEFPOINTS
 10
3992.3731199605781512
 20
131.9835123826103995
 30
0.0
 40
0.001
  1
BEITOU
  3

  2
TRADENAME
 70
     0
1001
ACDBATTR
1070
     0
1070
     1
  0
ATTDEF
  5
3932
  8
DEFPOINTS
 10
3992.3731199605781512
 20
131.981845715943706
 30
0.0
 40
0.001
  1
SHOWER ARM
  3

  2
PRODUCT
 70
     0
1001
ACDBATTR
1070
     0
1070
     1
  0
LINE
  5
EF59
  8
0
 10
3991.1960088765717956
 20
131.1605970133192045
 30
0.0
 11
3991.1960088765717956
 21
132.8141403203192112
 31
0.0
  0
LINE
  5
EF5A
  8
0
 10
3991.2747490340721015
 20
131.2393236797182965
 30
0.0
 11
3991.2747490340721015
 21
132.7354136541949003
 31
0.0
  0
LINE
  5
EF5B
  8
0
 10
3993.5188435222721637
 20
131.1212269345191999
 30
0.0
 11
3991.2353789552730632
 21
131.1212269345191999
 31
0.0
  0
LINE
  5
EF5C
  8
0
 10
3993.440116855722863
 20
131.1999670920193068
 30
0.0
 11
3991.3141056217859841
 21
131.1999670920193068
 31
0.0
  0
LINE
  5
EF5D
  8
0
 10
3991.7176624198718855
 20
131.4854001629192055
 30
0.0
 11
3991.7176624198718855
 21
131.8817873200032125
 31
0.0
  0
LINE
  5
EF5E
  8
0
 10
3991.7176624198718855
 20
132.0929500136352885
 30
0.0
 11
3991.7176624198718855
 21
132.4893371707192102
 31
0.0
  0
LINE
  5
EF5F
  8
0
 10
3991.764720278572895
 20
131.4854001629192055
 30
0.0
 11
3991.764720278572895
 21
132.4893371707192102
 31
0.0
  0
LINE
  5
EF60
  8
0
 10
3991.7847488692718798
 20
131.4854001629192055
 30
0.0
 11
3991.7847488692718798
 21
132.4893371707192102
 31
0.0
  0
LINE
  5
EF61
  8
0
 10
3992.87907974267182
 20
131.3279198479191905
 30
0.0
 11
3991.8751427348729521
 21
131.3279198479191905
 31
0.0
  0
LINE
  5
EF62
  8
0
 10
3992.87907974267182
 20
131.3749777066192053
 30
0.0
 11
3991.8751427348729521
 21
131.3749777066192053
 31
0.0
  0
LINE
  5
EF63
  8
0
 10
3992.87907974267182
 20
131.3950062973192985
 30
0.0
 11
3991.8751427348729521
 21
131.3950062973192985
 31
0.0
  0
LINE
  5
EF64
  8
0
 10
3991.8554576954720687
 20
132.4893371707192102
 30
0.0
 11
3991.8554576954720687
 21
131.4854001629192055
 31
0.0
  0
LINE
  5
EF65
  8
0
 10
3991.8653002151718283
 20
131.4952426825192049
 30
0.0
 11
3991.8653002151718283
 21
132.4794946511192961
 31
0.0
  0
LINE
  5
EF66
  8
0
 10
3991.8751427348729521
 20
131.4657151235192032
 30
0.0
 11
3992.87907974267182
 21
131.4657151235192032
 31
0.0
  0
LINE
  5
EF67
  8
0
 10
3992.8692372230721048
 20
131.4755576432191901
 30
0.0
 11
3991.8849852544722125
 21
131.4755576432191901
 31
0.0
  0
LINE
  5
EF68
  8
0
 10
3991.9440403726721343
 20
132.4007544936191891
 30
0.0
 11
3991.9440403726721343
 21
131.5739828400193119
 31
0.0
  0
LINE
  5
EF69
  8
0
 10
3991.9479773804719116
 20
131.5779198479193042
 30
0.0
 11
3991.9479773804719116
 21
132.3968174857191968
 31
0.0
  0
LINE
  5
EF6A
  8
0
 10
3991.9637254119720637
 20
131.5542978007192119
 30
0.0
 11
3992.7904970655717989
 21
131.5542978007192119
 31
0.0
  0
LINE
  5
EF6B
  8
0
 10
3992.7865600576719771
 20
131.5582348085191882
 30
0.0
 11
3991.9676624198718855
 21
131.5582348085191882
 31
0.0
  0
LINE
  5
EF6C
  8
0
 10
3992.0916781678720326
 20
131.8889434699192122
 30
0.0
 11
3992.0916781678720326
 21
132.0857938637192035
 31
0.0
  0
LINE
  5
EF6D
  8
0
 10
3992.4460088765717956
 20
132.4991796904193109
 30
0.0
 11
3992.4755364356719838
 21
132.5287072495193001
 31
0.0
  0
LINE
  5
EF6E
  8
0
 10
3992.1212057269722209
 20
132.0562663046191858
 30
0.0
 11
3992.1212057269722209
 21
131.9184710290192015
 31
0.0
  0
LINE
  5
EF6F
  8
0
 10
3992.2196309237720016
 20
132.686182111108792
 30
0.0
 11
3992.2196309237720016
 21
132.726784612410313
 31
0.0
  0
LINE
  5
EF70
  8
0
 10
3992.1212057269722209
 20
131.9184710290192015
 30
0.0
 11
3992.0916781678720326
 21
131.8889434699192122
 31
0.0
  0
LINE
  5
EF71
  8
0
 10
3992.0916781678720326
 20
131.8889434699192122
 30
0.0
 11
3992.0718434926720875
 21
131.8889434699192122
 31
0.0
  0
LINE
  5
EF72
  8
0
 10
3991.9479773804719116
 20
131.8889434699192122
 30
0.0
 11
3991.9440403726721343
 21
131.8889434699192122
 31
0.0
  0
LINE
  5
EF73
  8
0
 10
3992.1212057269722209
 20
132.0562663046191858
 30
0.0
 11
3992.0916781678720326
 21
132.0857938637192035
 31
0.0
  0
LINE
  5
EF74
  8
0
 10
3992.0916781678720326
 20
132.0857938637192035
 30
0.0
 11
3992.0718434926720875
 21
132.0857938637192035
 31
0.0
  0
LINE
  5
EF75
  8
0
 10
3991.9479773804719116
 20
132.0857938637192035
 30
0.0
 11
3991.9440403726721343
 21
132.0857938637192035
 31
0.0
  0
LINE
  5
EF76
  8
0
 10
3992.3082136009720671
 20
132.4991796904193109
 30
0.0
 11
3992.2786860418718788
 21
132.5287072495193001
 31
0.0
  0
LINE
  5
EF77
  8
0
 10
3991.9676624198718855
 20
132.4165025251191992
 30
0.0
 11
3992.7865600576719771
 21
132.4165025251191992
 31
0.0
  0
LINE
  5
EF78
  8
0
 10
3992.7904970655717989
 20
132.4204395329192039
 30
0.0
 11
3991.9637254119720637
 21
132.4204395329192039
 31
0.0
  0
LINE
  5
EF79
  8
0
 10
3991.8849852544722125
 20
132.4991796904193109
 30
0.0
 11
3992.8692372230721048
 21
132.4991796904193109
 31
0.0
  0
LINE
  5
EF7A
  8
0
 10
3992.87907974267182
 20
132.5090222101192126
 30
0.0
 11
3992.4558513962720099
 21
132.5090222101192126
 31
0.0
  0
LINE
  5
EF7B
  8
0
 10
3992.2983710812718527
 20
132.5090222101192126
 30
0.0
 11
3991.8751427348729521
 21
132.5090222101192126
 31
0.0
  0
LINE
  5
EF7C
  8
0
 10
3992.2786860418718788
 20
132.5287072495193001
 30
0.0
 11
3992.4755364356719838
 21
132.5287072495193001
 31
0.0
  0
LINE
  5
EF7D
  8
0
 10
3991.8751427348729521
 20
132.5797310363192025
 30
0.0
 11
3992.87907974267182
 21
132.5797310363192025
 31
0.0
  0
LINE
  5
EF7E
  8
0
 10
3991.8751427348729521
 20
132.5997596270192105
 30
0.0
 11
3992.87907974267182
 21
132.5997596270192105
 31
0.0
  0
LINE
  5
EF7F
  8
0
 10
3991.8751427348729521
 20
132.6468174857193105
 30
0.0
 11
3992.1802662984828203
 21
132.6468174857193105
 31
0.0
  0
LINE
  5
EF80
  8
0
 10
3993.440115609203076
 20
132.7747702416191942
 30
0.0
 11
3991.3141068683439698
 21
132.7747702416191942
 31
0.0
  0
LINE
  5
EF81
  8
0
 10
3991.2353789552730632
 20
132.8535103991193012
 30
0.0
 11
3993.5188435222721637
 21
132.8535103991193012
 31
0.0
  0
ARC
  5
EF82
  8
0
 10
3991.8751427348729521
 20
131.4854001629192055
 30
0.0
 40
0.157480315
 50
180.0
 51
270.0
  0
ARC
  5
EF83
  8
0
 10
3991.8751427348729521
 20
131.4854001629192055
 30
0.0
 40
0.1104224563
 50
179.9999999997997122
 51
270.000000000208388
  0
ARC
  5
EF84
  8
0
 10
3991.8751427348729521
 20
131.4854001629192055
 30
0.0
 40
0.0903938656
 50
180.0
 51
270.0
  0
ARC
  5
EF85
  8
0
 10
3991.2353789552730632
 20
131.1605970133192045
 30
0.0
 40
0.0393700787
 50
180.0
 51
270.0
  0
ARC
  5
EF86
  8
0
 10
3991.3140720515680187
 20
131.2392901095149966
 30
0.0
 40
0.0393230318252081
 50
179.9510863961438076
 51
270.0489136244722772
  0
ARC
  5
EF87
  8
0
 10
3991.9676624198718855
 20
131.5779198479193042
 30
0.0
 40
0.0196850394
 50
180.0
 51
270.0
  0
ARC
  5
EF88
  8
0
 10
3991.8849852544722125
 20
131.4952426825192049
 30
0.0
 40
0.0196850394
 50
180.0
 51
270.0
  0
ARC
  5
EF89
  8
0
 10
3991.9637254119720637
 20
131.5739828400193119
 30
0.0
 40
0.0196850394
 50
180.0
 51
270.0
  0
ARC
  5
EF8A
  8
0
 10
3991.8751427348729521
 20
131.4854001629192055
 30
0.0
 40
0.0196850394
 50
180.0
 51
270.0
  0
ARC
  5
EF8B
  8
0
 10
3991.8751427348729521
 20
132.4893371707192102
 30
0.0
 40
0.157480315
 50
90.0
 51
180.0
  0
ARC
  5
EF8C
  8
0
 10
3991.6093947033718905
 20
131.9873686668192079
 30
0.0
 40
0.1181102362
 50
50.0081382579691365
 51
309.9918617420307783
  0
ARC
  5
EF8D
  8
0
 10
3991.6979624198720558
 20
132.0929500136352885
 30
0.0
 40
0.0197
 50
230.0081382579681133
 51
0.0
  0
ARC
  5
EF8E
  8
0
 10
3991.6979624198720558
 20
131.8817873200032125
 30
0.0
 40
0.0197
 50
0.0
 51
129.9918617420318867
  0
ARC
  5
EF8F
  8
0
 10
3991.8751427348729521
 20
132.4893371707192102
 30
0.0
 40
0.1104224563
 50
89.9999999997915552
 51
180.0000000002002878
  0
ARC
  5
EF90
  8
0
 10
3991.8751427348729521
 20
132.4893371707192102
 30
0.0
 40
0.0903938656
 50
90.0
 51
180.0
  0
CIRCLE
  5
EF91
  8
0
 10
3991.6093947033718905
 20
131.9873686668192079
 30
0.0
 40
0.0826771654
  0
CIRCLE
  5
EF92
  8
0
 10
3991.6093947033718905
 20
131.9873686668192079
 30
0.0
 40
0.062992126
  0
ARC
  5
EF93
  8
0
 10
3991.2353789552730632
 20
132.8141403203192112
 30
0.0
 40
0.0393700787
 50
90.0
 51
180.0
  0
ARC
  5
EF94
  8
0
 10
3992.1741768932001833
 20
132.7292802194565979
 30
0.0
 40
0.0455224883964958
 50
356.8573890529606274
 51
87.8359544168620374
  0
ARC
  5
EF95
  8
0
 10
3991.3140852597980484
 20
132.73543401655769
 30
0.0
 40
0.0393362309967038
 50
89.9685257469651134
 51
180.0296591075222921
  0
ARC
  5
EF96
  8
0
 10
3991.9676624198718855
 20
132.3968174857191968
 30
0.0
 40
0.0196850394
 50
90.0
 51
180.0
  0
ARC
  5
EF97
  8
0
 10
3991.9637254119720637
 20
132.4007544936191891
 30
0.0
 40
0.0196850394
 50
90.0
 51
180.0
  0
ARC
  5
EF98
  8
0
 10
3991.8849852544722125
 20
132.4794946511192961
 30
0.0
 40
0.0196850394
 50
90.0
 51
180.0
  0
ARC
  5
EF99
  8
0
 10
3991.8751427348729521
 20
132.4893371707192102
 30
0.0
 40
0.0196850394
 50
90.0
 51
180.0
  0
CIRCLE
  5
EF9A
  8
0
 10
3992.3771112387721587
 20
131.9873686668192079
 30
0.0
 40
0.3405511811
  0
CIRCLE
  5
EF9B
  8
0
 10
3992.3771112387721587
 20
131.9873686668192079
 30
0.0
 40
0.3208661417
  0
ARC
  5
EF9C
  8
0
 10
3992.3771112387721587
 20
131.9873686668192079
 30
0.0
 40
0.3011811024
 50
18.9565109141505701
 51
161.0434890858493873
  0
ARC
  5
EF9D
  8
0
 10
3992.3771112387721587
 20
131.9873686668192079
 30
0.0
 40
0.3011811024
 50
198.9565109141520907
 51
341.0434890858493873
  0
CIRCLE
  5
EF9E
  8
0
 10
3992.3771112387721587
 20
131.9873686668192079
 30
0.0
 40
0.1968503937
  0
ARC
  5
EF9F
  8
0
 10
3992.1813135673578472
 20
132.6851348421359091
 30
0.0
 40
0.0383316654331284
 50
268.4344130782047841
 51
1.565587067740233
  0
LINE
  5
EFA0
  8
0
 10
3993.5582136009720671
 20
131.1605970133192045
 30
0.0
 11
3993.5582136009720671
 21
132.8141403203192112
 31
0.0
  0
LINE
  5
EFA1
  8
0
 10
3993.4794734434731254
 20
131.2393236797190923
 30
0.0
 11
3993.4794734434731254
 21
132.7354136541949003
 31
0.0
  0
LINE
  5
EFA2
  8
0
 10
3993.0365600576719771
 20
131.4854001629192055
 30
0.0
 11
3993.0365600576719771
 21
131.8817873200032125
 31
0.0
  0
LINE
  5
EFA3
  8
0
 10
3993.0365600576719771
 20
132.0929500136352885
 30
0.0
 11
3993.0365600576719771
 21
132.4893371707192102
 31
0.0
  0
LINE
  5
EFA4
  8
0
 10
3992.9895021989718771
 20
131.4854001629192055
 30
0.0
 11
3992.9895021989718771
 21
132.4893371707192102
 31
0.0
  0
LINE
  5
EFA5
  8
0
 10
3992.9694736082728923
 20
131.4854001629192055
 30
0.0
 11
3992.9694736082728923
 21
132.4893371707192102
 31
0.0
  0
LINE
  5
EFA6
  8
0
 10
3992.8987647820717939
 20
132.4893371707192102
 30
0.0
 11
3992.8987647820717939
 21
131.4854001629192055
 31
0.0
  0
LINE
  5
EFA7
  8
0
 10
3992.8889222623720343
 20
131.4952426825192049
 30
0.0
 11
3992.8889222623720343
 21
132.4794946511192961
 31
0.0
  0
LINE
  5
EFA8
  8
0
 10
3992.8101821048721831
 20
132.4007544936191891
 30
0.0
 11
3992.8101821048721831
 21
131.5739828400193119
 31
0.0
  0
LINE
  5
EFA9
  8
0
 10
3992.806245097071951
 20
131.5779198479193042
 30
0.0
 11
3992.806245097071951
 21
132.3968174857191968
 31
0.0
  0
LINE
  5
EFAA
  8
0
 10
3992.66254430967183
 20
131.8889434699192122
 30
0.0
 11
3992.66254430967183
 21
132.0857938637192035
 31
0.0
  0
LINE
  5
EFAB
  8
0
 10
3992.633016750573006
 20
132.0562663046191858
 30
0.0
 11
3992.633016750573006
 21
131.9184710290192015
 31
0.0
  0
LINE
  5
EFAC
  8
0
 10
3992.5345915537718611
 20
132.686182111108792
 30
0.0
 11
3992.5345915537718611
 21
132.726784612410313
 31
0.0
  0
LINE
  5
EFAD
  8
0
 10
3992.633016750573006
 20
131.9184710290192015
 30
0.0
 11
3992.66254430967183
 21
131.8889434699192122
 31
0.0
  0
LINE
  5
EFAE
  8
0
 10
3992.66254430967183
 20
131.8889434699192122
 30
0.0
 11
3992.6823789848731394
 21
131.8889434699192122
 31
0.0
  0
LINE
  5
EFAF
  8
0
 10
3992.806245097071951
 20
131.8889434699192122
 30
0.0
 11
3992.8101821048721831
 21
131.8889434699192122
 31
0.0
  0
LINE
  5
EFB0
  8
0
 10
3992.633016750573006
 20
132.0562663046191858
 30
0.0
 11
3992.66254430967183
 21
132.0857938637192035
 31
0.0
  0
LINE
  5
EFB1
  8
0
 10
3992.66254430967183
 20
132.0857938637192035
 30
0.0
 11
3992.6823789848731394
 21
132.0857938637192035
 31
0.0
  0
LINE
  5
EFB2
  8
0
 10
3992.806245097071951
 20
132.0857938637192035
 30
0.0
 11
3992.8101821048721831
 21
132.0857938637192035
 31
0.0
  0
LINE
  5
EFB3
  8
0
 10
3992.87907974267182
 20
132.6468174857193105
 30
0.0
 11
3992.5739561790610423
 21
132.6468174857193105
 31
0.0
  0
ARC
  5
EFB4
  8
0
 10
3992.87907974267182
 20
131.4854001629192055
 30
0.0
 40
0.157480315
 50
270.0
 51
0.0
  0
ARC
  5
EFB5
  8
0
 10
3992.87907974267182
 20
131.4854001629192055
 30
0.0
 40
0.1104224563
 50
270.0
 51
0.0000000002002986
  0
ARC
  5
EFB6
  8
0
 10
3992.87907974267182
 20
131.4854001629192055
 30
0.0
 40
0.0903938656
 50
270.0
 51
0.0
  0
ARC
  5
EFB7
  8
0
 10
3993.5188435222721637
 20
131.1605970133192045
 30
0.0
 40
0.0393700787
 50
270.0
 51
0.0
  0
ARC
  5
EFB8
  8
0
 10
3993.440150425975844
 20
131.2392901095149966
 30
0.0
 40
0.0393230318252081
 50
269.9510863233653026
 51
0.0489136049668225
  0
ARC
  5
EFB9
  8
0
 10
3992.7865600576719771
 20
131.5779198479193042
 30
0.0
 40
0.0196850394
 50
270.0
 51
0.0
  0
ARC
  5
EFBA
  8
0
 10
3992.8692372230721048
 20
131.4952426825192049
 30
0.0
 40
0.0196850394
 50
270.0
 51
0.0
  0
ARC
  5
EFBB
  8
0
 10
3992.7904970655717989
 20
131.5739828400193119
 30
0.0
 40
0.0196850394
 50
270.0
 51
0.0
  0
ARC
  5
EFBC
  8
0
 10
3992.87907974267182
 20
131.4854001629192055
 30
0.0
 40
0.0196850394
 50
270.0
 51
0.0
  0
ARC
  5
EFBD
  8
0
 10
3992.87907974267182
 20
132.4893371707192102
 30
0.0
 40
0.157480315
 50
0.0
 51
90.0
  0
ARC
  5
EFBE
  8
0
 10
3993.1448277741719721
 20
131.9873686668192079
 30
0.0
 40
0.1181102362
 50
230.0081382579691081
 51
129.9918617420308067
  0
ARC
  5
EFBF
  8
0
 10
3993.0562600576718069
 20
132.0929500136352885
 30
0.0
 40
0.0197
 50
180.0
 51
309.9918617420307783
  0
ARC
  5
EFC0
  8
0
 10
3993.0562600576718069
 20
131.8817873200032125
 30
0.0
 40
0.0197
 50
50.0081382579691365
 51
180.0
  0
ARC
  5
EFC1
  8
0
 10
3992.87907974267182
 20
132.4893371707192102
 30
0.0
 40
0.1104224563
 50
359.9999999997996838
 51
90.0
  0
ARC
  5
EFC2
  8
0
 10
3992.87907974267182
 20
132.4893371707192102
 30
0.0
 40
0.0903938656
 50
0.0
 51
90.0
  0
CIRCLE
  5
EFC3
  8
0
 10
3993.1448277741719721
 20
131.9873686668192079
 30
0.0
 40
0.0826771654
  0
CIRCLE
  5
EFC4
  8
0
 10
3993.1448277741719721
 20
131.9873686668192079
 30
0.0
 40
0.062992126
  0
ARC
  5
EFC5
  8
0
 10
3993.5188435222721637
 20
132.8141403203192112
 30
0.0
 40
0.0393700787
 50
0.0
 51
90.0
  0
ARC
  5
EFC6
  8
0
 10
3992.5800455843450436
 20
132.7292802194565979
 30
0.0
 40
0.0455224883964958
 50
92.1640455831379484
 51
183.1426109470378094
  0
ARC
  5
EFC7
  8
0
 10
3993.4401372177458143
 20
132.73543401655769
 30
0.0
 40
0.0393362309967038
 50
359.9703408924776795
 51
90.0314742494653473
  0
ARC
  5
EFC8
  8
0
 10
3992.7865600576719771
 20
132.3968174857191968
 30
0.0
 40
0.0196850394
 50
0.0
 51
90.0
  0
ARC
  5
EFC9
  8
0
 10
3992.7904970655717989
 20
132.4007544936191891
 30
0.0
 40
0.0196850394
 50
0.0
 51
90.0
  0
ARC
  5
EFCA
  8
0
 10
3992.8692372230721048
 20
132.4794946511192961
 30
0.0
 40
0.0196850394
 50
0.0
 51
90.0
  0
ARC
  5
EFCB
  8
0
 10
3992.87907974267182
 20
132.4893371707192102
 30
0.0
 40
0.0196850394
 50
0.0
 51
90.0
  0
ARC
  5
EFCC
  8
0
 10
3992.5729089101869249
 20
132.6851348421359091
 30
0.0
 40
0.0383316654331284
 50
178.4344129322597041
 51
271.5655869217952159
  0
LINE
  5
EFCD
  8
0
 10
3992.2786860418718788
 20
132.5287072495193001
 30
0.0
 11
3992.2786860418718788
 21
132.5797310363192025
 31
0.0
  0
LINE
  5
EFCE
  8
0
 10
3992.4755364356719838
 20
132.5287072495193001
 30
0.0
 11
3992.4755364356719838
 21
132.5797310363192025
 31
0.0
  0
ENDSEC
  0
EOF
