  0
SECTION
  2
HEADER
  9
$ACADVER
  1
AC1009
  9
$INSBASE
 10
3986.8056311765622013
 20
133.2848257584024054
 30
0.0
  9
$EXTMIN
 10
3985.6245288143609287
 20
124.6194714277023934
 30
0.0
  9
$EXTMAX
 10
3987.9867335387612002
 20
133.2848257584024054
 30
0.0
  9
$LIMMIN
 10
0.0
 20
0.0
  9
$LIMMAX
 10
11.6929133858000007
 20
8.2677165353999982
  9
$ORTHOMODE
 70
     0
  9
$REGENMODE
 70
     1
  9
$FILLMODE
 70
     1
  9
$QTEXTMODE
 70
     0
  9
$MIRRTEXT
 70
     0
  9
$DRAGMODE
 70
     2
  9
$LTSCALE
 40
0.6431102362
  9
$OSMODE
 70
  4095
  9
$ATTMODE
 70
     1
  9
$TEXTSIZE
 40
0.2
  9
$TRACEWID
 40
0.05
  9
$TEXTSTYLE
  7
STANDARD
  9
$CLAYER
  8
0
  9
$CELTYPE
  6
BYLAYER
  9
$CECOLOR
 62
   256
  9
$DIMSCALE
 40
1.0
  9
$DIMASZ
 40
0.1875
  9
$DIMEXO
 40
0.0625
  9
$DIMDLI
 40
0.4443307087
  9
$DIMRND
 40
0.0
  9
$DIMDLE
 40
0.0
  9
$DIMEXE
 40
0.125
  9
$DIMTP
 40
0.01
  9
$DIMTM
 40
0.01
  9
$DIMTXT
 40
2.0
  9
$DIMCEN
 40
0.1052362205
  9
$DIMTSZ
 40
0.0
  9
$DIMTOL
 70
     1
  9
$DIMLIM
 70
     0
  9
$DIMTIH
 70
     1
  9
$DIMTOH
 70
     1
  9
$DIMSE1
 70
     0
  9
$DIMSE2
 70
     0
  9
$DIMTAD
 70
     0
  9
$DIMZIN
 70
     0
  9
$DIMBLK
  1

  9
$DIMASO
 70
     1
  9
$DIMSHO
 70
     1
  9
$DIMPOST
  1
\X
  9
$DIMAPOST
  1

  9
$DIMALT
 70
     1
  9
$DIMALTD
 70
     2
  9
$DIMALTF
 40
25.3999999999999986
  9
$DIMLFAC
 40
1.0
  9
$DIMTOFL
 70
     0
  9
$DIMTVP
 40
0.0
  9
$DIMTIX
 70
     0
  9
$DIMSOXD
 70
     0
  9
$DIMSAH
 70
     0
  9
$DIMBLK1
  1

  9
$DIMBLK2
  1

  9
$DIMSTYLE
  2
STANDARD
  9
$DIMCLRD
 70
     0
  9
$DIMCLRE
 70
     0
  9
$DIMCLRT
 70
     0
  9
$DIMTFAC
 40
1.0
  9
$DIMGAP
 40
0.09
  9
$LUNITS
 70
     2
  9
$LUPREC
 70
     4
  9
$SKETCHINC
 40
0.1
  9
$FILLETRAD
 40
0.0
  9
$AUNITS
 70
     0
  9
$AUPREC
 70
     0
  9
$MENU
  1
.
  9
$ELEVATION
 40
0.0
  9
$PELEVATION
 40
0.0
  9
$THICKNESS
 40
0.0
  9
$LIMCHECK
 70
     0
  9
$BLIPMODE
 70
     0
  9
$CHAMFERA
 40
0.0
  9
$CHAMFERB
 40
0.0
  9
$SKPOLY
 70
     0
  9
$TDCREATE
 40
2458060.468368056230247
  9
$TDUPDATE
 40
2459075.6413657409138978
  9
$TDINDWG
 40
0.3694862269
  9
$TDUSRTIMER
 40
0.3694862269
  9
$USRTIMER
 70
     1
  9
$ANGBASE
 50
0.0
  9
$ANGDIR
 70
     0
  9
$PDMODE
 70
     0
  9
$PDSIZE
 40
0.3125
  9
$PLINEWID
 40
0.0
  9
$COORDS
 70
     1
  9
$SPLFRAME
 70
     0
  9
$SPLINETYPE
 70
     6
  9
$SPLINESEGS
 70
     8
  9
$ATTDIA
 70
     1
  9
$ATTREQ
 70
     1
  9
$HANDLING
 70
     1
  9
$HANDSEED
  5
ED5B
  9
$SURFTAB1
 70
     6
  9
$SURFTAB2
 70
     6
  9
$SURFTYPE
 70
     6
  9
$SURFU
 70
     6
  9
$SURFV
 70
     6
  9
$UCSNAME
  2

  9
$UCSORG
 10
0.0
 20
0.0
 30
0.0
  9
$UCSXDIR
 10
1.0
 20
0.0
 30
0.0
  9
$UCSYDIR
 10
0.0
 20
1.0
 30
0.0
  9
$PUCSNAME
  2

  9
$PUCSORG
 10
0.0
 20
0.0
 30
0.0
  9
$PUCSXDIR
 10
1.0
 20
0.0
 30
0.0
  9
$PUCSYDIR
 10
0.0
 20
1.0
 30
0.0
  9
$USERI1
 70
     0
  9
$USERI2
 70
     0
  9
$USERI3
 70
     0
  9
$USERI4
 70
     0
  9
$USERI5
 70
     0
  9
$USERR1
 40
0.0
  9
$USERR2
 40
0.0
  9
$USERR3
 40
0.0
  9
$USERR4
 40
0.0
  9
$USERR5
 40
0.0
  9
$WORLDVIEW
 70
     1
  9
$SHADEDGE
 70
     3
  9
$SHADEDIF
 70
    70
  9
$TILEMODE
 70
     1
  9
$MAXACTVP
 70
    64
  9
$PLIMCHECK
 70
     0
  9
$PEXTMIN
 10
1.0000000000000000E+20
 20
1.0000000000000000E+20
 30
1.0000000000000000E+20
  9
$PEXTMAX
 10
-1.0000000000000000E+20
 20
-1.0000000000000000E+20
 30
-1.0000000000000000E+20
  9
$PLIMMIN
 10
0.0
 20
0.0
  9
$PLIMMAX
 10
12.0
 20
9.0
  9
$UNITMODE
 70
     0
  9
$VISRETAIN
 70
     1
  9
$PLINEGEN
 70
     0
  9
$PSLTSCALE
 70
     1
  0
ENDSEC
  0
SECTION
  2
TABLES
  0
TABLE
  2
VPORT
 70
     1
  0
VPORT
  2
*ACTIVE
 70
     0
 10
0.0
 20
0.0
 11
1.0
 21
1.0
 12
75.4402747312487918
 22
-3.6274565094866631
 13
0.0
 23
0.0
 14
1.0
 24
1.0
 15
0.0
 25
0.0
 16
0.0
 26
0.0
 36
60.4960186965801583
 17
3911.3653564453120453
 27
132.5796051025390057
 37
0.0
 40
8.7204336316561886
 41
2.005224660397074
 42
50.0
 43
0.0
 44
0.0
 50
0.0
 51
0.0
 71
     0
 72
   100
 73
     1
 74
     1
 75
     0
 76
     0
 77
     0
 78
     0
  0
ENDTAB
  0
TABLE
  2
LTYPE
 70
     2
  0
LTYPE
  2
CONTINUOUS
 70
     0
  3
Solid line
 72
    65
 73
     0
 40
0.0
  0
LTYPE
  2
PHANTOM2
 70
     0
  3
___ _ _ ___ _ _ ___ _ _ ___ _ _
 72
    65
 73
     6
 40
1.25
 49
0.625
 49
-0.125
 49
0.125
 49
-0.125
 49
0.125
 49
-0.125
  0
ENDTAB
  0
TABLE
  2
LAYER
 70
     2
  0
LAYER
  2
0
 70
     0
 62
   255
  6
CONTINUOUS
  0
LAYER
  2
DEFPOINTS
 70
     0
 62
     7
  6
CONTINUOUS
  0
ENDTAB
  0
TABLE
  2
STYLE
 70
     1
  0
STYLE
  2
STANDARD
 70
     0
 40
0.0
 41
0.8
 50
0.0
 71
     0
 42
0.2
  3
txt
  4

  0
ENDTAB
  0
TABLE
  2
VIEW
 70
     0
  0
ENDTAB
  0
TABLE
  2
UCS
 70
     0
  0
ENDTAB
  0
TABLE
  2
APPID
 70
    10
  0
APPID
  2
ACAD
 70
     0
  0
APPID
  2
ACAD_MLEADERVER
 70
     0
  0
APPID
  2
ACAD_EXEMPT_FROM_CAD_STANDARDS
 70
     0
  0
APPID
  2
ACAD_NAV_VCDISPLAY
 70
     0
  0
APPID
  2
ACAECLAYERSTANDARD
 70
     0
  0
APPID
  2
ACCMTRANSPARENCY
 70
     0
  0
APPID
  2
ACAD_DSTYLE_DIMJAG
 70
     0
  0
APPID
  2
ACAD_DSTYLE_DIMTALN
 70
     0
  0
APPID
  2
ACDBATTR
 70
     0
  0
APPID
  2
ACADANNOTATIVE
 70
     0
  0
ENDTAB
  0
TABLE
  2
DIMSTYLE
 70
     1
  0
DIMSTYLE
  2
STANDARD
 70
     0
  3

  4

  5

  6

  7

 40
1.0
 41
0.1875
 42
0.0625
 43
0.38
 44
0.125
 45
0.0
 46
0.0
 47
0.01
 48
0.01
140
0.15625
141
0.09
142
0.0
143
25.3999999999999986
144
1.0
145
0.0
146
1.0
147
0.09
 71
     1
 72
     0
 73
     1
 74
     1
 75
     0
 76
     0
 77
     0
 78
     4
170
     0
171
     2
172
     0
173
     0
174
     0
175
     0
176
     0
177
     0
178
     0
  0
ENDTAB
  0
ENDSEC
  0
SECTION
  2
BLOCKS
  0
BLOCK
  8
0
  2
$MODEL_SPACE
 70
     0
 10
0.0
 20
0.0
 30
0.0
  3
$MODEL_SPACE
  1

  0
ENDBLK
  5
21
  8
0
  0
BLOCK
 67
     1
  8
0
  2
$PAPER_SPACE
 70
     0
 10
0.0
 20
0.0
 30
0.0
  3
$PAPER_SPACE
  1

  0
ENDBLK
  5
1D
 67
     1
  8
0
  0
ENDSEC
  0
SECTION
  2
ENTITIES
  0
ATTDEF
  5
3930
  8
DEFPOINTS
 10
3986.8005410001887867
 20
133.2825122511036966
 30
0.0
 40
0.001
  1
K-22309T
  3

  2
MODELNUMBER
 70
     0
1001
ACDBATTR
1070
     0
1070
     1
  0
ATTDEF
  5
3931
  8
DEFPOINTS
 10
3986.8005410001887867
 20
133.280845584437003
 30
0.0
 40
0.001
  1
BEITOU
  3

  2
TRADENAME
 70
     0
1001
ACDBATTR
1070
     0
1070
     1
  0
ATTDEF
  5
3932
  8
DEFPOINTS
 10
3986.8005410001887867
 20
133.2791789177703947
 30
0.0
 40
0.001
  1
SHOWER ARM
  3

  2
PRODUCT
 70
     0
1001
ACDBATTR
1070
     0
1070
     1
  0
LINE
  5
EC47
  8
0
 10
3986.4316154285620541
 20
124.6194714277023934
 30
0.0
 11
3987.179631892262023
 21
124.6194714277023934
 31
0.0
  0
LINE
  5
EC48
  8
0
 10
3986.2938201529618709
 20
124.9580541049024021
 30
0.0
 11
3987.3174422001620769
 21
124.9580541049024021
 31
0.0
  0
LINE
  5
EC49
  8
0
 10
3986.3935522927608872
 20
124.6848512544024032
 30
0.0
 11
3986.4124432406620144
 21
124.6739355685024009
 31
0.0
  0
LINE
  5
EC4A
  8
0
 10
3986.3935536608619259
 20
124.7439070447023965
 30
0.0
 11
3986.4124446384621479
 21
124.7329913041023985
 31
0.0
  0
LINE
  5
EC4B
  8
0
 10
3986.3935475559610495
 20
124.8029644233023987
 30
0.0
 11
3986.4124387205620224
 21
124.7920487213023932
 31
0.0
  0
LINE
  5
EC4C
  8
0
 10
3986.3935529486611813
 20
124.8620166485024043
 30
0.0
 11
3986.4124438759617988
 21
124.8511009404024037
 31
0.0
  0
LINE
  5
EC4D
  8
0
 10
3986.3942387967517789
 20
124.9206774730926952
 30
0.0
 11
3986.4124442215620547
 21
124.910157841302393
 31
0.0
  0
LINE
  5
EC4E
  8
0
 10
3987.2177677705931274
 20
124.6898814472562975
 30
0.0
 11
3987.1987884589889291
 21
124.7008481282448997
 31
0.0
  0
LINE
  5
EC4F
  8
0
 10
3987.2177677665267765
 20
124.7489375277747996
 30
0.0
 11
3987.1987900848139361
 21
124.7599032194268034
 31
0.0
  0
LINE
  5
EC50
  8
0
 10
3987.2177677840331853
 20
124.8079899797954937
 30
0.0
 11
3987.1988164213607888
 21
124.8189406682024014
 31
0.0
  0
LINE
  5
EC51
  8
0
 10
3987.2177073282609854
 20
124.8670803501023983
 30
0.0
 11
3987.1988164192621298
 21
124.8779961068023994
 31
0.0
  0
LINE
  5
EC52
  8
0
 10
3986.4316154285620541
 20
124.6194714277023934
 30
0.0
 11
3986.3922453497621063
 21
124.658841506502398
 31
0.0
  0
LINE
  5
EC53
  8
0
 10
3987.1796469245618937
 20
124.9580541049024021
 30
0.0
 11
3987.219017003360932
 21
124.9186840261023974
 31
0.0
  0
LINE
  5
EC54
  8
0
 10
3985.6245288143609287
 20
132.8714399316023957
 30
0.0
 11
3985.6245288143609287
 21
133.2848257584024054
 31
0.0
  0
LINE
  5
EC55
  8
0
 10
3986.2938201529618709
 20
124.9580541049024021
 30
0.0
 11
3986.2938201529618709
 21
132.8320698529024071
 31
0.0
  0
LINE
  5
EC56
  8
0
 10
3986.3922453497621063
 20
124.8945326266023983
 30
0.0
 11
3986.3922453497621063
 21
124.8640923869023993
 31
0.0
  0
LINE
  5
EC57
  8
0
 10
3986.3922453497621063
 20
124.8354775117023934
 30
0.0
 11
3986.3922453497621063
 21
124.8050372696023942
 31
0.0
  0
LINE
  5
EC58
  8
0
 10
3986.3922453497621063
 20
124.7764223966023991
 30
0.0
 11
3986.3922453497621063
 21
124.7459821560023983
 31
0.0
  0
LINE
  5
EC59
  8
0
 10
3986.3922453497621063
 20
124.7173672759024043
 30
0.0
 11
3986.3922453497621063
 21
124.6869270320024015
 31
0.0
  0
LINE
  5
EC5A
  8
0
 10
3987.219017003360932
 20
124.9186840261023974
 30
0.0
 11
3987.219017003360932
 21
124.8936199533024052
 31
0.0
  0
LINE
  5
EC5B
  8
0
 10
3987.219017003360932
 20
124.8650050691023949
 30
0.0
 11
3987.219017003360932
 21
124.8345648351023982
 31
0.0
  0
LINE
  5
EC5C
  8
0
 10
3987.219017003360932
 20
124.8058253671944016
 30
0.0
 11
3987.219017003360932
 21
124.7756311220335022
 31
0.0
  0
ARC
  5
EC5D
  8
0
 10
3987.2165170033608774
 20
124.7756311220335022
 30
0.0
 40
0.0025
 50
300.0202910534724197
 51
0.0
  0
ARC
  5
EC5E
  8
0
 10
3987.2165170033608774
 20
124.8058253671944016
 30
0.0
 40
0.0025
 50
0.0
 51
59.9793383389607584
  0
LINE
  5
EC5F
  8
0
 10
3987.219017003360932
 20
124.7467729050585064
 30
0.0
 11
3987.219017003360932
 21
124.7165769387406016
 31
0.0
  0
ARC
  5
EC60
  8
0
 10
3987.2165170033608774
 20
124.7467729050585064
 30
0.0
 40
0.0025
 50
0.0
 51
59.9798016983791769
  0
LINE
  5
EC61
  8
0
 10
3987.219017003360932
 20
124.6877168268893001
 30
0.0
 11
3987.219017003360932
 21
124.6598770404083041
 31
0.0
  0
ARC
  5
EC62
  8
0
 10
3987.2165170033608774
 20
124.6598770404083041
 30
0.0
 40
0.0025
 50
315.0000000000034106
 51
0.0
  0
ARC
  5
EC63
  8
0
 10
3987.2165170033608774
 20
124.6877168268893001
 30
0.0
 40
0.0025
 50
0.0
 51
59.9796940768331694
  0
LINE
  5
EC64
  8
0
 10
3987.3174422001620769
 20
132.8320698529024071
 30
0.0
 11
3987.3174422001620769
 21
124.9580541049024021
 31
0.0
  0
LINE
  5
EC65
  8
0
 10
3987.9867335387612002
 20
133.2848257584024054
 30
0.0
 11
3987.9867335387612002
 21
132.8714399316023957
 31
0.0
  0
LINE
  5
EC66
  8
0
 10
3986.4316154285620541
 20
124.9580541049024021
 30
0.0
 11
3986.3942387967517789
 21
124.9206774730926952
 31
0.0
  0
LINE
  5
EC67
  8
0
 10
3987.1796469245618937
 20
124.6194714277023934
 30
0.0
 11
3987.2182847703138577
 21
124.6581092734552954
 31
0.0
  0
LINE
  5
EC68
  8
0
 10
3986.4124386429612059
 20
124.9075210431024061
 30
0.0
 11
3986.3935474811619315
 21
124.896605341402406
 31
0.0
  0
LINE
  5
EC69
  8
0
 10
3986.4124381330611868
 20
124.8484661042024015
 30
0.0
 11
3986.3935469873617876
 21
124.8375504255023998
 31
0.0
  0
LINE
  5
EC6A
  8
0
 10
3986.4124380780622232
 20
124.7894113400024025
 30
0.0
 11
3986.3935469757620922
 21
124.7784956873023958
 31
0.0
  0
LINE
  5
EC6B
  8
0
 10
3986.4124401079620839
 20
124.7303566100024028
 30
0.0
 11
3986.393548969161202
 21
124.719440905302406
 31
0.0
  0
LINE
  5
EC6C
  8
0
 10
3986.4124422349609631
 20
124.6713019274023964
 30
0.0
 11
3986.3922453497621063
 21
124.6596316720467996
 31
0.0
  0
LINE
  5
EC6D
  8
0
 10
3987.1988240119621878
 20
124.8806312755023953
 30
0.0
 11
3987.2177151651608256
 21
124.8915469608024011
 31
0.0
  0
LINE
  5
EC6E
  8
0
 10
3987.198817554462039
 20
124.8215748751023995
 30
0.0
 11
3987.2177085505609284
 21
124.8324906469024
 31
0.0
  0
LINE
  5
EC6F
  8
0
 10
3987.1987900827111844
 20
124.7625007654715006
 30
0.0
 11
3987.2177677700319691
 21
124.7734665013419004
 31
0.0
  0
ARC
  5
EC70
  8
0
 10
3987.1995405427142032
 20
124.7612019930566021
 30
0.0
 40
0.0015
 50
120.0202910534724055
 51
239.9798016983787932
  0
LINE
  5
EC71
  8
0
 10
3987.1987884608001877
 20
124.703445673731693
 30
0.0
 11
3987.2177677675749692
 21
124.7144123166296055
 31
0.0
  0
ARC
  5
EC72
  8
0
 10
3987.1995389193280062
 20
124.7021469004650953
 30
0.0
 40
0.0015
 50
120.0202260311607034
 51
239.9796940768326863
  0
ARC
  5
EC73
  8
0
 10
3987.2165170033608774
 20
124.7165769387406016
 30
0.0
 40
0.0025
 50
300.0202260311606892
 51
0.0
  0
LINE
  5
EC74
  8
0
 10
3987.9473634600622063
 20
132.8320698529024071
 30
0.0
 11
3985.6638988930608321
 21
132.8320698529024071
 31
0.0
  0
LINE
  5
EC75
  8
0
 10
3987.9867335387612002
 20
133.2848257584024054
 30
0.0
 11
3985.6245288143609287
 21
133.2848257584024054
 31
0.0
  0
ARC
  5
EC76
  8
0
 10
3987.9473634600622063
 20
132.8714399316023957
 30
0.0
 40
0.0393700787
 50
270.0
 51
0.0
  0
ARC
  5
EC77
  8
0
 10
3985.6638988930608321
 20
132.8714399316023957
 30
0.0
 40
0.0393700787
 50
180.0
 51
270.0
  0
ARC
  5
EC78
  8
0
 10
3986.4116289726161995
 20
124.9088411611004972
 30
0.0
 40
0.0015486373354929
 50
301.5221133226208963
 51
58.235448891545019
  0
ARC
  5
EC79
  8
0
 10
3986.3960481157218965
 20
124.8935890068860033
 30
0.0
 40
0.0039180922807798
 50
129.659781330393912
 51
166.0640822056220998
  0
ARC
  5
EC7A
  8
0
 10
3986.3953808811102135
 20
124.8646178697609059
 30
0.0
 40
0.0031792592018028
 50
189.5137728447085976
 51
234.9034866503934893
  0
ARC
  5
EC7B
  8
0
 10
3986.411676491722119
 20
124.8497851886375969
 30
0.0
 40
0.001523181301907
 50
300.002201714654916
 51
59.7480344397151626
  0
ARC
  5
EC7C
  8
0
 10
3986.395123382105794
 20
124.8351154420969067
 30
0.0
 40
0.0029007179415079
 50
122.9187956738942944
 51
172.8295992111742976
  0
ARC
  5
EC7D
  8
0
 10
3986.3945673508092113
 20
124.8050505401352979
 30
0.0
 40
0.0023220389685897
 50
180.3274491421084065
 51
243.9483776829326871
  0
ARC
  5
EC7E
  8
0
 10
3986.4115559135479998
 20
124.7907302456372065
 30
0.0
 40
0.0015867344778827
 50
303.77701966073829
 51
56.1950643625248816
  0
ARC
  5
EC7F
  8
0
 10
3986.3949690998251754
 20
124.776157637967998
 30
0.0
 40
0.0027365875722484
 50
121.3101575484893999
 51
174.4480792279763932
  0
ARC
  5
EC80
  8
0
 10
3986.3944750338328049
 20
124.7459379357231057
 30
0.0
 40
0.0022301225279606
 50
178.8638286026670983
 51
245.5971936095068031
  0
ARC
  5
EC81
  8
0
 10
3986.411828804903962
 20
124.7316750121164972
 30
0.0
 40
0.001453229356403
 50
294.8757240064084044
 51
64.9272297610401949
  0
ARC
  5
EC82
  8
0
 10
3986.3950969972302119
 20
124.7170211283468007
 30
0.0
 40
0.0028725792271965
 50
122.6086729614397939
 51
173.0790047957233071
  0
ARC
  5
EC83
  8
0
 10
3986.3949590074098523
 20
124.6871862695735018
 30
0.0
 40
0.0027260120968545
 50
185.4569449812559867
 51
238.9334127571540876
  0
ARC
  5
EC84
  8
0
 10
3986.4119616998168567
 20
124.6726189316448057
 30
0.0
 40
0.0014019323090446
 50
290.0455016327085787
 51
69.9107396616008856
  0
LINE
  5
EC85
  8
0
 10
3986.3922453497621063
 20
124.6596316720467996
 30
0.0
 11
3986.3922453497621063
 21
124.658841506502398
 31
0.0
  0
ARC
  5
EC86
  8
0
 10
3987.2170470044598005
 20
124.8934118384738952
 30
0.0
 40
0.0019809612445694
 50
289.7119221154163142
 51
6.0304791716212911
  0
ARC
  5
EC87
  8
0
 10
3987.1995905146882251
 20
124.8793114716930006
 30
0.0
 40
0.001526239995431
 50
120.1467431816940064
 51
239.5230855762910096
  0
ARC
  5
EC88
  8
0
 10
3987.2160524307550986
 20
124.8645850744718047
 30
0.0
 40
0.0029941753840884
 50
8.0635021586266475
 51
56.4471727268331875
  0
ARC
  5
EC89
  8
0
 10
3987.2165396230720944
 20
124.8346778347168993
 30
0.0
 40
0.0024799560503145
 50
298.1219690656362218
 51
357.388403946165397
  0
ARC
  5
EC8A
  8
0
 10
3987.1993828297158871
 20
124.8202575282564055
 30
0.0
 40
0.0014335057815276
 50
113.2242344191190995
 51
246.726474203067113
  0
LINE
  5
EC8B
  8
0
 10
3986.3935474811619315
 20
124.896605341402406
 30
0.0
 11
3987.219017003360932
 21
124.9186840261023974
 31
0.0
  0
LINE
  5
EC8C
  8
0
 10
3987.2177151651608256
 20
124.8915469608024011
 30
0.0
 11
3986.3935529486611813
 21
124.8620166485024043
 31
0.0
  0
LINE
  5
EC8D
  8
0
 10
3986.3935469873617876
 20
124.8375504255023998
 30
0.0
 11
3987.2177073282609854
 21
124.8670803501023983
 31
0.0
  0
LINE
  5
EC8E
  8
0
 10
3987.2177085505609284
 20
124.8324906469024
 30
0.0
 11
3986.3935475559610495
 21
124.8029644233023987
 31
0.0
  0
LINE
  5
EC8F
  8
0
 10
3986.3935469757620922
 20
124.7784956873023958
 30
0.0
 11
3987.2177677840331853
 21
124.8079899797954937
 31
0.0
  0
LINE
  5
EC90
  8
0
 10
3987.2177677700319691
 20
124.7734665013419004
 30
0.0
 11
3986.3935536608619259
 21
124.7439070447023965
 31
0.0
  0
LINE
  5
EC91
  8
0
 10
3986.393548969161202
 20
124.719440905302406
 30
0.0
 11
3987.2177677665267765
 21
124.7489375277747996
 31
0.0
  0
LINE
  5
EC92
  8
0
 10
3987.2177677675749692
 20
124.7144123166296055
 30
0.0
 11
3986.3935522927608872
 21
124.6848512544024032
 31
0.0
  0
LINE
  5
EC93
  8
0
 10
3987.2177677705931274
 20
124.6898814472562975
 30
0.0
 11
3986.3922453497621063
 21
124.658841506502398
 31
0.0
  0
LINE
  5
EC94
  8
0
 10
3987.2182847703138577
 20
124.6581092734552954
 30
0.0
 11
3986.4316154285620541
 21
124.6194714277023934
 31
0.0
  0
ENDSEC
  0
EOF
