  0
SECTION
  2
HEADER
  9
$ACADVER
  1
AC1009
  9
$INSBASE
 10
4699.0728971090320556
 20
328.6235249568139807
 30
0.0
  9
$EXTMIN
 10
4689.5265247469451424
 20
321.1430142602029036
 30
-0.0000000000112498
  9
$EXTMAX
 10
4708.827041506149726
 20
336.098240881840411
 30
0.0000000000002956
  9
$LIMMIN
 10
0.0
 20
0.0
  9
$LIMMAX
 10
11.6929133858000007
 20
8.2677165353999982
  9
$ORTHOMODE
 70
     0
  9
$REGENMODE
 70
     1
  9
$FILLMODE
 70
     1
  9
$QTEXTMODE
 70
     0
  9
$MIRRTEXT
 70
     0
  9
$DRAGMODE
 70
     2
  9
$LTSCALE
 40
0.6431102362
  9
$OSMODE
 70
  4095
  9
$ATTMODE
 70
     1
  9
$TEXTSIZE
 40
0.2
  9
$TRACEWID
 40
0.05
  9
$TEXTSTYLE
  7
STANDARD
  9
$CLAYER
  8
0
  9
$CELTYPE
  6
BYLAYER
  9
$CECOLOR
 62
   256
  9
$DIMSCALE
 40
1.0
  9
$DIMASZ
 40
0.1875
  9
$DIMEXO
 40
0.0625
  9
$DIMDLI
 40
0.4443307087
  9
$DIMRND
 40
0.0
  9
$DIMDLE
 40
0.0
  9
$DIMEXE
 40
0.125
  9
$DIMTP
 40
0.01
  9
$DIMTM
 40
0.01
  9
$DIMTXT
 40
2.0
  9
$DIMCEN
 40
0.1052362205
  9
$DIMTSZ
 40
0.0
  9
$DIMTOL
 70
     1
  9
$DIMLIM
 70
     0
  9
$DIMTIH
 70
     1
  9
$DIMTOH
 70
     1
  9
$DIMSE1
 70
     0
  9
$DIMSE2
 70
     0
  9
$DIMTAD
 70
     0
  9
$DIMZIN
 70
     0
  9
$DIMBLK
  1

  9
$DIMASO
 70
     1
  9
$DIMSHO
 70
     1
  9
$DIMPOST
  1
\X
  9
$DIMAPOST
  1

  9
$DIMALT
 70
     1
  9
$DIMALTD
 70
     2
  9
$DIMALTF
 40
25.3999999999999986
  9
$DIMLFAC
 40
1.0
  9
$DIMTOFL
 70
     0
  9
$DIMTVP
 40
0.0
  9
$DIMTIX
 70
     0
  9
$DIMSOXD
 70
     0
  9
$DIMSAH
 70
     0
  9
$DIMBLK1
  1

  9
$DIMBLK2
  1

  9
$DIMSTYLE
  2
STANDARD
  9
$DIMCLRD
 70
     0
  9
$DIMCLRE
 70
     0
  9
$DIMCLRT
 70
     0
  9
$DIMTFAC
 40
1.0
  9
$DIMGAP
 40
0.09
  9
$LUNITS
 70
     2
  9
$LUPREC
 70
     4
  9
$SKETCHINC
 40
0.1
  9
$FILLETRAD
 40
0.0
  9
$AUNITS
 70
     0
  9
$AUPREC
 70
     0
  9
$MENU
  1
.
  9
$ELEVATION
 40
0.0
  9
$PELEVATION
 40
0.0
  9
$THICKNESS
 40
0.0
  9
$LIMCHECK
 70
     0
  9
$BLIPMODE
 70
     0
  9
$CHAMFERA
 40
0.0
  9
$CHAMFERB
 40
0.0
  9
$SKPOLY
 70
     0
  9
$TDCREATE
 40
2458060.468368056230247
  9
$TDUPDATE
 40
2459415.78125
  9
$TDINDWG
 40
0.5760140046
  9
$TDUSRTIMER
 40
0.5760140046
  9
$USRTIMER
 70
     1
  9
$ANGBASE
 50
0.0
  9
$ANGDIR
 70
     0
  9
$PDMODE
 70
     0
  9
$PDSIZE
 40
0.3125
  9
$PLINEWID
 40
0.0
  9
$COORDS
 70
     1
  9
$SPLFRAME
 70
     0
  9
$SPLINETYPE
 70
     6
  9
$SPLINESEGS
 70
     8
  9
$ATTDIA
 70
     1
  9
$ATTREQ
 70
     1
  9
$HANDLING
 70
     1
  9
$HANDSEED
  5
219A7
  9
$SURFTAB1
 70
     6
  9
$SURFTAB2
 70
     6
  9
$SURFTYPE
 70
     6
  9
$SURFU
 70
     6
  9
$SURFV
 70
     6
  9
$UCSNAME
  2

  9
$UCSORG
 10
0.0
 20
0.0
 30
0.0
  9
$UCSXDIR
 10
1.0
 20
0.0
 30
0.0
  9
$UCSYDIR
 10
0.0
 20
1.0
 30
0.0
  9
$PUCSNAME
  2

  9
$PUCSORG
 10
0.0
 20
0.0
 30
0.0
  9
$PUCSXDIR
 10
1.0
 20
0.0
 30
0.0
  9
$PUCSYDIR
 10
0.0
 20
1.0
 30
0.0
  9
$USERI1
 70
     0
  9
$USERI2
 70
     0
  9
$USERI3
 70
     0
  9
$USERI4
 70
     0
  9
$USERI5
 70
     0
  9
$USERR1
 40
0.0
  9
$USERR2
 40
0.0
  9
$USERR3
 40
0.0
  9
$USERR4
 40
0.0
  9
$USERR5
 40
0.0
  9
$WORLDVIEW
 70
     1
  9
$SHADEDGE
 70
     3
  9
$SHADEDIF
 70
    70
  9
$TILEMODE
 70
     1
  9
$MAXACTVP
 70
    64
  9
$PLIMCHECK
 70
     0
  9
$PEXTMIN
 10
1.0000000000000000E+20
 20
1.0000000000000000E+20
 30
1.0000000000000000E+20
  9
$PEXTMAX
 10
-1.0000000000000000E+20
 20
-1.0000000000000000E+20
 30
-1.0000000000000000E+20
  9
$PLIMMIN
 10
0.0
 20
0.0
  9
$PLIMMAX
 10
12.0
 20
9.0
  9
$UNITMODE
 70
     0
  9
$VISRETAIN
 70
     1
  9
$PLINEGEN
 70
     0
  9
$PSLTSCALE
 70
     1
  0
ENDSEC
  0
SECTION
  2
TABLES
  0
TABLE
  2
VPORT
 70
     1
  0
VPORT
  2
*ACTIVE
 70
     0
 10
0.0
 20
0.0
 11
1.0
 21
1.0
 12
788.2899588403731741
 22
195.3683115637834931
 13
0.0
 23
0.0
 14
1.0
 24
1.0
 15
0.0
 25
0.0
 16
0.0
 26
0.0
 36
60.4960186965801583
 17
3911.3653564453120453
 27
132.5796051025390057
 37
0.0
 40
24.0965364093094188
 41
1.67063492063492
 42
50.0
 43
0.0
 44
0.0
 50
0.0
 51
0.0
 71
     0
 72
   100
 73
     1
 74
     1
 75
     0
 76
     0
 77
     0
 78
     0
  0
ENDTAB
  0
TABLE
  2
LTYPE
 70
     2
  0
LTYPE
  2
CONTINUOUS
 70
     0
  3
Solid line
 72
    65
 73
     0
 40
0.0
  0
LTYPE
  2
PHANTOM2
 70
     0
  3
___ _ _ ___ _ _ ___ _ _ ___ _ _
 72
    65
 73
     6
 40
1.25
 49
0.625
 49
-0.125
 49
0.125
 49
-0.125
 49
0.125
 49
-0.125
  0
ENDTAB
  0
TABLE
  2
LAYER
 70
     2
  0
LAYER
  2
0
 70
     0
 62
   255
  6
CONTINUOUS
  0
LAYER
  2
DEFPOINTS
 70
     0
 62
     7
  6
CONTINUOUS
  0
ENDTAB
  0
TABLE
  2
STYLE
 70
     1
  0
STYLE
  2
STANDARD
 70
     0
 40
0.0
 41
0.8
 50
0.0
 71
     0
 42
0.2
  3
txt
  4

  0
ENDTAB
  0
TABLE
  2
VIEW
 70
     0
  0
ENDTAB
  0
TABLE
  2
UCS
 70
     0
  0
ENDTAB
  0
TABLE
  2
APPID
 70
    11
  0
APPID
  2
ACAD
 70
     0
  0
APPID
  2
ACAD_MLEADERVER
 70
     0
  0
APPID
  2
ACAD_EXEMPT_FROM_CAD_STANDARDS
 70
     0
  0
APPID
  2
ACAD_NAV_VCDISPLAY
 70
     0
  0
APPID
  2
ACAECLAYERSTANDARD
 70
     0
  0
APPID
  2
ACCMTRANSPARENCY
 70
     0
  0
APPID
  2
ACAD_DSTYLE_DIMJAG
 70
     0
  0
APPID
  2
ACAD_DSTYLE_DIMTALN
 70
     0
  0
APPID
  2
ACDBATTR
 70
     0
  0
APPID
  2
ACADANNOTATIVE
 70
     0
  0
APPID
  2
DCO15
 70
     0
  0
ENDTAB
  0
TABLE
  2
DIMSTYLE
 70
     1
  0
DIMSTYLE
  2
STANDARD
 70
     0
  3

  4

  5

  6

  7

 40
1.0
 41
0.1875
 42
0.0625
 43
0.38
 44
0.125
 45
0.0
 46
0.0
 47
0.01
 48
0.01
140
0.15625
141
0.09
142
0.0
143
25.3999999999999986
144
1.0
145
0.0
146
1.0
147
0.09
 71
     1
 72
     0
 73
     1
 74
     1
 75
     0
 76
     0
 77
     0
 78
     4
170
     0
171
     2
172
     0
173
     0
174
     0
175
     0
176
     0
177
     0
178
     0
  0
ENDTAB
  0
ENDSEC
  0
SECTION
  2
BLOCKS
  0
BLOCK
  8
0
  2
$MODEL_SPACE
 70
     0
 10
0.0
 20
0.0
 30
0.0
  3
$MODEL_SPACE
  1

  0
ENDBLK
  5
21
  8
0
  0
BLOCK
 67
     1
  8
0
  2
$PAPER_SPACE
 70
     0
 10
0.0
 20
0.0
 30
0.0
  3
$PAPER_SPACE
  1

  0
ENDBLK
  5
1D
 67
     1
  8
0
  0
ENDSEC
  0
SECTION
  2
ENTITIES
  0
ATTDEF
  5
20106
  8
DEFPOINTS
 10
4699.0684940302853647
 20
328.6288814266932832
 30
0.0
 40
0.001
  1
K-2217X
  3

  2
MODELNUMBER
 70
     0
1001
ACDBATTR
1070
     0
1070
     1
  0
ATTDEF
  5
20107
  8
DEFPOINTS
 10
4699.0683682206281446
 20
328.6272145863140963
 30
0.0
 40
0.001
  1
LINIA
  3

  2
TRADENAME
 70
     0
1001
ACDBATTR
1070
     0
1070
     1
  0
ATTDEF
  5
20108
  8
DEFPOINTS
 10
4699.0684940302853647
 20
328.6255480933600097
 30
0.0
 40
0.001
  1
BATHROOM SINK
  3

  2
PRODUCT
 70
     0
1001
ACDBATTR
1070
     0
1070
     1
  0
CIRCLE
  5
2181A
  8
0
 10
4699.0728971157641354
 20
328.6235249568139807
 30
0.0
 40
1.392404829621491
  0
ARC
  5
2181B
  8
0
 10
4695.6395248566523151
 20
328.6100484603869063
 30
0.0
 40
6.0363858941701336
 50
156.2359976245986104
 51
179.8720845514411906
  0
ARC
  5
2181C
  8
0
 10
4696.7796105780344078
 20
328.1080661343775091
 30
0.0
 40
7.2820911994993809
 50
125.744362828075694
 51
156.2359976245986104
  0
ARC
  5
2181D
  8
0
 10
4699.2016448925360237
 20
324.3194701284238022
 30
0.0
 40
11.7745133206722894
 50
90.6265101086759017
 51
124.5404818808899989
  0
ARC
  5
2181E
  8
0
 10
4699.0719178503031799
 20
334.5102760567124847
 30
0.0
 40
0.3605582299136524
 50
89.8443872400972197
 51
141.8030015860288131
  0
ARC
  5
2181F
  8
0
 10
4698.6998649490569733
 20
334.8113761978150933
 30
0.0
 40
0.1182193009206429
 50
225.2846175314330139
 51
318.612637786158416
  0
ARC
  5
21820
  8
0
 10
4698.3491114966436726
 20
334.4845837596291176
 30
0.0
 40
0.3613049794003853
 50
42.218959470918719
 51
145.6781631868961995
  0
ARC
  5
21821
  8
0
 10
4697.9566830025642048
 20
334.7601631712543053
 30
0.0
 40
0.1183475209098069
 50
229.2968156685529948
 51
322.6125051263787782
  0
ARC
  5
21822
  8
0
 10
4697.6298657377838026
 20
334.4120913135366777
 30
0.0
 40
0.3592566478895098
 50
45.9828347281392666
 51
149.860762599684108
  0
ARC
  5
21823
  8
0
 10
4697.2202622184568099
 20
334.657829897517388
 30
0.0
 40
0.118556018939542
 50
233.412294502992296
 51
326.5467816592729946
  0
ARC
  5
21824
  8
0
 10
4696.9188651405129349
 20
334.2872550952802726
 30
0.0
 40
0.3592653414976143
 50
50.0415944531835919
 51
154.0249300699645971
  0
ARC
  5
21825
  8
0
 10
4696.4923472293148734
 20
334.5028210590115805
 30
0.0
 40
0.118786820959855
 50
237.6181002608956874
 51
330.6542300201393232
  0
ARC
  5
21826
  8
0
 10
4696.2182946383054514
 20
334.1123761544478725
 30
0.0
 40
0.3584106904325329
 50
54.0461063263167603
 51
158.4945121683242064
  0
ARC
  5
21827
  8
0
 10
4695.7771128820177182
 20
334.2941754513616957
 30
0.0
 40
0.118933996487257
 50
241.8962521930671983
 51
334.9225182337223146
  0
ARC
  5
21828
  8
0
 10
4695.5327908426861541
 20
333.8855030122211929
 30
0.0
 40
0.3573880419854322
 50
58.2060075107733326
 51
163.2576214112596062
  0
ARC
  5
21829
  8
0
 10
4695.0791636810463388
 20
334.0299527635892218
 30
0.0
 40
0.118867663553471
 50
246.3279204939883016
 51
339.5673767289616194
  0
ARC
  5
2182A
  8
0
 10
4694.8668256669388938
 20
333.6053297475780255
 30
0.0
 40
0.3560895860211076
 50
62.4657840077285726
 51
168.436722827551506
  0
ARC
  5
2182B
  8
0
 10
4694.4034255296101037
 20
333.7083115413420273
 30
0.0
 40
0.1188178866278254
 50
251.1949593572292088
 51
344.5745863412889207
  0
ARC
  5
2182C
  8
0
 10
4694.2256800801997088
 20
333.2691385533531729
 30
0.0
 40
0.3552126901150484
 50
66.8857069275415199
 51
173.704830918195313
  0
ARC
  5
2182D
  8
0
 10
4693.7550537027027531
 20
333.3300971163342865
 30
0.0
 40
0.1195981460734677
 50
256.7428001412062031
 51
349.3955784885109779
  0
ARC
  5
2182E
  8
0
 10
4693.6179200309297812
 20
332.8754917380363736
 30
0.0
 40
0.3555434530718165
 50
72.0274252424379711
 51
179.330034629481986
  0
ARC
  5
2182F
  8
0
 10
4693.1426121517943102
 20
332.8909414957429931
 30
0.0
 40
0.1203198226897091
 50
262.8116121842599
 51
354.6146597306902777
  0
ARC
  5
21830
  8
0
 10
4693.0512873756006229
 20
332.4233926542049176
 30
0.0
 40
0.3564303329204622
 50
77.6443177501415249
 51
185.4216383253734932
  0
ARC
  5
21831
  8
0
 10
4692.5753914905717465
 20
332.3891781810257839
 30
0.0
 40
0.1210612885311093
 50
269.3756441310674745
 51
0.2543438912638964
  0
ARC
  5
21832
  8
0
 10
4692.535932070495619
 20
331.9123796380733893
 30
0.0
 40
0.3577831543053469
 50
83.8805543133813529
 51
192.0367239067817877
  0
ARC
  5
21833
  8
0
 10
4692.0650701204649522
 20
331.8238990703370064
 30
0.0
 40
0.1217375593015164
 50
276.5299837103005984
 51
6.5416340891034199
  0
ARC
  5
21834
  8
0
 10
4692.083930004897411
 20
331.3433536970518958
 30
0.0
 40
0.3596325642983612
 50
90.7990840174769147
 51
199.2244136301106039
  0
ARC
  5
21835
  8
0
 10
4691.6253599078836487
 20
331.196384625245912
 30
0.0
 40
0.1223698838373
 50
284.3736143118210862
 51
13.4935139373135495
  0
ARC
  5
21836
  8
0
 10
4691.7092859619788214
 20
330.7201187162704059
 30
0.0
 40
0.3617121617798836
 50
98.5134579197444538
 51
207.1155373509432991
  0
ARC
  5
21837
  8
0
 10
4691.2728721151870559
 20
330.5107327117983118
 30
0.0
 40
0.1228121874356424
 50
292.8920876753991251
 51
21.2553809588785789
  0
ARC
  5
21838
  8
0
 10
4691.4269325861632751
 20
330.0497977893228949
 30
0.0
 40
0.3636738126061426
 50
106.9932453102771035
 51
215.6740708181422121
  0
ARC
  5
21839
  8
0
 10
4691.0246047164100673
 20
329.7765529062893961
 30
0.0
 40
0.1231575831524251
 50
302.0114476423705128
 51
29.7752284530555897
  0
ARC
  5
2183A
  8
0
 10
4691.2495742953651643
 20
329.3453314471616977
 30
0.0
 40
0.3637192129229975
 50
116.0422690413405036
 51
224.8269542527378917
  0
ARC
  5
2183B
  8
0
 10
4690.9028408855647285
 20
329.0108467996140007
 30
0.0
 40
0.1182185013999975
 50
309.0992836853210974
 51
41.3321701513408684
  0
ARC
  5
2183C
  8
0
 10
4691.1888740478489126
 20
328.6237922043669073
 30
0.0
 40
0.3632227724363321
 50
125.6070699854097938
 51
180.0437835003411067
  0
LINE
  5
2183D
  8
0
 10
4698.703884808710427
 20
334.693225261134387
 30
0.0
 11
4698.9984294685982604
 21
330.0139370464760873
 31
0.0
  0
LINE
  5
2183E
  8
0
 10
4697.9689605448320435
 20
334.6424542180631079
 30
0.0
 11
4698.8504955904436429
 21
329.9980535200269856
 31
0.0
  0
LINE
  5
2183F
  8
0
 10
4697.2408075573630413
 20
334.5410676661409184
 30
0.0
 11
4698.7053087230760866
 21
329.9665327688217076
 31
0.0
  0
LINE
  5
21840
  8
0
 10
4696.5213666628651481
 20
334.3873844502365955
 30
0.0
 11
4698.564836724174711
 21
329.9199299275117028
 31
0.0
  0
LINE
  5
21841
  8
0
 10
4695.8146727687126258
 20
334.181327986029487
 30
0.0
 11
4698.4301558307370215
 21
329.8587070689226834
 31
0.0
  0
LINE
  5
21842
  8
0
 10
4695.1255089820797366
 20
333.9204921107922246
 30
0.0
 11
4698.3039374364452669
 21
329.7843402828386843
 31
0.0
  0
LINE
  5
21843
  8
0
 10
4694.4589960521516332
 20
333.6032896045521738
 30
0.0
 11
4698.1864156186311448
 21
329.697276215156819
 31
0.0
  0
LINE
  5
21844
  8
0
 10
4693.8206366549866289
 20
333.2293727330678053
 30
0.0
 11
4698.0791508764550599
 21
329.5988503493936719
 31
0.0
  0
LINE
  5
21845
  8
0
 10
4693.2183828310880926
 20
332.7963066155074898
 30
0.0
 11
4697.9815662465316564
 21
329.4882724016860038
 31
0.0
  0
LINE
  5
21846
  8
0
 10
4692.6615672765256022
 20
332.3024073423501932
 30
0.0
 11
4697.8991432016982799
 21
329.3725863419927009
 31
0.0
  0
LINE
  5
21847
  8
0
 10
4692.161545407738231
 20
331.7472061046805152
 30
0.0
 11
4697.8280765845465794
 21
329.2473943779365868
 31
0.0
  0
LINE
  5
21848
  8
0
 10
4691.7301782211798127
 20
331.1332378939939076
 30
0.0
 11
4697.7703504878218155
 21
329.1156260557621067
 31
0.0
  0
LINE
  5
21849
  8
0
 10
4691.3877295404026881
 20
330.4621094349329837
 30
0.0
 11
4697.7265904668201983
 21
328.9788411773258758
 31
0.0
  0
LINE
  5
2184A
  8
0
 10
4691.1440483204287375
 20
329.7465359819489095
 30
0.0
 11
4697.697124697732761
 21
328.8380977028400025
 31
0.0
  0
LINE
  5
2184B
  8
0
 10
4691.0206459520459248
 20
329.0009685211999226
 30
0.0
 11
4697.6823440732086965
 21
328.6953124584343868
 31
0.0
  0
ARC
  5
2184C
  8
0
 10
4702.5062696775867153
 20
328.6100485578970165
 30
0.0
 40
6.0363855778322062
 50
0.1279145297200582
 51
23.7640026861852789
  0
ARC
  5
2184D
  8
0
 10
4701.3661836534956819
 20
328.1080661343775091
 30
0.0
 40
7.2820911994993809
 50
23.7640023754013789
 51
54.2556371719242421
  0
ARC
  5
2184E
  8
0
 10
4699.076492345954648
 20
324.7370854820031809
 30
0.0
 40
11.3561946222948098
 50
54.8148689117596817
 51
90.0181391665414736
  0
ARC
  5
2184F
  8
0
 10
4699.073876381111404
 20
334.5102760565678182
 30
0.0
 40
0.3605582300946128
 50
38.1969984206146904
 51
90.1556148809524132
  0
ARC
  5
21850
  8
0
 10
4699.4459292824731165
 20
334.8113761978150933
 30
0.0
 40
0.1182193009206429
 50
221.3873622138416124
 51
314.7153824685669861
  0
ARC
  5
21851
  8
0
 10
4699.7966827348873267
 20
334.4845837596291176
 30
0.0
 40
0.3613049794003853
 50
34.3218368131038005
 51
137.7810405290813094
  0
ARC
  5
21852
  8
0
 10
4700.1891112289658849
 20
334.7601631712543053
 30
0.0
 40
0.1183475209098069
 50
217.3874948736211081
 51
310.7031843314468915
  0
ARC
  5
21853
  8
0
 10
4700.5159284937462871
 20
334.4120913135366777
 30
0.0
 40
0.3592566478895098
 50
30.1392374003158885
 51
134.0171652718607049
  0
ARC
  5
21854
  8
0
 10
4700.9255320130723703
 20
334.657829897517388
 30
0.0
 40
0.118556018939542
 50
213.4532183407268917
 51
306.5877054970076188
  0
ARC
  5
21855
  8
0
 10
4701.2269290910180644
 20
334.2872550952802726
 30
0.0
 40
0.3592653414976143
 50
25.9750699300354206
 51
129.9584055468164081
  0
ARC
  5
21856
  8
0
 10
4701.6534470022143068
 20
334.5028210590115805
 30
0.0
 40
0.118786820959855
 50
209.3457699798605915
 51
302.3818997391041989
  0
ARC
  5
21857
  8
0
 10
4701.9274995932246384
 20
334.1123761544478725
 30
0.0
 40
0.3584106904325329
 50
21.5054878316757616
 51
125.9538936736831971
  0
ARC
  5
21858
  8
0
 10
4702.3686813495123715
 20
334.2941754513616957
 30
0.0
 40
0.118933996487257
 50
205.0774817662777991
 51
298.1037478069329154
  0
ARC
  5
21859
  8
0
 10
4702.6130033888448452
 20
333.8855030122211929
 30
0.0
 40
0.3573880419854322
 50
16.7423785887404115
 51
121.7939924892266959
  0
ARC
  5
2185A
  8
0
 10
4703.0666305504828415
 20
334.0299527635892218
 30
0.0
 40
0.118867663553471
 50
200.4326232710384943
 51
293.6720795060116984
  0
ARC
  5
2185B
  8
0
 10
4703.2789685645921054
 20
333.6053297475780255
 30
0.0
 40
0.3560895860211076
 50
11.5632771724484904
 51
117.5342159922713989
  0
ARC
  5
2185C
  8
0
 10
4703.7423687019199861
 20
333.7083115413420273
 30
0.0
 40
0.1188178866278254
 50
195.4254136587111077
 51
288.8050406427709049
  0
ARC
  5
2185D
  8
0
 10
4703.9201141513322
 20
333.2691385533531729
 30
0.0
 40
0.3552126901150484
 50
6.2951690818046417
 51
113.1142930724584943
  0
ARC
  5
2185E
  8
0
 10
4704.3907405288264272
 20
333.3300971163342865
 30
0.0
 40
0.1195981460734677
 50
190.6044215114889084
 51
283.2571998587936832
  0
ARC
  5
2185F
  8
0
 10
4704.5278742006003085
 20
332.8754917380363736
 30
0.0
 40
0.3555434530718165
 50
0.6699653705180186
 51
107.9725747575620005
  0
ARC
  5
21860
  8
0
 10
4705.0031820797348701
 20
332.8909414957429931
 30
0.0
 40
0.1203198226897091
 50
185.3853402693096939
 51
277.1883878157401
  0
ARC
  5
21861
  8
0
 10
4705.0945068559285573
 20
332.4233926542049176
 30
0.0
 40
0.3564303329204622
 50
354.5783616746264784
 51
102.3556822498585035
  0
ARC
  5
21862
  8
0
 10
4705.5704027409583432
 20
332.3891781810257839
 30
0.0
 40
0.1210612885311093
 50
179.7456561087361138
 51
270.6243558689325255
  0
ARC
  5
21863
  8
0
 10
4705.6098621610335613
 20
331.9123796380733893
 30
0.0
 40
0.3577831543053469
 50
347.9632760932182123
 51
96.1194456866186329
  0
ARC
  5
21864
  8
0
 10
4706.0807241110651375
 20
331.8238990703370064
 30
0.0
 40
0.1217375593015164
 50
173.458365910896589
 51
263.4700162896994016
  0
ARC
  5
21865
  8
0
 10
4706.0618642266326788
 20
331.3433536970518958
 30
0.0
 40
0.3596325642983612
 50
340.7755863698894245
 51
89.2009159825231137
  0
ARC
  5
21866
  8
0
 10
4706.5204343236473505
 20
331.196384625245912
 30
0.0
 40
0.1223698838373
 50
166.5064860626864061
 51
255.6263856881789138
  0
ARC
  5
21867
  8
0
 10
4706.4365082695503588
 20
330.7201187162704059
 30
0.0
 40
0.3617121617798836
 50
332.8844626490566725
 51
81.4865420802555747
  0
ARC
  5
21868
  8
0
 10
4706.8729221163430338
 20
330.5107327117983118
 30
0.0
 40
0.1228121874356424
 50
158.7446190411214104
 51
247.1079123246009033
  0
ARC
  5
21869
  8
0
 10
4706.7188616453668146
 20
330.0497977893228949
 30
0.0
 40
0.3636738126061426
 50
324.3259291818578731
 51
73.0067546897228254
  0
ARC
  5
2186A
  8
0
 10
4707.1211895151191129
 20
329.7765529062893961
 30
0.0
 40
0.1231575831524251
 50
150.2247715469443961
 51
237.9885523576294872
  0
ARC
  5
2186B
  8
0
 10
4706.8962199361649255
 20
329.3453314471616977
 30
0.0
 40
0.3637192129229975
 50
315.1730457472621083
 51
63.957730958659532
  0
ARC
  5
2186C
  8
0
 10
4707.2429533459653612
 20
329.0108467996140007
 30
0.0
 40
0.1182185013999975
 50
138.6678298486590961
 51
230.9007163146789878
  0
ARC
  5
2186D
  8
0
 10
4706.9569201836811771
 20
328.6237922043669073
 30
0.0
 40
0.3632227724363321
 50
359.9562164996588081
 51
54.3929300145902204
  0
LINE
  5
2186E
  8
0
 10
4699.4419094228187532
 20
334.693225261134387
 30
0.0
 11
4699.1473647629327388
 21
330.0139370464760873
 31
0.0
  0
LINE
  5
2186F
  8
0
 10
4700.1768336866980462
 20
334.6424542180631079
 30
0.0
 11
4699.2952986410846279
 21
329.9980535200269856
 31
0.0
  0
LINE
  5
21870
  8
0
 10
4700.904986674166139
 20
334.5410676661409184
 30
0.0
 11
4699.4404855084530936
 21
329.9665327688217076
 31
0.0
  0
LINE
  5
21871
  8
0
 10
4701.6244275686649416
 20
334.3873844502365955
 30
0.0
 11
4699.5809575073571978
 21
329.9199299275117028
 31
0.0
  0
LINE
  5
21872
  8
0
 10
4702.3311214628165544
 20
334.181327986029487
 30
0.0
 11
4699.7156384007939778
 21
329.8587070689226834
 31
0.0
  0
LINE
  5
21873
  8
0
 10
4703.0202852494503531
 20
333.9204921107922246
 30
0.0
 11
4699.8418567950839133
 21
329.7843402828386843
 31
0.0
  0
LINE
  5
21874
  8
0
 10
4703.6867981793775471
 20
333.6032896045521738
 30
0.0
 11
4699.959378612898945
 21
329.697276215156819
 31
0.0
  0
LINE
  5
21875
  8
0
 10
4704.3251575765443704
 20
333.2293727330678053
 30
0.0
 11
4700.0666433550741203
 21
329.5988503493936719
 31
0.0
  0
LINE
  5
21876
  8
0
 10
4704.9274114004429066
 20
332.7963066155074898
 30
0.0
 11
4700.1642279849966144
 21
329.4882724016860038
 31
0.0
  0
LINE
  5
21877
  8
0
 10
4705.4842269550026685
 20
332.3024073423501932
 30
0.0
 11
4700.2466510298309004
 21
329.3725863419927009
 31
0.0
  0
LINE
  5
21878
  8
0
 10
4705.9842488237909492
 20
331.7472061046805152
 30
0.0
 11
4700.3177176469816914
 21
329.2473943779365868
 31
0.0
  0
LINE
  5
21879
  8
0
 10
4706.4156160103493676
 20
331.1332378939939076
 30
0.0
 11
4700.3754437437091838
 21
329.1156260557621067
 31
0.0
  0
LINE
  5
2187A
  8
0
 10
4706.7580646911255826
 20
330.4621094349329837
 30
0.0
 11
4700.4192037647108009
 21
328.9788411773258758
 31
0.0
  0
LINE
  5
2187B
  8
0
 10
4707.0017459111004428
 20
329.7465359819489095
 30
0.0
 11
4700.4486695337973288
 21
328.8380977028400025
 31
0.0
  0
LINE
  5
2187C
  8
0
 10
4707.1251482794832555
 20
329.0009685211999226
 30
0.0
 11
4700.4634501583232122
 21
328.6953124584343868
 31
0.0
  0
CIRCLE
  5
2187D
  8
0
 10
4699.0728971157641354
 20
328.6235249568139807
 30
0.0
 40
1.392404829621491
  0
ARC
  5
2187E
  8
0
 10
4695.6395248566523151
 20
328.6370014532411119
 30
0.0
 40
6.0363858941701336
 50
180.1279154485588094
 51
203.7640023754013043
  0
ARC
  5
2187F
  8
0
 10
4696.7796105780344078
 20
329.1389837792505091
 30
0.0
 40
7.2820911994993809
 50
203.7640023754013043
 51
234.2556371719242065
  0
ARC
  5
21880
  8
0
 10
4699.2016186089058465
 20
332.9275260434267238
 30
0.0
 40
11.7744541496749306
 50
235.459475197806114
 51
269.3736146494201762
  0
ARC
  5
21881
  8
0
 10
4699.0719178503031799
 20
322.7367738569154767
 30
0.0
 40
0.3605582299136524
 50
218.1969984139711869
 51
270.1556127599027946
  0
ARC
  5
21882
  8
0
 10
4698.6998649490569733
 20
322.4356737158129249
 30
0.0
 40
0.1182193009206429
 50
41.3873622138415911
 51
134.7153824685669861
  0
ARC
  5
21883
  8
0
 10
4698.3491114966436726
 20
322.7624661539989006
 30
0.0
 40
0.3613049794003853
 50
214.3218368131038005
 51
317.7810405290788935
  0
ARC
  5
21884
  8
0
 10
4697.9566830025642048
 20
322.4868867423738266
 30
0.0
 40
0.1183475209098069
 50
37.3874948736211721
 51
130.7031843314468915
  0
ARC
  5
21885
  8
0
 10
4697.6298657377838026
 20
322.8349586000912836
 30
0.0
 40
0.3592566478895098
 50
210.139237400315892
 51
314.0171652718606765
  0
ARC
  5
21886
  8
0
 10
4697.2202622184568099
 20
322.5892200161105166
 30
0.0
 40
0.118556018939542
 50
33.4532183407269486
 51
126.5877054970076045
  0
ARC
  5
21887
  8
0
 10
4696.9188651405129349
 20
322.9597948183478024
 30
0.0
 40
0.3592653414976143
 50
205.9750699300354029
 51
309.9584055468163797
  0
ARC
  5
21888
  8
0
 10
4696.4923472293148734
 20
322.7442288546164946
 30
0.0
 40
0.118786820959855
 50
29.3457699798606484
 51
122.3818997391041989
  0
ARC
  5
21889
  8
0
 10
4696.2182946383054514
 20
323.1346737591800888
 30
0.0
 40
0.3584106904325329
 50
201.5054878316757936
 51
305.9538936736831829
  0
ARC
  5
2188A
  8
0
 10
4695.7771128820177182
 20
322.9528744622663226
 30
0.0
 40
0.118933996487257
 50
25.0774817662777814
 51
118.1037478069328017
  0
ARC
  5
2188B
  8
0
 10
4695.5327908426861541
 20
323.3615469014067116
 30
0.0
 40
0.3573880419854322
 50
196.7423785887403938
 51
301.7939924892266959
  0
ARC
  5
2188C
  8
0
 10
4695.0791636810463388
 20
323.2170971500387964
 30
0.0
 40
0.118867663553471
 50
20.432623271038441
 51
113.6720795060116984
  0
ARC
  5
2188D
  8
0
 10
4694.8668256669388938
 20
323.6417201660501064
 30
0.0
 40
0.3560895860211076
 50
191.5632771724484087
 51
297.5342159922714131
  0
ARC
  5
2188E
  8
0
 10
4694.4034255296101037
 20
323.5387383722859909
 30
0.0
 40
0.1188178866278254
 50
15.4254136587111006
 51
108.8050406427708054
  0
ARC
  5
2188F
  8
0
 10
4694.2256800801997088
 20
323.9779113602747884
 30
0.0
 40
0.3552126901150484
 50
186.2951690818046018
 51
293.1142930724583948
  0
ARC
  5
21890
  8
0
 10
4693.7550537027027531
 20
323.9169527972936748
 30
0.0
 40
0.1195981460734677
 50
10.6044215114889795
 51
103.2571998587937969
  0
ARC
  5
21891
  8
0
 10
4693.6179200309297812
 20
324.3715581755917015
 30
0.0
 40
0.3555434530718165
 50
180.669965370518014
 51
287.9725747575619721
  0
ARC
  5
21892
  8
0
 10
4693.1426121517943102
 20
324.3561084178850251
 30
0.0
 40
0.1203198226897091
 50
5.3853402693097303
 51
97.1883878157401142
  0
ARC
  5
21893
  8
0
 10
4693.0512873756006229
 20
324.8236572594231006
 30
0.0
 40
0.3564303329204622
 50
174.5783616746265068
 51
282.3556822498584893
  0
ARC
  5
21894
  8
0
 10
4692.5753914905717465
 20
324.8578717326021206
 30
0.0
 40
0.1210612885311093
 50
359.7456561087361138
 51
90.6243558689325255
  0
ARC
  5
21895
  8
0
 10
4692.535932070495619
 20
325.3346702755545721
 30
0.0
 40
0.3577831543053469
 50
167.9632760932180986
 51
276.119445686618576
  0
ARC
  5
21896
  8
0
 10
4692.0650701204649522
 20
325.4231508432910118
 30
0.0
 40
0.1217375593015164
 50
353.458365910896589
 51
83.4700162896993589
  0
ARC
  5
21897
  8
0
 10
4692.083930004897411
 20
325.9036962165761224
 30
0.0
 40
0.3596325642983612
 50
160.7755863698893961
 51
269.2009159825230995
  0
ARC
  5
21898
  8
0
 10
4691.6253599078836487
 20
326.0506652883822198
 30
0.0
 40
0.1223698838373
 50
346.5064860626865197
 51
75.6263856881788996
  0
ARC
  5
21899
  8
0
 10
4691.7092859619788214
 20
326.5269311973576123
 30
0.0
 40
0.3617121617798836
 50
152.8844626490567009
 51
261.4865420802555036
  0
ARC
  5
2189A
  8
0
 10
4691.2728721151870559
 20
326.7363172018297064
 30
0.0
 40
0.1228121874356424
 50
338.744619041121382
 51
67.1079123246008749
  0
ARC
  5
2189B
  8
0
 10
4691.4269325861632751
 20
327.1972521243051801
 30
0.0
 40
0.3636738126061426
 50
144.3259291818577879
 51
253.0067546897228112
  0
ARC
  5
2189C
  8
0
 10
4691.0246047164100673
 20
327.4704970073386221
 30
0.0
 40
0.1231575831524251
 50
330.2247715469443961
 51
57.9885523576294872
  0
ARC
  5
2189D
  8
0
 10
4691.2495742953651643
 20
327.9017184664663205
 30
0.0
 40
0.3637192129229975
 50
135.1730457472621083
 51
243.9577309586595106
  0
ARC
  5
2189E
  8
0
 10
4690.9028408855647285
 20
328.2362031140140175
 30
0.0
 40
0.1182185013999975
 50
318.6678298486592098
 51
50.9007163146789594
  0
ARC
  5
2189F
  8
0
 10
4691.1888740478489126
 20
328.6232577092611109
 30
0.0
 40
0.3632227724363321
 50
179.9562164996588081
 51
234.3929300145902062
  0
LINE
  5
218A0
  8
0
 10
4698.703884808710427
 20
322.5538246524935744
 30
0.0
 11
4698.9984294685982604
 21
327.2331128671518741
 31
0.0
  0
LINE
  5
218A1
  8
0
 10
4697.9689605448320435
 20
322.6045956955649103
 30
0.0
 11
4698.8504955904436429
 21
327.2489963936009758
 31
0.0
  0
LINE
  5
218A2
  8
0
 10
4697.2408075573630413
 20
322.7059822474870998
 30
0.0
 11
4698.7053087230760866
 21
327.2805171448063106
 31
0.0
  0
LINE
  5
218A3
  8
0
 10
4696.5213666628651481
 20
322.8596654633914227
 30
0.0
 11
4698.564836724174711
 21
327.3271199861162017
 31
0.0
  0
LINE
  5
218A4
  8
0
 10
4695.8146727687126258
 20
323.0657219275984744
 30
0.0
 11
4698.4301558307370215
 21
327.3883428447052779
 31
0.0
  0
LINE
  5
218A5
  8
0
 10
4695.1255089820797366
 20
323.3265578028357936
 30
0.0
 11
4698.3039374364452669
 21
327.4627096307892771
 31
0.0
  0
LINE
  5
218A6
  8
0
 10
4694.4589960521516332
 20
323.6437603090757875
 30
0.0
 11
4698.1864156186311448
 21
327.5497736984711992
 31
0.0
  0
LINE
  5
218A7
  8
0
 10
4693.8206366549866289
 20
324.0176771805602129
 30
0.0
 11
4698.0791508764550599
 21
327.6481995642344032
 31
0.0
  0
LINE
  5
218A8
  8
0
 10
4693.2183828310880926
 20
324.4507432981205284
 30
0.0
 11
4697.9815662465316564
 21
327.7587775119420144
 31
0.0
  0
LINE
  5
218A9
  8
0
 10
4692.6615672765256022
 20
324.944642571277825
 30
0.0
 11
4697.8991432016982799
 21
327.8744635716353173
 31
0.0
  0
LINE
  5
218AA
  8
0
 10
4692.161545407738231
 20
325.499843808947503
 30
0.0
 11
4697.8280765845465794
 21
327.9996555356913177
 31
0.0
  0
LINE
  5
218AB
  8
0
 10
4691.7301782211798127
 20
326.1138120196342243
 30
0.0
 11
4697.7703504878218155
 21
328.1314238578659115
 31
0.0
  0
LINE
  5
218AC
  8
0
 10
4691.3877295404026881
 20
326.7849404786950913
 30
0.0
 11
4697.7265904668201983
 21
328.2682087363020855
 31
0.0
  0
LINE
  5
218AD
  8
0
 10
4691.1440483204287375
 20
327.5005139316791087
 30
0.0
 11
4697.697124697732761
 21
328.4089522107880157
 31
0.0
  0
LINE
  5
218AE
  8
0
 10
4691.0206459520459248
 20
328.2460813924282093
 30
0.0
 11
4697.6823440732086965
 21
328.5517374551936882
 31
0.0
  0
ARC
  5
218AF
  8
0
 10
4702.5062696775867153
 20
328.6370013557310017
 30
0.0
 40
6.0363855778322062
 50
336.2359973138147211
 51
359.8720854702800125
  0
ARC
  5
218B0
  8
0
 10
4701.3661836534956819
 20
329.1389837792505091
 30
0.0
 40
7.2820911994993809
 50
305.7443628280756798
 51
336.2359976245986104
  0
ARC
  5
218B1
  8
0
 10
4699.0803678165302699
 20
332.4977633112027888
 30
0.0
 40
11.3439902473545509
 50
269.9622672418478828
 51
305.2046428430704736
  0
ARC
  5
218B2
  8
0
 10
4699.073876381111404
 20
322.7367738570602
 30
0.0
 40
0.3605582300946128
 50
269.8443851190476153
 51
321.8030015793852954
  0
ARC
  5
218B3
  8
0
 10
4699.4459292824731165
 20
322.4356737158129249
 30
0.0
 40
0.1182193009206429
 50
45.284617531433021
 51
138.6126377861583876
  0
ARC
  5
218B4
  8
0
 10
4699.7966827348873267
 20
322.7624661539989006
 30
0.0
 40
0.3613049794003853
 50
222.2189594709186906
 51
325.6781631868961995
  0
ARC
  5
218B5
  8
0
 10
4700.1891112289658849
 20
322.4868867423738266
 30
0.0
 40
0.1183475209098069
 50
49.2968156685530801
 51
142.6125051263788066
  0
ARC
  5
218B6
  8
0
 10
4700.5159284937462871
 20
322.8349586000912836
 30
0.0
 40
0.3592566478895098
 50
225.9828347281392951
 51
329.860762599684108
  0
ARC
  5
218B7
  8
0
 10
4700.9255320130723703
 20
322.5892200161105166
 30
0.0
 40
0.118556018939542
 50
53.412294502992367
 51
146.5467816592731083
  0
ARC
  5
218B8
  8
0
 10
4701.2269290910180644
 20
322.9597948183478024
 30
0.0
 40
0.3592653414976143
 50
230.0415944531835919
 51
334.0249300699646255
  0
ARC
  5
218B9
  8
0
 10
4701.6534470022143068
 20
322.7442288546164946
 30
0.0
 40
0.118786820959855
 50
57.61810026089573
 51
150.6542300201392948
  0
ARC
  5
218BA
  8
0
 10
4701.9274995932246384
 20
323.1346737591800888
 30
0.0
 40
0.3584106904325329
 50
234.0461063263167034
 51
338.4945121683243201
  0
ARC
  5
218BB
  8
0
 10
4702.3686813495123715
 20
322.9528744622663226
 30
0.0
 40
0.118933996487257
 50
61.896252193067177
 51
154.9225182337222009
  0
ARC
  5
218BC
  8
0
 10
4702.6130033888448452
 20
323.3615469014067116
 30
0.0
 40
0.3573880419854322
 50
238.2060075107733041
 51
343.2576214112596062
  0
ARC
  5
218BD
  8
0
 10
4703.0666305504828415
 20
323.2170971500387964
 30
0.0
 40
0.118867663553471
 50
66.3279204939883016
 51
159.5673767289615057
  0
ARC
  5
218BE
  8
0
 10
4703.2789685645921054
 20
323.6417201660501064
 30
0.0
 40
0.3560895860211076
 50
242.4657840077285869
 51
348.4367228275482944
  0
ARC
  5
218BF
  8
0
 10
4703.7423687019199861
 20
323.5387383722859909
 30
0.0
 40
0.1188178866278254
 50
71.1949593572291519
 51
164.5745863412888923
  0
ARC
  5
218C0
  8
0
 10
4703.9201141513322
 20
323.9779113602747884
 30
0.0
 40
0.3552126901150484
 50
246.8857069275414915
 51
353.7048309181952845
  0
ARC
  5
218C1
  8
0
 10
4704.3907405288264272
 20
323.9169527972936748
 30
0.0
 40
0.1195981460734677
 50
76.7428001412062173
 51
169.3955784885110063
  0
ARC
  5
218C2
  8
0
 10
4704.5278742006003085
 20
324.3715581755917015
 30
0.0
 40
0.3555434530718165
 50
252.0274252424378858
 51
359.330034629481986
  0
ARC
  5
218C3
  8
0
 10
4705.0031820797348701
 20
324.3561084178850251
 30
0.0
 40
0.1203198226897091
 50
82.8116121842599142
 51
174.6146597306903061
  0
ARC
  5
218C4
  8
0
 10
4705.0945068559285573
 20
324.8236572594231006
 30
0.0
 40
0.3564303329204622
 50
257.6443177501415107
 51
5.4216383253735003
  0
ARC
  5
218C5
  8
0
 10
4705.5704027409583432
 20
324.8578717326021206
 30
0.0
 40
0.1210612885311093
 50
89.3756441310674745
 51
180.2543438912638862
  0
ARC
  5
218C6
  8
0
 10
4705.6098621610335613
 20
325.3346702755545721
 30
0.0
 40
0.3577831543053469
 50
263.8805543133813103
 51
12.0367239067818605
  0
ARC
  5
218C7
  8
0
 10
4706.0807241110651375
 20
325.4231508432910118
 30
0.0
 40
0.1217375593015164
 50
96.5299837103006553
 51
186.541634089103411
  0
ARC
  5
218C8
  8
0
 10
4706.0618642266326788
 20
325.9036962165761224
 30
0.0
 40
0.3596325642983612
 50
270.7990840174769005
 51
19.2244136301106003
  0
ARC
  5
218C9
  8
0
 10
4706.5204343236473505
 20
326.0506652883822198
 30
0.0
 40
0.1223698838373
 50
104.3736143118211004
 51
193.4935139373135939
  0
ARC
  5
218CA
  8
0
 10
4706.4365082695503588
 20
326.5269311973576123
 30
0.0
 40
0.3617121617798836
 50
278.5134579197443827
 51
27.1155373509432707
  0
ARC
  5
218CB
  8
0
 10
4706.8729221163430338
 20
326.7363172018297064
 30
0.0
 40
0.1228121874356424
 50
112.8920876753990967
 51
201.2553809588785896
  0
ARC
  5
218CC
  8
0
 10
4706.7188616453668146
 20
327.1972521243051801
 30
0.0
 40
0.3636738126061426
 50
286.9932453102771888
 51
35.6740708181421624
  0
ARC
  5
218CD
  8
0
 10
4707.1211895151191129
 20
327.4704970073386221
 30
0.0
 40
0.1231575831524251
 50
122.0114476423704986
 51
209.7752284530556039
  0
ARC
  5
218CE
  8
0
 10
4706.8962199361649255
 20
327.9017184664663205
 30
0.0
 40
0.3637192129229975
 50
296.0422690413404894
 51
44.8269542527378988
  0
ARC
  5
218CF
  8
0
 10
4707.2429533459653612
 20
328.2362031140140175
 30
0.0
 40
0.1182185013999975
 50
129.0992836853210122
 51
221.3321701513409039
  0
ARC
  5
218D0
  8
0
 10
4706.9569201836811771
 20
328.6232577092611109
 30
0.0
 40
0.3632227724363321
 50
305.6070699854097938
 51
0.0437835003411698
  0
LINE
  5
218D1
  8
0
 10
4699.4419094228187532
 20
322.5538246524935744
 30
0.0
 11
4699.1473647629327388
 21
327.2331128671518741
 31
0.0
  0
LINE
  5
218D2
  8
0
 10
4700.1768336866980462
 20
322.6045956955649103
 30
0.0
 11
4699.2952986410846279
 21
327.2489963936009758
 31
0.0
  0
LINE
  5
218D3
  8
0
 10
4700.904986674166139
 20
322.7059822474870998
 30
0.0
 11
4699.4404855084530936
 21
327.2805171448063106
 31
0.0
  0
LINE
  5
218D4
  8
0
 10
4701.6244275686649416
 20
322.8596654633914227
 30
0.0
 11
4699.5809575073571978
 21
327.3271199861162017
 31
0.0
  0
LINE
  5
218D5
  8
0
 10
4702.3311214628165544
 20
323.0657219275984744
 30
0.0
 11
4699.7156384007939778
 21
327.3883428447052779
 31
0.0
  0
LINE
  5
218D6
  8
0
 10
4703.0202852494503531
 20
323.3265578028357936
 30
0.0
 11
4699.8418567950839133
 21
327.4627096307892771
 31
0.0
  0
LINE
  5
218D7
  8
0
 10
4703.6867981793775471
 20
323.6437603090757875
 30
0.0
 11
4699.959378612898945
 21
327.5497736984711992
 31
0.0
  0
LINE
  5
218D8
  8
0
 10
4704.3251575765443704
 20
324.0176771805602129
 30
0.0
 11
4700.0666433550741203
 21
327.6481995642344032
 31
0.0
  0
LINE
  5
218D9
  8
0
 10
4704.9274114004429066
 20
324.4507432981205284
 30
0.0
 11
4700.1642279849966144
 21
327.7587775119420144
 31
0.0
  0
LINE
  5
218DA
  8
0
 10
4705.4842269550026685
 20
324.944642571277825
 30
0.0
 11
4700.2466510298309004
 21
327.8744635716353173
 31
0.0
  0
LINE
  5
218DB
  8
0
 10
4705.9842488237909492
 20
325.499843808947503
 30
0.0
 11
4700.3177176469816914
 21
327.9996555356913177
 31
0.0
  0
LINE
  5
218DC
  8
0
 10
4706.4156160103493676
 20
326.1138120196342243
 30
0.0
 11
4700.3754437437091838
 21
328.1314238578659115
 31
0.0
  0
LINE
  5
218DD
  8
0
 10
4706.7580646911255826
 20
326.7849404786950913
 30
0.0
 11
4700.4192037647108009
 21
328.2682087363020855
 31
0.0
  0
LINE
  5
218DE
  8
0
 10
4707.0017459111004428
 20
327.5005139316791087
 30
0.0
 11
4700.4486695337973288
 21
328.4089522107880157
 31
0.0
  0
LINE
  5
218DF
  8
0
 10
4707.1251482794832555
 20
328.2460813924282093
 30
0.0
 11
4700.4634501583232122
 21
328.5517374551936882
 31
0.0
  0
CIRCLE
  5
218E0
  8
0
 10
4699.0728971157641354
 20
328.6235249568139807
 30
0.0
 40
0.8200000000000002
  0
ENDSEC
  0
EOF
