  0
SECTION
  2
HEADER
  9
$ACADVER
  1
AC1009
  9
$INSBASE
 10
4677.5686822969591958
 20
330.2251920396921037
 30
0.0
  9
$EXTMIN
 10
4668.0168476146245666
 20
322.1544929438380791
 30
-0.0000000349181948
  9
$EXTMAX
 10
4687.2273736142469716
 20
330.7327648313927284
 30
0.0000000814935746
  9
$LIMMIN
 10
0.0
 20
0.0
  9
$LIMMAX
 10
11.6929133858000007
 20
8.2677165353999982
  9
$ORTHOMODE
 70
     0
  9
$REGENMODE
 70
     1
  9
$FILLMODE
 70
     1
  9
$QTEXTMODE
 70
     0
  9
$MIRRTEXT
 70
     0
  9
$DRAGMODE
 70
     2
  9
$LTSCALE
 40
0.6431102362
  9
$OSMODE
 70
  4095
  9
$ATTMODE
 70
     1
  9
$TEXTSIZE
 40
0.2
  9
$TRACEWID
 40
0.05
  9
$TEXTSTYLE
  7
STANDARD
  9
$CLAYER
  8
0
  9
$CELTYPE
  6
BYLAYER
  9
$CECOLOR
 62
   256
  9
$DIMSCALE
 40
1.0
  9
$DIMASZ
 40
0.1875
  9
$DIMEXO
 40
0.0625
  9
$DIMDLI
 40
0.4443307087
  9
$DIMRND
 40
0.0
  9
$DIMDLE
 40
0.0
  9
$DIMEXE
 40
0.125
  9
$DIMTP
 40
0.01
  9
$DIMTM
 40
0.01
  9
$DIMTXT
 40
2.0
  9
$DIMCEN
 40
0.1052362205
  9
$DIMTSZ
 40
0.0
  9
$DIMTOL
 70
     1
  9
$DIMLIM
 70
     0
  9
$DIMTIH
 70
     1
  9
$DIMTOH
 70
     1
  9
$DIMSE1
 70
     0
  9
$DIMSE2
 70
     0
  9
$DIMTAD
 70
     0
  9
$DIMZIN
 70
     0
  9
$DIMBLK
  1

  9
$DIMASO
 70
     1
  9
$DIMSHO
 70
     1
  9
$DIMPOST
  1
\X
  9
$DIMAPOST
  1

  9
$DIMALT
 70
     1
  9
$DIMALTD
 70
     2
  9
$DIMALTF
 40
25.3999999999999986
  9
$DIMLFAC
 40
1.0
  9
$DIMTOFL
 70
     0
  9
$DIMTVP
 40
0.0
  9
$DIMTIX
 70
     0
  9
$DIMSOXD
 70
     0
  9
$DIMSAH
 70
     0
  9
$DIMBLK1
  1

  9
$DIMBLK2
  1

  9
$DIMSTYLE
  2
STANDARD
  9
$DIMCLRD
 70
     0
  9
$DIMCLRE
 70
     0
  9
$DIMCLRT
 70
     0
  9
$DIMTFAC
 40
1.0
  9
$DIMGAP
 40
0.09
  9
$LUNITS
 70
     2
  9
$LUPREC
 70
     4
  9
$SKETCHINC
 40
0.1
  9
$FILLETRAD
 40
0.0
  9
$AUNITS
 70
     0
  9
$AUPREC
 70
     0
  9
$MENU
  1
.
  9
$ELEVATION
 40
0.0
  9
$PELEVATION
 40
0.0
  9
$THICKNESS
 40
0.0
  9
$LIMCHECK
 70
     0
  9
$BLIPMODE
 70
     0
  9
$CHAMFERA
 40
0.0
  9
$CHAMFERB
 40
0.0
  9
$SKPOLY
 70
     0
  9
$TDCREATE
 40
2458060.468368056230247
  9
$TDUPDATE
 40
2459415.7815046301111579
  9
$TDINDWG
 40
0.5756783565
  9
$TDUSRTIMER
 40
0.5756783565
  9
$USRTIMER
 70
     1
  9
$ANGBASE
 50
0.0
  9
$ANGDIR
 70
     0
  9
$PDMODE
 70
     0
  9
$PDSIZE
 40
0.3125
  9
$PLINEWID
 40
0.0
  9
$COORDS
 70
     1
  9
$SPLFRAME
 70
     0
  9
$SPLINETYPE
 70
     6
  9
$SPLINESEGS
 70
     8
  9
$ATTDIA
 70
     1
  9
$ATTREQ
 70
     1
  9
$HANDLING
 70
     1
  9
$HANDSEED
  5
2163E
  9
$SURFTAB1
 70
     6
  9
$SURFTAB2
 70
     6
  9
$SURFTYPE
 70
     6
  9
$SURFU
 70
     6
  9
$SURFV
 70
     6
  9
$UCSNAME
  2

  9
$UCSORG
 10
0.0
 20
0.0
 30
0.0
  9
$UCSXDIR
 10
1.0
 20
0.0
 30
0.0
  9
$UCSYDIR
 10
0.0
 20
1.0
 30
0.0
  9
$PUCSNAME
  2

  9
$PUCSORG
 10
0.0
 20
0.0
 30
0.0
  9
$PUCSXDIR
 10
1.0
 20
0.0
 30
0.0
  9
$PUCSYDIR
 10
0.0
 20
1.0
 30
0.0
  9
$USERI1
 70
     0
  9
$USERI2
 70
     0
  9
$USERI3
 70
     0
  9
$USERI4
 70
     0
  9
$USERI5
 70
     0
  9
$USERR1
 40
0.0
  9
$USERR2
 40
0.0
  9
$USERR3
 40
0.0
  9
$USERR4
 40
0.0
  9
$USERR5
 40
0.0
  9
$WORLDVIEW
 70
     1
  9
$SHADEDGE
 70
     3
  9
$SHADEDIF
 70
    70
  9
$TILEMODE
 70
     1
  9
$MAXACTVP
 70
    64
  9
$PLIMCHECK
 70
     0
  9
$PEXTMIN
 10
1.0000000000000000E+20
 20
1.0000000000000000E+20
 30
1.0000000000000000E+20
  9
$PEXTMAX
 10
-1.0000000000000000E+20
 20
-1.0000000000000000E+20
 30
-1.0000000000000000E+20
  9
$PLIMMIN
 10
0.0
 20
0.0
  9
$PLIMMAX
 10
12.0
 20
9.0
  9
$UNITMODE
 70
     0
  9
$VISRETAIN
 70
     1
  9
$PLINEGEN
 70
     0
  9
$PSLTSCALE
 70
     1
  0
ENDSEC
  0
SECTION
  2
TABLES
  0
TABLE
  2
VPORT
 70
     1
  0
VPORT
  2
*ACTIVE
 70
     0
 10
0.0
 20
0.0
 11
1.0
 21
1.0
 12
766.2567541691231554
 22
193.8640237850763128
 13
0.0
 23
0.0
 14
1.0
 24
1.0
 15
0.0
 25
0.0
 16
0.0
 26
0.0
 36
60.4960186965801583
 17
3911.3653564453120453
 27
132.5796051025390057
 37
0.0
 40
11.5534917956710093
 41
1.67063492063492
 42
50.0
 43
0.0
 44
0.0
 50
0.0
 51
0.0
 71
     0
 72
   100
 73
     1
 74
     1
 75
     0
 76
     0
 77
     0
 78
     0
  0
ENDTAB
  0
TABLE
  2
LTYPE
 70
     2
  0
LTYPE
  2
CONTINUOUS
 70
     0
  3
Solid line
 72
    65
 73
     0
 40
0.0
  0
LTYPE
  2
PHANTOM2
 70
     0
  3
___ _ _ ___ _ _ ___ _ _ ___ _ _
 72
    65
 73
     6
 40
1.25
 49
0.625
 49
-0.125
 49
0.125
 49
-0.125
 49
0.125
 49
-0.125
  0
ENDTAB
  0
TABLE
  2
LAYER
 70
     2
  0
LAYER
  2
0
 70
     0
 62
   255
  6
CONTINUOUS
  0
LAYER
  2
DEFPOINTS
 70
     0
 62
     7
  6
CONTINUOUS
  0
ENDTAB
  0
TABLE
  2
STYLE
 70
     1
  0
STYLE
  2
STANDARD
 70
     0
 40
0.0
 41
0.8
 50
0.0
 71
     0
 42
0.2
  3
txt
  4

  0
ENDTAB
  0
TABLE
  2
VIEW
 70
     0
  0
ENDTAB
  0
TABLE
  2
UCS
 70
     0
  0
ENDTAB
  0
TABLE
  2
APPID
 70
    11
  0
APPID
  2
ACAD
 70
     0
  0
APPID
  2
ACAD_MLEADERVER
 70
     0
  0
APPID
  2
ACAD_EXEMPT_FROM_CAD_STANDARDS
 70
     0
  0
APPID
  2
ACAD_NAV_VCDISPLAY
 70
     0
  0
APPID
  2
ACAECLAYERSTANDARD
 70
     0
  0
APPID
  2
ACCMTRANSPARENCY
 70
     0
  0
APPID
  2
ACAD_DSTYLE_DIMJAG
 70
     0
  0
APPID
  2
ACAD_DSTYLE_DIMTALN
 70
     0
  0
APPID
  2
ACDBATTR
 70
     0
  0
APPID
  2
ACADANNOTATIVE
 70
     0
  0
APPID
  2
DCO15
 70
     0
  0
ENDTAB
  0
TABLE
  2
DIMSTYLE
 70
     1
  0
DIMSTYLE
  2
STANDARD
 70
     0
  3

  4

  5

  6

  7

 40
1.0
 41
0.1875
 42
0.0625
 43
0.38
 44
0.125
 45
0.0
 46
0.0
 47
0.01
 48
0.01
140
0.15625
141
0.09
142
0.0
143
25.3999999999999986
144
1.0
145
0.0
146
1.0
147
0.09
 71
     1
 72
     0
 73
     1
 74
     1
 75
     0
 76
     0
 77
     0
 78
     4
170
     0
171
     2
172
     0
173
     0
174
     0
175
     0
176
     0
177
     0
178
     0
  0
ENDTAB
  0
ENDSEC
  0
SECTION
  2
BLOCKS
  0
BLOCK
  8
0
  2
$MODEL_SPACE
 70
     0
 10
0.0
 20
0.0
 30
0.0
  3
$MODEL_SPACE
  1

  0
ENDBLK
  5
21
  8
0
  0
BLOCK
 67
     1
  8
0
  2
$PAPER_SPACE
 70
     0
 10
0.0
 20
0.0
 30
0.0
  3
$PAPER_SPACE
  1

  0
ENDBLK
  5
1D
 67
     1
  8
0
  0
ENDSEC
  0
SECTION
  2
ENTITIES
  0
ATTDEF
  5
20106
  8
DEFPOINTS
 10
4677.5636927545729122
 20
330.2302026114944056
 30
0.0
 40
0.001
  1
K-2217X
  3

  2
MODELNUMBER
 70
     0
1001
ACDBATTR
1070
     0
1070
     1
  0
ATTDEF
  5
20107
  8
DEFPOINTS
 10
4677.5635669449156921
 20
330.2285357711152187
 30
0.0
 40
0.001
  1
LINIA
  3

  2
TRADENAME
 70
     0
1001
ACDBATTR
1070
     0
1070
     1
  0
ATTDEF
  5
20108
  8
DEFPOINTS
 10
4677.5636927545729122
 20
330.2268692781610184
 30
0.0
 40
0.001
  1
BATHROOM SINK
  3

  2
PRODUCT
 70
     0
1001
ACDBATTR
1070
     0
1070
     1
  0
LINE
  5
21597
  8
0
 10
4686.3616683276686672
 20
330.7251384721420777
 30
0.0
 11
4668.7756962666344407
 21
330.7251384721420777
 31
0.0
  0
LINE
  5
21598
  8
0
 10
4686.9793702901642973
 20
330.2251920396921037
 30
0.0
 11
4668.1579943037531848
 21
330.2251920396921037
 31
0.0
  0
LINE
  5
21599
  8
0
 10
4676.0118167549562713
 20
323.6441306200961776
 30
0.0
 11
4676.2101777764873987
 21
322.257128668395012
 31
0.0
  0
LINE
  5
2159A
  8
0
 10
4670.7757568605557026
 20
330.7251388114210044
 30
0.0
 11
4684.361607733362689
 21
330.7251388114210044
 31
0.0
  0
ARC
  5
2159B
  8
0
 10
4668.1579943037531848
 20
330.2842471496375083
 30
0.0
 40
0.0590551099454406
 50
153.2564550803296868
 51
270.0000084628541117
  0
ARC
  5
2159C
  8
0
 10
4668.7756582151223483
 20
329.9755946644979758
 30
0.0
 40
0.7495438086099416
 50
89.9970913093917346
 51
153.4331562113011103
  0
LINE
  5
2159D
  8
0
 10
4670.1579854084393446
 20
330.2251923789709736
 30
0.0
 11
4684.9793791857428005
 21
330.2251923789709736
 31
0.0
  0
ARC
  5
2159E
  8
0
 10
4686.9793702901642973
 20
330.2842471496375083
 30
0.0
 40
0.0590551099454406
 50
270.0
 51
26.743544919670299
  0
ARC
  5
2159F
  8
0
 10
4686.3617063787969528
 20
329.9755946644979758
 30
0.0
 40
0.7495438086099416
 50
26.5668437886988897
 51
90.0029086612702258
  0
ARC
  5
215A0
  8
0
 10
4686.2929372735279685
 20
330.1067335770592877
 30
0.0
 40
0.1188132700558851
 50
94.4290403820731825
 51
174.1786266554603912
  0
LINE
  5
215A1
  8
0
 10
4676.3190698246626198
 20
322.1627017812421059
 30
0.0
 11
4678.8182947753703047
 21
322.1627017812421059
 31
0.0
  0
ARC
  5
215A2
  8
0
 10
4676.3190698246626198
 20
322.2727017812421195
 30
0.0
 40
0.11
 50
188.1389228003546918
 51
270.0
  0
LINE
  5
215A3
  8
0
 10
4678.9271868025771255
 20
322.2571285217634909
 30
0.0
 11
4679.1255356279971238
 21
323.6440318687303943
 31
0.0
  0
ARC
  5
215A4
  8
0
 10
4678.8182947753703047
 20
322.2727017812421195
 30
0.0
 40
0.11
 50
270.0
 51
351.8610000464491918
  0
ARC
  5
215A5
  8
0
 10
4679.0510733841683759
 20
331.576409568645488
 30
0.0
 40
7.7242730226804683
 50
272.3138227440156243
 51
309.9448906850004164
  0
ARC
  5
215A6
  8
0
 10
4679.3730175080117988
 20
323.6086380971880772
 30
0.0
 40
0.25
 50
92.3138227440155958
 51
171.8610000464491918
  0
ARC
  5
215A7
  8
0
 10
4679.4752417513391265
 20
330.6099399513427102
 30
0.0
 40
6.7174747228209473
 50
312.464665827950796
 51
355.8070153304589098
  0
ARC
  5
215A8
  8
0
 10
4668.8444273206550861
 20
330.1067335770592877
 30
0.0
 40
0.1188132700558842
 50
5.8213733445395963
 51
85.5709596179268033
  0
LINE
  5
215A9
  8
0
 10
4676.2101777916050196
 20
322.2571285217634909
 30
0.0
 11
4676.0118289661859308
 21
323.6440318687303943
 31
0.0
  0
ARC
  5
215AA
  8
0
 10
4676.3190698188118404
 20
322.2727017812421195
 30
0.0
 40
0.11
 50
188.1389999535508082
 51
270.0
  0
ARC
  5
215AB
  8
0
 10
4676.0862912100146787
 20
331.576409568645488
 30
0.0
 40
7.7242730226804683
 50
230.055109314999612
 51
267.6861772559843757
  0
ARC
  5
215AC
  8
0
 10
4675.7643470861712558
 20
323.6086380971880772
 30
0.0
 40
0.25
 50
8.1389999535507851
 51
87.6861772559844042
  0
ARC
  5
215AD
  8
0
 10
4675.6621228428439281
 20
330.6099399513427102
 30
0.0
 40
6.7174747228209473
 50
184.1929846695410049
 51
227.5353341720490903
  0
ARC
  5
215AE
  8
0
 10
4665.2703986520427861
 20
322.1638296301571813
 30
0.0
 40
11.4429189569976995
 50
4.3472199988465974
 51
8.2900038783081058
  0
ARC
  5
215AF
  8
0
 10
4676.8043059117107987
 20
323.040628414447724
 30
0.0
 40
0.1242670786275596
 50
184.3472199988466116
 51
266.8687660134548878
  0
ARC
  5
215B0
  8
0
 10
4689.8669659842553301
 20
322.1638296299037165
 30
0.0
 40
11.4429189597240093
 50
171.7100340810316084
 51
175.6527800009195914
  0
ARC
  5
215B1
  8
0
 10
4678.3330587218715664
 20
323.040628414447724
 30
0.0
 40
0.1242670786275596
 50
273.1312339865451122
 51
355.6527800011534168
  0
LINE
  5
215B2
  8
0
 10
4676.7975180532912418
 20
322.916546861392078
 30
0.0
 11
4678.3398465802920327
 21
322.916546861392078
 31
0.0
  0
LINE
  5
215B4
  8
0
 10
4676.5937511744432413
 20
323.8137029313356265
 30
0.0
 11
4676.5937511744432413
 21
324.7174447743681753
 31
0.0
  0
ARC
  5
215B5
  8
0
 10
4697.0193220747587475
 20
335.3481563817592246
 30
0.0
 40
22.5080202291055684
 50
193.1561770981190875
 51
202.8072218082841118
  0
ARC
  5
215B6
  8
0
 10
4670.6924589689670029
 20
324.6986802403025081
 30
0.0
 40
5.9013220385051248
 50
0.182184671704479
 51
19.0346049974915204
  0
LINE
  5
215B7
  8
0
 10
4678.5436134591391237
 20
323.8137029313356265
 30
0.0
 11
4678.5436134591391237
 21
324.7174447743681753
 31
0.0
  0
ARC
  5
215B8
  8
0
 10
4658.1180425588236176
 20
335.3481563817592246
 30
0.0
 40
22.5080202291055684
 50
337.1927781917158882
 51
346.8438229018809125
  0
ARC
  5
215B9
  8
0
 10
4684.4449056646162717
 20
324.6986802403025081
 30
0.0
 40
5.9013220385051248
 50
160.965395002508501
 51
179.8178153282954952
  0
ENDSEC
  0
EOF
