  0
SECTION
  2
HEADER
  9
$ACADVER
  1
AC1009
  9
$INSBASE
 10
3637.9177735373700671
 20
296.3877370121282979
 30
0.0
  9
$EXTMIN
 10
3629.8994960530699245
 20
288.3890838707729927
 30
0.0
  9
$EXTMAX
 10
3645.9360510216688454
 20
296.3928292335593824
 30
0.0
  9
$LIMMIN
 10
0.0
 20
0.0
  9
$LIMMAX
 10
11.6929133858000007
 20
8.2677165353999982
  9
$ORTHOMODE
 70
     0
  9
$REGENMODE
 70
     1
  9
$FILLMODE
 70
     1
  9
$QTEXTMODE
 70
     0
  9
$MIRRTEXT
 70
     0
  9
$DRAGMODE
 70
     2
  9
$LTSCALE
 40
0.6431102362
  9
$OSMODE
 70
  4095
  9
$ATTMODE
 70
     1
  9
$TEXTSIZE
 40
0.2
  9
$TRACEWID
 40
0.05
  9
$TEXTSTYLE
  7
STANDARD
  9
$CLAYER
  8
0
  9
$CELTYPE
  6
BYLAYER
  9
$CECOLOR
 62
   256
  9
$DIMSCALE
 40
1.0
  9
$DIMASZ
 40
0.1875
  9
$DIMEXO
 40
0.0625
  9
$DIMDLI
 40
0.4443307087
  9
$DIMRND
 40
0.0
  9
$DIMDLE
 40
0.0
  9
$DIMEXE
 40
0.125
  9
$DIMTP
 40
0.01
  9
$DIMTM
 40
0.01
  9
$DIMTXT
 40
2.0
  9
$DIMCEN
 40
0.1052362205
  9
$DIMTSZ
 40
0.0
  9
$DIMTOL
 70
     1
  9
$DIMLIM
 70
     0
  9
$DIMTIH
 70
     1
  9
$DIMTOH
 70
     1
  9
$DIMSE1
 70
     0
  9
$DIMSE2
 70
     0
  9
$DIMTAD
 70
     0
  9
$DIMZIN
 70
     0
  9
$DIMBLK
  1

  9
$DIMASO
 70
     1
  9
$DIMSHO
 70
     1
  9
$DIMPOST
  1
\X
  9
$DIMAPOST
  1

  9
$DIMALT
 70
     1
  9
$DIMALTD
 70
     2
  9
$DIMALTF
 40
25.3999999999999986
  9
$DIMLFAC
 40
1.0
  9
$DIMTOFL
 70
     0
  9
$DIMTVP
 40
0.0
  9
$DIMTIX
 70
     0
  9
$DIMSOXD
 70
     0
  9
$DIMSAH
 70
     0
  9
$DIMBLK1
  1

  9
$DIMBLK2
  1

  9
$DIMSTYLE
  2
STANDARD
  9
$DIMCLRD
 70
     0
  9
$DIMCLRE
 70
     0
  9
$DIMCLRT
 70
     0
  9
$DIMTFAC
 40
1.0
  9
$DIMGAP
 40
0.09
  9
$LUNITS
 70
     2
  9
$LUPREC
 70
     4
  9
$SKETCHINC
 40
0.1
  9
$FILLETRAD
 40
0.0
  9
$AUNITS
 70
     0
  9
$AUPREC
 70
     0
  9
$MENU
  1
.
  9
$ELEVATION
 40
0.0
  9
$PELEVATION
 40
0.0
  9
$THICKNESS
 40
0.0
  9
$LIMCHECK
 70
     0
  9
$BLIPMODE
 70
     0
  9
$CHAMFERA
 40
0.0
  9
$CHAMFERB
 40
0.0
  9
$SKPOLY
 70
     0
  9
$TDCREATE
 40
2458060.468368056230247
  9
$TDUPDATE
 40
2459117.7127777780406177
  9
$TDINDWG
 40
0.4621210417
  9
$TDUSRTIMER
 40
0.4621210417
  9
$USRTIMER
 70
     1
  9
$ANGBASE
 50
0.0
  9
$ANGDIR
 70
     0
  9
$PDMODE
 70
     0
  9
$PDSIZE
 40
0.3125
  9
$PLINEWID
 40
0.0
  9
$COORDS
 70
     1
  9
$SPLFRAME
 70
     0
  9
$SPLINETYPE
 70
     6
  9
$SPLINESEGS
 70
     8
  9
$ATTDIA
 70
     1
  9
$ATTREQ
 70
     1
  9
$HANDLING
 70
     1
  9
$HANDSEED
  5
7AD4
  9
$SURFTAB1
 70
     6
  9
$SURFTAB2
 70
     6
  9
$SURFTYPE
 70
     6
  9
$SURFU
 70
     6
  9
$SURFV
 70
     6
  9
$UCSNAME
  2

  9
$UCSORG
 10
0.0
 20
0.0
 30
0.0
  9
$UCSXDIR
 10
1.0
 20
0.0
 30
0.0
  9
$UCSYDIR
 10
0.0
 20
1.0
 30
0.0
  9
$PUCSNAME
  2

  9
$PUCSORG
 10
0.0
 20
0.0
 30
0.0
  9
$PUCSXDIR
 10
1.0
 20
0.0
 30
0.0
  9
$PUCSYDIR
 10
0.0
 20
1.0
 30
0.0
  9
$USERI1
 70
     0
  9
$USERI2
 70
     0
  9
$USERI3
 70
     0
  9
$USERI4
 70
     0
  9
$USERI5
 70
     0
  9
$USERR1
 40
0.0
  9
$USERR2
 40
0.0
  9
$USERR3
 40
0.0
  9
$USERR4
 40
0.0
  9
$USERR5
 40
0.0
  9
$WORLDVIEW
 70
     1
  9
$SHADEDGE
 70
     3
  9
$SHADEDIF
 70
    70
  9
$TILEMODE
 70
     1
  9
$MAXACTVP
 70
    64
  9
$PLIMCHECK
 70
     0
  9
$PEXTMIN
 10
1.0000000000000000E+20
 20
1.0000000000000000E+20
 30
1.0000000000000000E+20
  9
$PEXTMAX
 10
-1.0000000000000000E+20
 20
-1.0000000000000000E+20
 30
-1.0000000000000000E+20
  9
$PLIMMIN
 10
0.0
 20
0.0
  9
$PLIMMAX
 10
12.0
 20
9.0
  9
$UNITMODE
 70
     0
  9
$VISRETAIN
 70
     1
  9
$PLINEGEN
 70
     0
  9
$PSLTSCALE
 70
     1
  0
ENDSEC
  0
SECTION
  2
TABLES
  0
TABLE
  2
VPORT
 70
     1
  0
VPORT
  2
*ACTIVE
 70
     0
 10
0.0
 20
0.0
 11
1.0
 21
1.0
 12
0.0
 22
0.0
 13
0.0
 23
0.0
 14
1.0
 24
1.0
 15
0.0
 25
0.0
 16
0.0
 26
0.0
 36
50.7830837368117329
 17
3637.917724609375
 27
292.390964177326623
 37
0.0
 40
17.9225347340527783
 41
2.1186252771618621
 42
50.0
 43
0.0
 44
0.0
 50
0.0
 51
0.0
 71
     0
 72
   100
 73
     1
 74
     1
 75
     0
 76
     0
 77
     0
 78
     0
  0
ENDTAB
  0
TABLE
  2
LTYPE
 70
     2
  0
LTYPE
  2
CONTINUOUS
 70
     0
  3
Solid line
 72
    65
 73
     0
 40
0.0
  0
LTYPE
  2
PHANTOM2
 70
     0
  3
___ _ _ ___ _ _ ___ _ _ ___ _ _
 72
    65
 73
     6
 40
1.25
 49
0.625
 49
-0.125
 49
0.125
 49
-0.125
 49
0.125
 49
-0.125
  0
ENDTAB
  0
TABLE
  2
LAYER
 70
     2
  0
LAYER
  2
0
 70
     0
 62
   255
  6
CONTINUOUS
  0
LAYER
  2
DEFPOINTS
 70
     0
 62
     7
  6
CONTINUOUS
  0
ENDTAB
  0
TABLE
  2
STYLE
 70
     1
  0
STYLE
  2
STANDARD
 70
     0
 40
0.0
 41
0.8
 50
0.0
 71
     0
 42
0.2
  3
txt
  4

  0
ENDTAB
  0
TABLE
  2
VIEW
 70
     0
  0
ENDTAB
  0
TABLE
  2
UCS
 70
     0
  0
ENDTAB
  0
TABLE
  2
APPID
 70
     9
  0
APPID
  2
ACAD
 70
     0
  0
APPID
  2
ACAD_MLEADERVER
 70
     0
  0
APPID
  2
ACAD_EXEMPT_FROM_CAD_STANDARDS
 70
     0
  0
APPID
  2
ACAD_NAV_VCDISPLAY
 70
     0
  0
APPID
  2
ACAECLAYERSTANDARD
 70
     0
  0
APPID
  2
ACCMTRANSPARENCY
 70
     0
  0
APPID
  2
ACAD_DSTYLE_DIMJAG
 70
     0
  0
APPID
  2
ACAD_DSTYLE_DIMTALN
 70
     0
  0
APPID
  2
ACDBATTR
 70
     0
  0
ENDTAB
  0
TABLE
  2
DIMSTYLE
 70
     1
  0
DIMSTYLE
  2
STANDARD
 70
     0
  3

  4

  5

  6

  7

 40
1.0
 41
0.1875
 42
0.0625
 43
0.38
 44
0.125
 45
0.0
 46
0.0
 47
0.01
 48
0.01
140
0.15625
141
0.09
142
0.0
143
25.3999999999999986
144
1.0
145
0.0
146
1.0
147
0.09
 71
     1
 72
     0
 73
     1
 74
     1
 75
     0
 76
     0
 77
     0
 78
     4
170
     0
171
     2
172
     0
173
     0
174
     0
175
     0
176
     0
177
     0
178
     0
  0
ENDTAB
  0
ENDSEC
  0
SECTION
  2
BLOCKS
  0
BLOCK
  8
0
  2
$MODEL_SPACE
 70
     0
 10
0.0
 20
0.0
 30
0.0
  3
$MODEL_SPACE
  1

  0
ENDBLK
  5
21
  8
0
  0
BLOCK
 67
     1
  8
0
  2
$PAPER_SPACE
 70
     0
 10
0.0
 20
0.0
 30
0.0
  3
$PAPER_SPACE
  1

  0
ENDBLK
  5
1D
 67
     1
  8
0
  0
BLOCK
  8
0
  2
_FILLED
 70
     0
 10
0.0
 20
0.0
 30
0.0
  3
_FILLED
  1

  0
SOLID
  5
7760
  8
0
  6
BYBLOCK
 62
     0
 10
0.0
 20
0.0
 30
0.0
 11
-1.0
 21
0.1666666667
 31
0.0
 12
-1.0
 22
-0.1666666667
 32
0.0
 13
-1.0
 23
-0.1666666667
 33
0.0
  0
ENDBLK
  5
7761
  8
0
  6
BYBLOCK
 62
     0
  0
ENDSEC
  0
SECTION
  2
ENTITIES
  0
ATTDEF
  5
3930
  8
DEFPOINTS
 10
3637.9135457444340318
 20
296.391829233559406
 30
0.0
 40
0.001
  1
K-2215M
  3

  2
MODELNUMBER
 70
     0
1001
ACDBATTR
1070
     0
1070
     1
  0
ATTDEF
  5
3931
  8
DEFPOINTS
 10
3637.9135457444340318
 20
296.3901625668927977
 30
0.0
 40
0.001
  1
LADENA
  3

  2
TRADENAME
 70
     0
1001
ACDBATTR
1070
     0
1070
     1
  0
ATTDEF
  5
3932
  8
DEFPOINTS
 10
3637.9135457444340318
 20
296.3884959002260757
 30
0.0
 40
0.001
  1
BATHROOM SINK
  3

  2
PRODUCT
 70
     0
1001
ACDBATTR
1070
     0
1070
     1
  0
LINE
  5
778C
  8
0
 10
3629.8996673611709411
 20
296.2561950175282846
 30
0.0
 11
3629.9174919816700822
 21
295.9161085688282924
 31
0.0
  0
LINE
  5
778D
  8
0
 10
3640.9377332786698389
 20
288.3890838709282889
 30
0.0
 11
3643.407807692769893
 21
288.3890838709282889
 31
0.0
  0
LINE
  5
778E
  8
0
 10
3640.8114073207698311
 20
288.5761505821283208
 30
0.0
 11
3640.8181899144688032
 21
288.4986251818282881
 31
0.0
  0
LINE
  5
778F
  8
0
 10
3643.6266505733688064
 20
289.6335540867282816
 30
0.0
 11
3643.5273571602688207
 21
288.4986251818282881
 31
0.0
  0
LINE
  5
7790
  8
0
 10
3645.2220549774701794
 20
295.7698313025283028
 30
0.0
 11
3645.135367394970217
 21
290.803503029328283
 31
0.0
  0
LINE
  5
7791
  8
0
 10
3645.9195495457702236
 20
295.9445968547282746
 30
0.0
 11
3645.935879713569193
 21
296.2561950175282846
 31
0.0
  0
LINE
  5
7792
  8
0
 10
3629.9759153010700174
 20
295.8877370121282979
 30
0.0
 11
3645.8596317737687968
 21
295.8877370121282979
 31
0.0
  0
LINE
  5
7793
  8
0
 10
3630.0244960530699245
 20
296.3877370121282979
 30
0.0
 11
3645.8110510216688454
 21
296.3877370121282979
 31
0.0
  0
ARC
  5
7794
  8
0
 10
3640.937733278270116
 20
288.5090838709282934
 30
0.0
 40
0.12
 50
185.0000000226995951
 51
270.0000002063043212
  0
ARC
  5
7795
  8
0
 10
3630.0244960530699245
 20
296.2627370121282979
 30
0.0
 40
0.125
 50
90.0
 51
182.9999999999006093
  0
ARC
  5
7796
  8
0
 10
3629.975915300969973
 20
295.9477370121283002
 30
0.0
 40
0.0600000000000126
 50
183.3806070702337081
 51
270.0000000955180894
  0
ARC
  5
7797
  8
0
 10
3643.4078137961860193
 20
288.5090838710676167
 30
0.0
 40
0.1200000002945431
 50
269.9970858334687023
 51
354.9999999228336947
  0
ARC
  5
7798
  8
0
 10
3645.8110510216688454
 20
296.2627370121282979
 30
0.0
 40
0.125
 50
357.0000000000003979
 51
90.0
  0
ARC
  5
7799
  8
0
 10
3645.3420367007702225
 20
295.7677370121282934
 30
0.0
 40
0.12
 50
90.0
 51
179.0000000000015064
  0
ARC
  5
779A
  8
0
 10
3645.8596317737687968
 20
295.9477370121283002
 30
0.0
 40
0.06
 50
270.0
 51
357.0000000000003979
  0
ARC
  5
779B
  8
0
 10
3629.9802370013858308
 20
295.9210704371665202
 30
0.0
 40
0.062940905908242
 50
184.5215334414818926
 51
228.1285162849131893
  0
ARC
  5
779C
  8
0
 10
3629.8529766202627798
 20
295.7790943327120772
 30
0.0
 40
0.1277221970759131
 50
14.1132180087262
 51
48.1285162849132391
  0
ARC
  5
779D
  8
0
 10
3753.2455394461940159
 20
323.6758798507132155
 30
0.0
 40
126.3790543094662979
 50
192.7379653677610918
 51
193.2229938227220032
  0
ARC
  5
779E
  8
0
 10
3647.9742392244761504
 20
298.8860853128445001
 30
0.0
 40
18.2284123185736604
 50
193.0575815455119937
 51
205.1312945638985923
  0
ARC
  5
779F
  8
0
 10
3690.6608586917409411
 20
320.4507421827328812
 30
0.0
 40
66.0472906477727832
 50
206.3411349276956059
 51
207.1903281339062914
  0
ARC
  5
77A0
  8
0
 10
3633.6727734155560938
 20
291.2195051126079761
 30
0.0
 40
2.0000008009131598
 50
208.3243756875538963
 51
266.3636152857689012
  0
ARC
  5
77A1
  8
0
 10
3664.2914742636380652
 20
745.2751433175837974
 30
0.0
 40
457.0868209688628099
 50
266.1431368619751083
 51
267.025390082374372
  0
ARC
  5
77A2
  8
0
 10
3640.5623588016110261
 20
288.5543618097506737
 30
0.0
 40
0.2499998309938421
 50
4.9999658180067801
 51
87.8639644374549675
  0
ARC
  5
77A3
  8
0
 10
3644.1936614843439202
 20
290.821739549143615
 30
0.0
 40
0.9418824729028898
 50
273.4264478180568858
 51
358.8905824844815129
  0
ARC
  5
77A4
  8
0
 10
3642.7886171563868629
 20
314.2883831934876184
 30
0.0
 40
24.4505513738457587
 50
272.5215916812238106
 51
273.4264432182210953
  0
ARC
  5
77A5
  8
0
 10
3643.875321380162859
 20
289.6121591594300071
 30
0.0
 40
0.249589489092216
 50
92.5215916812237538
 51
175.0825442556171083
  0
ARC
  5
77A6
  8
0
 10
3642.0128952805989684
 20
257.4725499983094892
 30
0.0
 40
32.4418307635164709
 50
86.7283701180745652
 51
90.5484893398560615
  0
ARC
  5
77A7
  8
0
 10
3651.2835531635028019
 20
540.5008460683857265
 30
0.0
 40
250.7710535663042037
 50
265.9603192796182043
 51
267.8103655216867196
  0
ARC
  5
77A8
  8
0
 10
3633.4362463572601882
 20
291.3064950085384908
 30
0.0
 40
0.9413969002809265
 50
217.7189301005616073
 51
266.7735944544957079
  0
ARC
  5
77A9
  8
0
 10
3642.1912893782750871
 20
296.2998487872279156
 30
0.0
 40
11.0118772535442897
 50
205.6978528607943986
 51
210.3813482046647891
  0
ARC
  5
77AA
  8
0
 10
3650.6023831447701014
 20
300.561664659528617
 30
0.0
 40
20.4400000000008397
 50
199.9500803657699066
 51
206.2389483702881989
  0
ARC
  5
77AB
  8
0
 10
3650.60238244325501
 20
300.5616644170817722
 30
0.0
 40
20.4399992578598493
 50
196.1413400021843074
 51
199.9500803979044008
  0
ARC
  5
77AC
  8
0
 10
3650.5979296705709203
 20
300.5604245915969841
 30
0.0
 40
20.4353773376427803
 50
193.4831689858993116
 51
196.1414716537391882
  0
ARC
  5
77AD
  8
0
 10
3630.6090820252270532
 20
295.767727528512296
 30
0.0
 40
0.1200106504454364
 50
13.4874329183270607
 51
89.7473427278353171
  0
ARC
  5
77AE
  8
0
 10
3631.6009291033637965
 20
258.0330999984918776
 30
0.0
 40
32.3825772334928317
 50
86.4298642752570743
 51
86.8448514918043344
  0
ENDSEC
  0
EOF
