  0
SECTION
  2
HEADER
  9
$ACADVER
  1
AC1009
  9
$INSBASE
 10
3612.4132614000650392
 20
296.5800082425722053
 30
0.0
  9
$EXTMIN
 10
3600.8342839157648996
 20
288.5813551013578149
 30
0.0
  9
$EXTMAX
 10
3623.9922388843651788
 20
296.5847575040409083
 30
0.0
  9
$LIMMIN
 10
0.0
 20
0.0
  9
$LIMMAX
 10
11.6929133858000007
 20
8.2677165353999982
  9
$ORTHOMODE
 70
     0
  9
$REGENMODE
 70
     1
  9
$FILLMODE
 70
     1
  9
$QTEXTMODE
 70
     0
  9
$MIRRTEXT
 70
     0
  9
$DRAGMODE
 70
     2
  9
$LTSCALE
 40
0.6431102362
  9
$OSMODE
 70
  4095
  9
$ATTMODE
 70
     1
  9
$TEXTSIZE
 40
0.2
  9
$TRACEWID
 40
0.05
  9
$TEXTSTYLE
  7
STANDARD
  9
$CLAYER
  8
0
  9
$CELTYPE
  6
BYLAYER
  9
$CECOLOR
 62
   256
  9
$DIMSCALE
 40
1.0
  9
$DIMASZ
 40
0.1875
  9
$DIMEXO
 40
0.0625
  9
$DIMDLI
 40
0.4443307087
  9
$DIMRND
 40
0.0
  9
$DIMDLE
 40
0.0
  9
$DIMEXE
 40
0.125
  9
$DIMTP
 40
0.01
  9
$DIMTM
 40
0.01
  9
$DIMTXT
 40
2.0
  9
$DIMCEN
 40
0.1052362205
  9
$DIMTSZ
 40
0.0
  9
$DIMTOL
 70
     1
  9
$DIMLIM
 70
     0
  9
$DIMTIH
 70
     1
  9
$DIMTOH
 70
     1
  9
$DIMSE1
 70
     0
  9
$DIMSE2
 70
     0
  9
$DIMTAD
 70
     0
  9
$DIMZIN
 70
     0
  9
$DIMBLK
  1

  9
$DIMASO
 70
     1
  9
$DIMSHO
 70
     1
  9
$DIMPOST
  1
\X
  9
$DIMAPOST
  1

  9
$DIMALT
 70
     1
  9
$DIMALTD
 70
     2
  9
$DIMALTF
 40
25.3999999999999986
  9
$DIMLFAC
 40
1.0
  9
$DIMTOFL
 70
     0
  9
$DIMTVP
 40
0.0
  9
$DIMTIX
 70
     0
  9
$DIMSOXD
 70
     0
  9
$DIMSAH
 70
     0
  9
$DIMBLK1
  1

  9
$DIMBLK2
  1

  9
$DIMSTYLE
  2
STANDARD
  9
$DIMCLRD
 70
     0
  9
$DIMCLRE
 70
     0
  9
$DIMCLRT
 70
     0
  9
$DIMTFAC
 40
1.0
  9
$DIMGAP
 40
0.09
  9
$LUNITS
 70
     2
  9
$LUPREC
 70
     4
  9
$SKETCHINC
 40
0.1
  9
$FILLETRAD
 40
0.0
  9
$AUNITS
 70
     0
  9
$AUPREC
 70
     0
  9
$MENU
  1
.
  9
$ELEVATION
 40
0.0
  9
$PELEVATION
 40
0.0
  9
$THICKNESS
 40
0.0
  9
$LIMCHECK
 70
     0
  9
$BLIPMODE
 70
     0
  9
$CHAMFERA
 40
0.0
  9
$CHAMFERB
 40
0.0
  9
$SKPOLY
 70
     0
  9
$TDCREATE
 40
2458060.468368056230247
  9
$TDUPDATE
 40
2459117.7145486110821366
  9
$TDINDWG
 40
0.4673481134
  9
$TDUSRTIMER
 40
0.4673481134
  9
$USRTIMER
 70
     1
  9
$ANGBASE
 50
0.0
  9
$ANGDIR
 70
     0
  9
$PDMODE
 70
     0
  9
$PDSIZE
 40
0.3125
  9
$PLINEWID
 40
0.0
  9
$COORDS
 70
     1
  9
$SPLFRAME
 70
     0
  9
$SPLINETYPE
 70
     6
  9
$SPLINESEGS
 70
     8
  9
$ATTDIA
 70
     1
  9
$ATTREQ
 70
     1
  9
$HANDLING
 70
     1
  9
$HANDSEED
  5
7948
  9
$SURFTAB1
 70
     6
  9
$SURFTAB2
 70
     6
  9
$SURFTYPE
 70
     6
  9
$SURFU
 70
     6
  9
$SURFV
 70
     6
  9
$UCSNAME
  2

  9
$UCSORG
 10
0.0
 20
0.0
 30
0.0
  9
$UCSXDIR
 10
1.0
 20
0.0
 30
0.0
  9
$UCSYDIR
 10
0.0
 20
1.0
 30
0.0
  9
$PUCSNAME
  2

  9
$PUCSORG
 10
0.0
 20
0.0
 30
0.0
  9
$PUCSXDIR
 10
1.0
 20
0.0
 30
0.0
  9
$PUCSYDIR
 10
0.0
 20
1.0
 30
0.0
  9
$USERI1
 70
     0
  9
$USERI2
 70
     0
  9
$USERI3
 70
     0
  9
$USERI4
 70
     0
  9
$USERI5
 70
     0
  9
$USERR1
 40
0.0
  9
$USERR2
 40
0.0
  9
$USERR3
 40
0.0
  9
$USERR4
 40
0.0
  9
$USERR5
 40
0.0
  9
$WORLDVIEW
 70
     1
  9
$SHADEDGE
 70
     3
  9
$SHADEDIF
 70
    70
  9
$TILEMODE
 70
     1
  9
$MAXACTVP
 70
    64
  9
$PLIMCHECK
 70
     0
  9
$PEXTMIN
 10
1.0000000000000000E+20
 20
1.0000000000000000E+20
 30
1.0000000000000000E+20
  9
$PEXTMAX
 10
-1.0000000000000000E+20
 20
-1.0000000000000000E+20
 30
-1.0000000000000000E+20
  9
$PLIMMIN
 10
0.0
 20
0.0
  9
$PLIMMAX
 10
12.0
 20
9.0
  9
$UNITMODE
 70
     0
  9
$VISRETAIN
 70
     1
  9
$PLINEGEN
 70
     0
  9
$PSLTSCALE
 70
     1
  0
ENDSEC
  0
SECTION
  2
TABLES
  0
TABLE
  2
VPORT
 70
     1
  0
VPORT
  2
*ACTIVE
 70
     0
 10
0.0
 20
0.0
 11
1.0
 21
1.0
 12
0.0
 22
0.0
 13
0.0
 23
0.0
 14
1.0
 24
1.0
 15
0.0
 25
0.0
 16
0.0
 26
0.0
 36
69.4250427747858225
 17
3612.413330078125
 27
292.5830586836610792
 37
0.0
 40
24.5017168904661986
 41
2.1186252771618621
 42
50.0
 43
0.0
 44
0.0
 50
0.0
 51
0.0
 71
     0
 72
   100
 73
     1
 74
     1
 75
     0
 76
     0
 77
     0
 78
     0
  0
ENDTAB
  0
TABLE
  2
LTYPE
 70
     2
  0
LTYPE
  2
CONTINUOUS
 70
     0
  3
Solid line
 72
    65
 73
     0
 40
0.0
  0
LTYPE
  2
PHANTOM2
 70
     0
  3
___ _ _ ___ _ _ ___ _ _ ___ _ _
 72
    65
 73
     6
 40
1.25
 49
0.625
 49
-0.125
 49
0.125
 49
-0.125
 49
0.125
 49
-0.125
  0
ENDTAB
  0
TABLE
  2
LAYER
 70
     2
  0
LAYER
  2
0
 70
     0
 62
   255
  6
CONTINUOUS
  0
LAYER
  2
DEFPOINTS
 70
     0
 62
     7
  6
CONTINUOUS
  0
ENDTAB
  0
TABLE
  2
STYLE
 70
     1
  0
STYLE
  2
STANDARD
 70
     0
 40
0.0
 41
0.8
 50
0.0
 71
     0
 42
0.2
  3
txt
  4

  0
ENDTAB
  0
TABLE
  2
VIEW
 70
     0
  0
ENDTAB
  0
TABLE
  2
UCS
 70
     0
  0
ENDTAB
  0
TABLE
  2
APPID
 70
     9
  0
APPID
  2
ACAD
 70
     0
  0
APPID
  2
ACAD_MLEADERVER
 70
     0
  0
APPID
  2
ACAD_EXEMPT_FROM_CAD_STANDARDS
 70
     0
  0
APPID
  2
ACAD_NAV_VCDISPLAY
 70
     0
  0
APPID
  2
ACAECLAYERSTANDARD
 70
     0
  0
APPID
  2
ACCMTRANSPARENCY
 70
     0
  0
APPID
  2
ACAD_DSTYLE_DIMJAG
 70
     0
  0
APPID
  2
ACAD_DSTYLE_DIMTALN
 70
     0
  0
APPID
  2
ACDBATTR
 70
     0
  0
ENDTAB
  0
TABLE
  2
DIMSTYLE
 70
     1
  0
DIMSTYLE
  2
STANDARD
 70
     0
  3

  4

  5

  6

  7

 40
1.0
 41
0.1875
 42
0.0625
 43
0.38
 44
0.125
 45
0.0
 46
0.0
 47
0.01
 48
0.01
140
0.15625
141
0.09
142
0.0
143
25.3999999999999986
144
1.0
145
0.0
146
1.0
147
0.09
 71
     1
 72
     0
 73
     1
 74
     1
 75
     0
 76
     0
 77
     0
 78
     4
170
     0
171
     2
172
     0
173
     0
174
     0
175
     0
176
     0
177
     0
178
     0
  0
ENDTAB
  0
ENDSEC
  0
SECTION
  2
BLOCKS
  0
BLOCK
  8
0
  2
$MODEL_SPACE
 70
     0
 10
0.0
 20
0.0
 30
0.0
  3
$MODEL_SPACE
  1

  0
ENDBLK
  5
21
  8
0
  0
BLOCK
 67
     1
  8
0
  2
$PAPER_SPACE
 70
     0
 10
0.0
 20
0.0
 30
0.0
  3
$PAPER_SPACE
  1

  0
ENDBLK
  5
1D
 67
     1
  8
0
  0
BLOCK
  8
0
  2
_FILLED
 70
     0
 10
0.0
 20
0.0
 30
0.0
  3
_FILLED
  1

  0
SOLID
  5
75F5
  8
0
  6
BYBLOCK
 62
     0
 10
0.0
 20
0.0
 30
0.0
 11
-1.0
 21
0.1666666667
 31
0.0
 12
-1.0
 22
-0.1666666667
 32
0.0
 13
-1.0
 23
-0.1666666667
 33
0.0
  0
ENDBLK
  5
75F6
  8
0
  6
BYBLOCK
 62
     0
  0
ENDSEC
  0
SECTION
  2
ENTITIES
  0
ATTDEF
  5
3930
  8
DEFPOINTS
 10
3612.4138152650161828
 20
296.5837575040409888
 30
0.0
 40
0.001
  1
K-2215LM
  3

  2
MODELNUMBER
 70
     0
1001
ACDBATTR
1070
     0
1070
     1
  0
ATTDEF
  5
3931
  8
DEFPOINTS
 10
3612.4138152650161828
 20
296.5820908373743237
 30
0.0
 40
0.001
  1
LADENA
  3

  2
TRADENAME
 70
     0
1001
ACDBATTR
1070
     0
1070
     1
  0
ATTDEF
  5
3932
  8
DEFPOINTS
 10
3612.4138152650161828
 20
296.5804241707076017
 30
0.0
 40
0.001
  1
BATHROOM SINK
  3

  2
PRODUCT
 70
     0
1001
ACDBATTR
1070
     0
1070
     1
  0
LINE
  5
778C
  8
0
 10
3600.8344552238659162
 20
296.4484662479723056
 30
0.0
 11
3600.8507853916648855
 21
296.136868085172182
 31
0.0
  0
LINE
  5
778D
  8
0
 10
3611.0586777771650304
 20
288.6908964122723091
 30
0.0
 11
3610.9546433882651399
 21
289.8800149182723089
 31
0.0
  0
LINE
  5
778E
  8
0
 10
3611.1782229991658824
 20
288.5813551013721963
 30
0.0
 11
3613.648299800966015
 21
288.5813551013721963
 31
0.0
  0
LINE
  5
778F
  8
0
 10
3623.8672388843651788
 20
296.5800082425722053
 30
0.0
 11
3600.9592839157648996
 21
296.5800082425722053
 31
0.0
  0
LINE
  5
7790
  8
0
 10
3623.9757374084661024
 20
296.136868085172182
 30
0.0
 11
3623.9920675762659812
 21
296.4484662479723056
 31
0.0
  0
ARC
  5
7791
  8
0
 10
3600.9592839157648996
 20
296.455008242572319
 30
0.0
 40
0.125
 50
90.0
 51
182.9999999999006093
  0
ARC
  5
7792
  8
0
 10
3623.8672388843651788
 20
296.455008242572319
 30
0.0
 40
0.125
 50
357.0000000000993055
 51
90.0
  0
ARC
  5
7793
  8
0
 10
3611.1782211409918091
 20
288.7013551013852179
 30
0.0
 40
0.1200000000273812
 50
185.0000000277834999
 51
270.0008872125583252
  0
ARC
  5
7794
  8
0
 10
3601.4890646426028979
 20
295.9594935293254139
 30
0.0
 40
0.1205166188683754
 50
7.7899024780728148
 51
89.6777944176475614
  0
ARC
  5
7795
  8
0
 10
3623.9158196364651303
 20
296.1400082425722076
 30
0.0
 40
0.06
 50
270.0
 51
357.0000000000003979
  0
ARC
  5
7796
  8
0
 10
3600.9107031636649481
 20
296.1400082425722076
 30
0.0
 40
0.06
 50
182.9999999999996021
 51
270.0
  0
ARC
  5
7797
  8
0
 10
3631.9718376568821441
 20
299.9906358035984226
 30
0.0
 40
30.6276480956479311
 50
187.5322609973721057
 51
191.2062429532765009
  0
ARC
  5
7798
  8
0
 10
3603.0964866641261324
 20
294.2698926593844249
 30
0.0
 40
1.1910586689343901
 50
191.2062429532765009
 51
233.7838566294975919
  0
ARC
  5
7799
  8
0
 10
3612.4510982041160787
 20
307.0437952109861044
 30
0.0
 40
17.0239782816254213
 50
233.7838566294975919
 51
264.2005747314291852
  0
ARC
  5
779A
  8
0
 10
3610.7057704923181518
 20
289.8584071593058979
 30
0.0
 40
0.2498091543253067
 50
4.9621175500143639
 51
84.2293680192747019
  0
LINE
  5
779B
  8
0
 10
3600.9107031636649481
 20
296.080008242572319
 30
0.0
 11
3623.9158196364651303
 21
296.080008242572319
 31
0.0
  0
LINE
  5
779C
  8
0
 10
3613.767845022965048
 20
288.6908964122723091
 30
0.0
 11
3613.8718794118658479
 21
289.8800149182723089
 31
0.0
  0
ARC
  5
779D
  8
0
 10
3613.6483016591391788
 20
288.7013551013852179
 30
0.0
 40
0.12000000002738
 50
269.9991127874416748
 51
354.9999999722164716
  0
ARC
  5
779E
  8
0
 10
3623.3374581575258162
 20
295.9594935293254139
 30
0.0
 40
0.1205166188683754
 50
90.3222055823524244
 51
172.2100975219271959
  0
ARC
  5
779F
  8
0
 10
3592.8546851432488438
 20
299.9906358035984226
 30
0.0
 40
30.6276480956479311
 50
348.7937570467234991
 51
352.467739002627809
  0
ARC
  5
77A0
  8
0
 10
3621.7300361360048555
 20
294.2698926593844249
 30
0.0
 40
1.1910586689343901
 50
306.2161433705023796
 51
348.7937570467234991
  0
ARC
  5
77A1
  8
0
 10
3612.3754245960139997
 20
307.0437952109861044
 30
0.0
 40
17.0239782816254213
 50
275.7994252685708148
 51
306.2161433705023796
  0
ARC
  5
77A2
  8
0
 10
3614.1207523078119266
 20
289.8584071593058979
 30
0.0
 40
0.2498091543253067
 50
95.7706319807253124
 51
175.0378824499856023
  0
ARC
  5
77A3
  8
0
 10
3615.0829361857117874
 20
295.9624023585893724
 30
0.0
 40
0.1182827369129198
 50
96.1324133448340348
 51
170.5907111547932971
  0
ARC
  5
77A4
  8
0
 10
3813.1754689694021181
 20
273.7364022775798276
 30
0.0
 40
199.4536326250523928
 50
173.5963999158678917
 51
173.8663314616995024
  0
ARC
  5
77A5
  8
0
 10
3610.6605883874431129
 20
295.7099901160058266
 30
0.0
 40
4.2549150520863011
 50
330.712976996604084
 51
351.0452553099847819
  0
ARC
  5
77A6
  8
0
 10
3622.5122134619800818
 20
289.2567641536239194
 30
0.0
 40
9.2402076122264116
 50
151.7625734066596124
 51
159.2582949663469947
  0
ARC
  5
77A7
  8
0
 10
3616.3161019821709488
 20
291.6461576467298755
 30
0.0
 40
2.599780549435565
 50
160.142977294292109
 51
179.710376102571189
  0
ARC
  5
77A8
  8
0
 10
3646.4236522575770323
 20
291.7363423433681078
 30
0.0
 40
32.7073883489636188
 50
180.1349618979195952
 51
181.5833974914721978
  0
ARC
  5
77A9
  8
0
 10
3604.2755367589979869
 20
289.5040663258287168
 30
0.0
 40
9.5461102699278815
 50
2.2459700177232249
 51
7.9996622817212533
  0
ARC
  5
77AA
  8
0
 10
3612.1811275859658963
 20
290.4043928068176115
 30
0.0
 40
1.715868018821602
 50
310.2579228122741029
 51
342.1408585437068837
  0
ARC
  5
77AB
  8
0
 10
3612.3929943354769421
 20
290.1541958590512991
 30
0.0
 40
1.3880173939633229
 50
290.2965757877752253
 51
310.2579228122741029
  0
ARC
  5
77AC
  8
0
 10
3612.4053987261368093
 20
290.1206562737243075
 30
0.0
 40
1.3522574625938111
 50
270.3331470394412008
 51
290.2965757877752253
  0
ARC
  5
77AD
  8
0
 10
3609.7435866144178362
 20
295.9624023585893724
 30
0.0
 40
0.1182827369129198
 50
9.4092888452066745
 51
83.867586655165951
  0
ARC
  5
77AE
  8
0
 10
3411.6510538307270508
 20
273.7364022775798276
 30
0.0
 40
199.4536326250523928
 50
6.1336685383004736
 51
6.403600084132079
  0
ARC
  5
77AF
  8
0
 10
3614.1659344126869655
 20
295.7099901160058266
 30
0.0
 40
4.2549150520863011
 50
188.9547446900151044
 51
209.2870230033958023
  0
ARC
  5
77B0
  8
0
 10
3602.3143093381499966
 20
289.2567641536239194
 30
0.0
 40
9.2402076122264116
 50
20.7417050336529805
 51
28.2374265933403414
  0
ARC
  5
77B1
  8
0
 10
3608.5104208179591296
 20
291.6461576467298755
 30
0.0
 40
2.599780549435565
 50
0.2896238974288054
 51
19.8570227057078803
  0
ARC
  5
77B2
  8
0
 10
3578.4028705425539556
 20
291.7363423433681078
 30
0.0
 40
32.7073883489636188
 50
358.416602508527717
 51
359.8650381020802911
  0
ARC
  5
77B3
  8
0
 10
3620.550986041133001
 20
289.5040663258287168
 30
0.0
 40
9.5461102699278815
 50
172.0003377182787005
 51
177.7540299822767054
  0
ARC
  5
77B4
  8
0
 10
3612.6453952141650916
 20
290.4043928068176115
 30
0.0
 40
1.715868018821602
 50
197.8591414562930026
 51
229.7420771877260108
  0
ARC
  5
77B5
  8
0
 10
3612.4335284646540458
 20
290.1541958590512991
 30
0.0
 40
1.3880173939633229
 50
229.7420771877260108
 51
249.7034242122248031
  0
ARC
  5
77B6
  8
0
 10
3612.4211240739928144
 20
290.1206562737243075
 30
0.0
 40
1.3522574625937931
 50
249.7034242122248031
 51
269.6668529605587992
  0
ENDSEC
  0
EOF
