  0
SECTION
  2
HEADER
  9
$ACADVER
  1
AC1009
  9
$INSBASE
 10
3330.9678522785511632
 20
171.7407363831366069
 30
0.0
  9
$EXTMIN
 10
3322.2178522785511632
 20
163.8107363831366001
 30
0.0
  9
$EXTMAX
 10
3339.7178522785511632
 20
172.3107363831366001
 30
0.0
  9
$LIMMIN
 10
0.0
 20
0.0
  9
$LIMMAX
 10
11.6929133858000007
 20
8.2677165353999982
  9
$ORTHOMODE
 70
     1
  9
$REGENMODE
 70
     1
  9
$FILLMODE
 70
     1
  9
$QTEXTMODE
 70
     0
  9
$MIRRTEXT
 70
     0
  9
$DRAGMODE
 70
     2
  9
$LTSCALE
 40
0.6431102362
  9
$OSMODE
 70
    37
  9
$ATTMODE
 70
     1
  9
$TEXTSIZE
 40
0.2
  9
$TRACEWID
 40
0.05
  9
$TEXTSTYLE
  7
STANDARD
  9
$CLAYER
  8
0
  9
$CELTYPE
  6
BYLAYER
  9
$CECOLOR
 62
   256
  9
$DIMSCALE
 40
1.0
  9
$DIMASZ
 40
0.1875
  9
$DIMEXO
 40
0.0625
  9
$DIMDLI
 40
0.4443307087
  9
$DIMRND
 40
0.0
  9
$DIMDLE
 40
0.0
  9
$DIMEXE
 40
0.125
  9
$DIMTP
 40
0.01
  9
$DIMTM
 40
0.01
  9
$DIMTXT
 40
2.0
  9
$DIMCEN
 40
0.1052362205
  9
$DIMTSZ
 40
0.0
  9
$DIMTOL
 70
     1
  9
$DIMLIM
 70
     0
  9
$DIMTIH
 70
     1
  9
$DIMTOH
 70
     1
  9
$DIMSE1
 70
     0
  9
$DIMSE2
 70
     0
  9
$DIMTAD
 70
     0
  9
$DIMZIN
 70
     0
  9
$DIMBLK
  1

  9
$DIMASO
 70
     1
  9
$DIMSHO
 70
     1
  9
$DIMPOST
  1
\X
  9
$DIMAPOST
  1

  9
$DIMALT
 70
     1
  9
$DIMALTD
 70
     2
  9
$DIMALTF
 40
25.3999999999999986
  9
$DIMLFAC
 40
1.0
  9
$DIMTOFL
 70
     0
  9
$DIMTVP
 40
0.0
  9
$DIMTIX
 70
     0
  9
$DIMSOXD
 70
     0
  9
$DIMSAH
 70
     0
  9
$DIMBLK1
  1

  9
$DIMBLK2
  1

  9
$DIMSTYLE
  2
STANDARD
  9
$DIMCLRD
 70
     0
  9
$DIMCLRE
 70
     0
  9
$DIMCLRT
 70
     0
  9
$DIMTFAC
 40
1.0
  9
$DIMGAP
 40
0.09
  9
$LUNITS
 70
     2
  9
$LUPREC
 70
     4
  9
$SKETCHINC
 40
0.1
  9
$FILLETRAD
 40
0.0
  9
$AUNITS
 70
     0
  9
$AUPREC
 70
     0
  9
$MENU
  1
.
  9
$ELEVATION
 40
0.0
  9
$PELEVATION
 40
0.0
  9
$THICKNESS
 40
0.0
  9
$LIMCHECK
 70
     0
  9
$BLIPMODE
 70
     0
  9
$CHAMFERA
 40
0.0
  9
$CHAMFERB
 40
0.0
  9
$SKPOLY
 70
     0
  9
$TDCREATE
 40
2458060.468368056230247
  9
$TDUPDATE
 40
2458966.4328240752220154
  9
$TDINDWG
 40
0.496847338
  9
$TDUSRTIMER
 40
0.496847338
  9
$USRTIMER
 70
     1
  9
$ANGBASE
 50
0.0
  9
$ANGDIR
 70
     0
  9
$PDMODE
 70
     0
  9
$PDSIZE
 40
0.3125
  9
$PLINEWID
 40
0.0
  9
$COORDS
 70
     1
  9
$SPLFRAME
 70
     0
  9
$SPLINETYPE
 70
     6
  9
$SPLINESEGS
 70
     8
  9
$ATTDIA
 70
     1
  9
$ATTREQ
 70
     1
  9
$HANDLING
 70
     1
  9
$HANDSEED
  5
8DD6
  9
$SURFTAB1
 70
     6
  9
$SURFTAB2
 70
     6
  9
$SURFTYPE
 70
     6
  9
$SURFU
 70
     6
  9
$SURFV
 70
     6
  9
$UCSNAME
  2

  9
$UCSORG
 10
0.0
 20
0.0
 30
0.0
  9
$UCSXDIR
 10
1.0
 20
0.0
 30
0.0
  9
$UCSYDIR
 10
0.0
 20
1.0
 30
0.0
  9
$PUCSNAME
  2

  9
$PUCSORG
 10
0.0
 20
0.0
 30
0.0
  9
$PUCSXDIR
 10
1.0
 20
0.0
 30
0.0
  9
$PUCSYDIR
 10
0.0
 20
1.0
 30
0.0
  9
$USERI1
 70
     0
  9
$USERI2
 70
     0
  9
$USERI3
 70
     0
  9
$USERI4
 70
     0
  9
$USERI5
 70
     0
  9
$USERR1
 40
0.0
  9
$USERR2
 40
0.0
  9
$USERR3
 40
0.0
  9
$USERR4
 40
0.0
  9
$USERR5
 40
0.0
  9
$WORLDVIEW
 70
     1
  9
$SHADEDGE
 70
     3
  9
$SHADEDIF
 70
    70
  9
$TILEMODE
 70
     1
  9
$MAXACTVP
 70
    64
  9
$PLIMCHECK
 70
     0
  9
$PEXTMIN
 10
1.0000000000000000E+20
 20
1.0000000000000000E+20
 30
1.0000000000000000E+20
  9
$PEXTMAX
 10
-1.0000000000000000E+20
 20
-1.0000000000000000E+20
 30
-1.0000000000000000E+20
  9
$PLIMMIN
 10
0.0
 20
0.0
  9
$PLIMMAX
 10
12.0
 20
9.0
  9
$UNITMODE
 70
     0
  9
$VISRETAIN
 70
     1
  9
$PLINEGEN
 70
     0
  9
$PSLTSCALE
 70
     1
  0
ENDSEC
  0
SECTION
  2
TABLES
  0
TABLE
  2
VPORT
 70
     1
  0
VPORT
  2
*ACTIVE
 70
     0
 10
0.0
 20
0.0
 11
1.0
 21
1.0
 12
27.29203615804553
 22
-23.5165857142949193
 13
0.0
 23
0.0
 14
1.0
 24
1.0
 15
0.0
 25
0.0
 16
0.0
 26
0.0
 36
96.5995694866707311
 17
3303.693115234375
 27
195.2615115758877096
 37
0.0
 40
0.0335789782389297
 41
4.1189024390243896
 42
50.0
 43
0.0
 44
0.0
 50
0.0
 51
0.0
 71
     0
 72
   100
 73
     1
 74
     1
 75
     0
 76
     0
 77
     0
 78
     0
  0
ENDTAB
  0
TABLE
  2
LTYPE
 70
     2
  0
LTYPE
  2
CONTINUOUS
 70
     0
  3
Solid line
 72
    65
 73
     0
 40
0.0
  0
LTYPE
  2
PHANTOM2
 70
     0
  3
___ _ _ ___ _ _ ___ _ _ ___ _ _
 72
    65
 73
     6
 40
1.25
 49
0.625
 49
-0.125
 49
0.125
 49
-0.125
 49
0.125
 49
-0.125
  0
ENDTAB
  0
TABLE
  2
LAYER
 70
     2
  0
LAYER
  2
0
 70
     0
 62
   255
  6
CONTINUOUS
  0
LAYER
  2
DEFPOINTS
 70
     0
 62
     7
  6
CONTINUOUS
  0
ENDTAB
  0
TABLE
  2
STYLE
 70
     1
  0
STYLE
  2
STANDARD
 70
     0
 40
0.0
 41
0.8
 50
0.0
 71
     0
 42
0.2
  3
txt
  4

  0
ENDTAB
  0
TABLE
  2
VIEW
 70
     0
  0
ENDTAB
  0
TABLE
  2
UCS
 70
     0
  0
ENDTAB
  0
TABLE
  2
APPID
 70
     9
  0
APPID
  2
ACAD
 70
     0
  0
APPID
  2
ACAD_MLEADERVER
 70
     0
  0
APPID
  2
ACAD_EXEMPT_FROM_CAD_STANDARDS
 70
     0
  0
APPID
  2
ACAD_NAV_VCDISPLAY
 70
     0
  0
APPID
  2
ACAECLAYERSTANDARD
 70
     0
  0
APPID
  2
ACCMTRANSPARENCY
 70
     0
  0
APPID
  2
ACAD_DSTYLE_DIMJAG
 70
     0
  0
APPID
  2
ACAD_DSTYLE_DIMTALN
 70
     0
  0
APPID
  2
ACDBATTR
 70
     0
  0
ENDTAB
  0
TABLE
  2
DIMSTYLE
 70
     1
  0
DIMSTYLE
  2
STANDARD
 70
     0
  3

  4

  5

  6

  7

 40
1.0
 41
0.1875
 42
0.0625
 43
0.38
 44
0.125
 45
0.0
 46
0.0
 47
0.01
 48
0.01
140
0.15625
141
0.09
142
0.0
143
25.3999999999999986
144
1.0
145
0.0
146
1.0
147
0.09
 71
     1
 72
     0
 73
     1
 74
     1
 75
     0
 76
     0
 77
     0
 78
     4
170
     0
171
     2
172
     0
173
     0
174
     0
175
     0
176
     0
177
     0
178
     0
  0
ENDTAB
  0
ENDSEC
  0
SECTION
  2
BLOCKS
  0
BLOCK
  8
0
  2
$MODEL_SPACE
 70
     0
 10
0.0
 20
0.0
 30
0.0
  3
$MODEL_SPACE
  1

  0
ENDBLK
  5
21
  8
0
  0
BLOCK
 67
     1
  8
0
  2
$PAPER_SPACE
 70
     0
 10
0.0
 20
0.0
 30
0.0
  3
$PAPER_SPACE
  1

  0
ENDBLK
  5
1D
 67
     1
  8
0
  0
BLOCK
  8
0
  2
_FILLED
 70
     0
 10
0.0
 20
0.0
 30
0.0
  3
_FILLED
  1

  0
SOLID
  5
885B
  8
0
  6
BYBLOCK
 62
     0
 10
0.0
 20
0.0
 30
0.0
 11
-1.0
 21
0.1666666667
 31
0.0
 12
-1.0
 22
-0.1666666667
 32
0.0
 13
-1.0
 23
-0.1666666667
 33
0.0
  0
ENDBLK
  5
885C
  8
0
  6
BYBLOCK
 62
     0
  0
ENDSEC
  0
SECTION
  2
ENTITIES
  0
LINE
  5
88AC
  8
0
 10
3339.7178522785511632
 20
171.7407363831366069
 30
0.0
 11
3339.7178522785511632
 21
171.9357363831366001
 31
0.0
  0
ARC
  5
88AD
  8
0
 10
3339.3428522785511632
 20
171.9357363831366001
 30
0.0
 40
0.3749999999999929
 50
359.9999999999968168
 51
90.0
  0
LINE
  5
88AE
  8
0
 10
3339.3428522785511632
 20
172.3107363831366001
 30
0.0
 11
3322.5928522785511632
 21
172.3107363831360033
 31
0.0
  0
ARC
  5
88AF
  8
0
 10
3322.5928522785511632
 20
171.9357363831358896
 30
0.0
 40
0.375000000000016
 50
90.0
 51
179.9999999999006093
  0
LINE
  5
88B0
  8
0
 10
3322.2178522785511632
 20
171.9357363831366001
 30
0.0
 11
3322.2178522785511632
 21
171.7407363831366069
 31
0.0
  0
LINE
  5
88B1
  8
0
 10
3322.2178522785511632
 20
171.7407363831366069
 30
0.0
 11
3339.7178522785511632
 21
171.7407363831366069
 31
0.0
  0
LINE
  5
88B2
  8
0
 10
3339.4678522785511632
 20
171.7407363831366069
 30
0.0
 11
3339.466425571416039
 21
171.7244290469189991
 31
0.0
  0
ARC
  5
88B3
  8
0
 10
3339.4514826241579613
 20
171.725736396349788
 30
0.0
 40
0.0150000278434365
 50
270.0001023445004193
 51
354.9999583484736831
  0
LINE
  5
88B4
  8
0
 10
3339.4514826509521299
 20
171.7107363685063888
 30
0.0
 11
3322.4842219060510615
 21
171.7107363685063888
 31
0.0
  0
ARC
  5
88B5
  8
0
 10
3322.4842219328597821
 20
171.7257363963659031
 30
0.0
 40
0.0150000278595365
 50
185.0000416404986083
 51
269.9998975991163093
  0
LINE
  5
88B6
  8
0
 10
3322.4692789855848787
 20
171.7244290469365922
 30
0.0
 11
3322.4678522784611232
 21
171.7407363831374028
 31
0.0
  0
ARC
  5
88B7
  8
0
 10
3322.9959995697518025
 20
171.5907363831366013
 30
0.0
 40
0.1200000000000028
 50
49.6763162675930587
 51
90.0
  0
ARC
  5
88B8
  8
0
 10
3322.9959995697690829
 20
171.5907363831578039
 30
0.0
 40
0.1199999999722295
 50
9.3525522384821933
 51
49.6763162675920285
  0
ARC
  5
88B9
  8
0
 10
679146.4771079305792227
 20
111478.5201272483973298
 30
0.0
 40
684928.0588244998361915
 50
189.3525522384821898
 51
189.3527128366438887
  0
ARC
  5
88BA
  8
0
 10
3326.3865383658330757
 20
170.2034661801922084
 30
0.0
 40
3.0000221697417069
 50
189.3527128366438887
 51
210.8303388556875859
  0
ARC
  5
88BB
  8
0
 10
3331.7507813224251549
 20
173.4050477877956951
 30
0.0
 40
9.2470396411031182
 50
210.8303388556875859
 51
235.7367830381735985
  0
ARC
  5
88BC
  8
0
 10
3331.7552849579360554
 20
173.4116589837229867
 30
0.0
 40
9.2550390563568872
 50
235.7367830381735985
 51
250.0897070005763965
  0
ARC
  5
88BD
  8
0
 10
3331.7514964616921134
 20
173.4011992498143115
 30
0.0
 40
9.2439143659238763
 50
250.0897070005763965
 51
262.9419095827523165
  0
ARC
  5
88BE
  8
0
 10
3330.5628934058781851
 20
163.8012787439892861
 30
0.0
 40
0.4293090338766353
 50
13.4891422533836192
 51
82.9419095827523734
  0
ARC
  5
88BF
  8
0
 10
3331.0952360400629004
 20
163.9289762125627021
 30
0.0
 40
0.1181353227938767
 50
193.4891422533819991
 51
267.1344767522990082
  0
ARC
  5
88C0
  8
0
 10
3333.5719254692671711
 20
163.9307363301685996
 30
0.0
 40
0.1199999470320357
 50
269.9999705268572257
 51
355.5000233721082736
  0
LINE
  5
88C1
  8
0
 10
3333.6915555003511145
 20
163.9213212916365876
 30
0.0
 11
3333.7957286178520917
 21
165.2449662496366045
 31
0.0
  0
ARC
  5
88C2
  8
0
 10
3333.6063137910700789
 20
165.2598735198129987
 30
0.0
 40
0.1900005350226193
 50
355.499999996746908
 51
2.4148418721105789
  0
ARC
  5
88C3
  8
0
 10
3333.8539550568689265
 20
165.2720060219618858
 30
0.0
 40
0.0579565814526654
 50
112.1928601657901936
 51
184.0833331201513943
  0
ARC
  5
88C4
  8
0
 10
3333.8998148440628029
 20
165.1778446628082122
 30
0.0
 40
0.1626109104084439
 50
93.546539394769411
 51
114.623122448117897
  0
LINE
  5
88C5
  8
0
 10
3333.8897558518619917
 20
165.3401441540574126
 30
0.0
 11
3333.9882673206479922
 21
165.338120635427714
 31
0.0
  0
ARC
  5
88C6
  8
0
 10
3333.8863989816181856
 20
164.3177271553358878
 30
0.0
 40
1.0254657540409471
 50
81.6555285608634307
 51
84.2989142172114612
  0
ARC
  5
88C7
  8
0
 10
3334.0625410310099141
 20
165.5203627939525006
 30
0.0
 40
0.1900007611919417
 50
261.7321911607202196
 51
290.802936513756606
  0
ARC
  5
88C8
  8
0
 10
3333.6404789666771649
 20
166.6416673712554086
 30
0.0
 40
1.388106965780826
 50
290.650626643571286
 51
326.5749442986855797
  0
ARC
  5
88C9
  8
0
 10
3333.3833252321051077
 20
166.7825232719727069
 30
0.0
 40
1.680491878165939
 50
327.3964052002979201
 51
354.0985285918933982
  0
ARC
  5
88CA
  8
0
 10
3329.2274736894519265
 20
167.2110333770795023
 30
0.0
 40
5.8583768255881994
 50
354.1088721306604725
 51
357.743943688479078
  0
LINE
  5
88CB
  8
0
 10
3335.0813095809521656
 20
166.980415940236611
 30
0.0
 11
3335.3148501643518102
 21
171.5968010520365965
 31
0.0
  0
ARC
  5
88CC
  8
0
 10
3335.434697919158225
 20
171.5907352222154998
 30
0.0
 40
0.1200011609265987
 50
90.0005470010868436
 51
177.1025728504608878
  0
ARC
  5
88CD
  8
0
 10
3331.3682595389368544
 20
163.89589133988801
 30
0.0
 40
0.0851937332910896
 50
220.0591770351531125
 51
268.2712396034775111
  0
ARC
  5
88CE
  8
0
 10
3331.4049624261338067
 20
163.9275515179419926
 30
0.0
 40
0.1336625990223276
 50
182.6718555033843074
 51
220.3210392652266876
  0
ARC
  5
88CF
  8
0
 10
3330.7071926723601791
 20
164.3727852291727061
 30
0.0
 40
0.7226347839098798
 50
321.336320395209782
 51
341.1216369681441165
  0
ARC
  5
88D0
  8
0
 10
3330.6705084098839507
 20
164.3847448599813958
 30
0.0
 40
0.7612155730225516
 50
341.1632809830292103
 51
2.9808837268921131
  0
LINE
  5
88D1
  8
0
 10
3331.4306940130518342
 20
164.4243301773365999
 30
0.0
 11
3331.3865061891801815
 21
165.2563549921071058
 31
0.0
  0
ARC
  5
88D2
  8
0
 10
3333.2818147434450111
 20
154.1943476793908019
 30
0.0
 40
11.0625620113682608
 50
87.3373530328186405
 51
89.144519063009426
  0
ARC
  5
88D3
  8
0
 10
3333.026116739131794
 20
137.0703020851821066
 30
0.0
 40
28.1885165543547309
 50
89.1445173705417631
 51
90.0214099275622033
  0
ARC
  5
88D4
  8
0
 10
3332.9989931073791922
 20
209.6567014640893092
 30
0.0
 40
44.3978878922467786
 50
269.3673989094517083
 51
270.0214099275622175
  0
ARC
  5
88D5
  8
0
 10
3333.1553085271912096
 20
-97.1679972701163166
 30
0.0
 40
262.430313268033899
 50
90.1411492159702021
 51
90.3861812869157717
  0
ARC
  5
88D6
  8
0
 10
3331.4068664857409203
 20
167.4881850995892023
 30
0.0
 40
2.2319231001565418
 50
262.2253801480705988
 51
269.4773230026108877
  0
ARC
  5
88D7
  8
0
 10
3331.9337485502451273
 20
174.0787443952247031
 30
0.0
 40
8.8409012311095694
 50
251.4391286223176962
 51
264.6207854092618845
  0
ARC
  5
88D8
  8
0
 10
3331.7078612600371343
 20
173.306232991976799
 30
0.0
 40
8.0367313565749914
 50
236.145696640483294
 51
251.2126916784260118
  0
ARC
  5
88D9
  8
0
 10
3331.7413614452830188
 20
173.3411308262114119
 30
0.0
 40
8.0843792269006354
 50
214.2718181264415875
 51
236.0863094767080952
  0
ARC
  5
88DA
  8
0
 10
3331.7287607702728565
 20
173.3322169038237917
 30
0.0
 40
8.0689467390504444
 50
192.4136640413084081
 51
214.2698969531234923
  0
LINE
  5
88DB
  8
0
 10
3323.8484576147511689
 20
171.5976496221366006
 30
0.0
 11
3323.8484996551787845
 21
171.7107363831366058
 31
0.0
  0
ARC
  5
88DC
  8
0
 10
3331.7063172291727824
 20
149.2871462399521079
 30
0.0
 40
15.1396862443440199
 50
91.043145738695884
 51
92.2366627244647361
  0
ARC
  5
88DD
  8
0
 10
3331.754987658859136
 20
173.4012935047217923
 30
0.0
 40
9.0087240490531357
 50
250.1002285077794909
 51
265.9291427717076886
  0
ARC
  5
88DE
  8
0
 10
3331.7547871453189146
 20
173.3964332753496933
 30
0.0
 40
9.0040858958304906
 50
235.7363611828735088
 51
250.0909014006884092
  0
ARC
  5
88DF
  8
0
 10
3331.7530686981858707
 20
173.3928371535332076
 30
0.0
 40
9.000146391941902
 50
210.8348019390332126
 51
235.7325135022678921
  0
ARC
  5
88E0
  8
0
 10
3326.3873813112991229
 20
170.1893196656932901
 30
0.0
 40
2.7508964522409292
 50
189.3547483216121066
 51
210.8257362675138893
  0
ARC
  5
88E1
  8
0
 10
-324927.0780343541991897
 20
-53891.5979435422777897
 30
0.0
 40
332672.788329814618919
 50
9.3523862514171547
 51
9.3527101222555284
  0
LINE
  5
88E2
  8
0
 10
3323.3674763985509344
 20
171.5976438994366049
 30
0.0
 11
3323.367439805174854
 21
171.663122025686107
 31
0.0
  0
ARC
  5
88E3
  8
0
 10
3308.7592618535991278
 20
171.7260186046819115
 30
0.0
 40
14.6083133538598808
 50
359.753310353557481
 51
359.8985617219382789
  0
ARC
  5
88E4
  8
0
 10
3323.2502484264891791
 20
171.6964233314944011
 30
0.0
 40
0.1173632463562294
 50
1.8223671853616259
 51
5.9740964035085371
  0
ARC
  5
88E5
  8
0
 10
3323.3734023122851795
 20
171.7093217367682882
 30
0.0
 40
0.0064642566536365
 50
173.727914040549507
 51
186.068428811526303
  0
ARC
  5
88E6
  8
0
 10
3323.3679961909328995
 20
171.7099731858340022
 30
0.0
 40
0.0010209124754228
 50
140.7232508711927892
 51
176.9246424441437
  0
ARC
  5
88E7
  8
0
 10
3323.3674730809188986
 20
171.7103726473455936
 30
0.0
 40
0.0003637510368066
 50
89.4754196347533366
 51
89.4755509047732147
  0
ARC
  5
88E8
  8
0
 10
3323.3674730809188986
 20
171.7103726473455936
 30
0.0
 40
0.0003637510368066
 50
90.5244490952267711
 51
137.2650562151843872
  0
LINE
  5
88E9
  8
0
 10
3333.5719254075388562
 20
163.8107363831366001
 30
0.0
 11
3331.365689415838915
 21
163.8107363831366001
 31
0.0
  0
LINE
  5
88EA
  8
0
 10
3331.0893302227018467
 20
163.8109886038365914
 30
0.0
 11
3331.365689415838915
 21
163.8107363831366001
 31
0.0
  0
ATTDEF
  5
88EE
  8
DEFPOINTS
 10
3330.9519708497668944
 20
171.7456142191950903
 30
0.0
 40
0.001
  1
K-2196T-8
  3

  2
MODELNUMBER
 70
     0
1001
ACDBATTR
1070
     0
1070
     1
  0
ATTDEF
  5
88EF
  8
DEFPOINTS
 10
3330.9519708497668944
 20
171.7439475525283967
 30
0.0
 40
0.001
  1
PENNINGTON
  3

  2
TRADENAME
 70
     0
1001
ACDBATTR
1070
     0
1070
     1
  0
ATTDEF
  5
88F0
  8
DEFPOINTS
 10
3330.9519708497668944
 20
171.7422808858617884
 30
0.0
 40
0.001
  1
BATHROOM SINK
  3

  2
PRODUCT
 70
     0
1001
ACDBATTR
1070
     0
1070
     1
  0
ENDSEC
  0
EOF
