  0
SECTION
  2
HEADER
  9
$ACADVER
  1
AC1009
  9
$INSBASE
 10
3151.7944671227810431
 20
143.1510353213853932
 30
0.0
  9
$EXTMIN
 10
3145.4943453207911261
 20
143.1324390483258071
 30
-0.0000000000112498
  9
$EXTMAX
 10
3158.1145679628830294
 20
182.580698766118104
 30
0.0000000000002956
  9
$LIMMIN
 10
0.0
 20
0.0
  9
$LIMMAX
 10
11.6929133858000007
 20
8.2677165353999982
  9
$ORTHOMODE
 70
     1
  9
$REGENMODE
 70
     1
  9
$FILLMODE
 70
     1
  9
$QTEXTMODE
 70
     0
  9
$MIRRTEXT
 70
     0
  9
$DRAGMODE
 70
     2
  9
$LTSCALE
 40
0.6431102362
  9
$OSMODE
 70
   575
  9
$ATTMODE
 70
     1
  9
$TEXTSIZE
 40
0.2
  9
$TRACEWID
 40
0.05
  9
$TEXTSTYLE
  7
STANDARD
  9
$CLAYER
  8
0
  9
$CELTYPE
  6
BYLAYER
  9
$CECOLOR
 62
   256
  9
$DIMSCALE
 40
1.0
  9
$DIMASZ
 40
0.1875
  9
$DIMEXO
 40
0.0625
  9
$DIMDLI
 40
0.4443307087
  9
$DIMRND
 40
0.0
  9
$DIMDLE
 40
0.0
  9
$DIMEXE
 40
0.125
  9
$DIMTP
 40
0.01
  9
$DIMTM
 40
0.01
  9
$DIMTXT
 40
2.0
  9
$DIMCEN
 40
0.1052362205
  9
$DIMTSZ
 40
0.0
  9
$DIMTOL
 70
     1
  9
$DIMLIM
 70
     0
  9
$DIMTIH
 70
     1
  9
$DIMTOH
 70
     1
  9
$DIMSE1
 70
     0
  9
$DIMSE2
 70
     0
  9
$DIMTAD
 70
     0
  9
$DIMZIN
 70
     0
  9
$DIMBLK
  1

  9
$DIMASO
 70
     1
  9
$DIMSHO
 70
     1
  9
$DIMPOST
  1
\X
  9
$DIMAPOST
  1

  9
$DIMALT
 70
     1
  9
$DIMALTD
 70
     2
  9
$DIMALTF
 40
25.3999999999999986
  9
$DIMLFAC
 40
1.0
  9
$DIMTOFL
 70
     0
  9
$DIMTVP
 40
0.0
  9
$DIMTIX
 70
     0
  9
$DIMSOXD
 70
     0
  9
$DIMSAH
 70
     0
  9
$DIMBLK1
  1

  9
$DIMBLK2
  1

  9
$DIMSTYLE
  2
STANDARD
  9
$DIMCLRD
 70
     0
  9
$DIMCLRE
 70
     0
  9
$DIMCLRT
 70
     0
  9
$DIMTFAC
 40
1.0
  9
$DIMGAP
 40
0.09
  9
$LUNITS
 70
     2
  9
$LUPREC
 70
     4
  9
$SKETCHINC
 40
0.1
  9
$FILLETRAD
 40
0.0
  9
$AUNITS
 70
     0
  9
$AUPREC
 70
     0
  9
$MENU
  1
.
  9
$ELEVATION
 40
0.0
  9
$PELEVATION
 40
0.0
  9
$THICKNESS
 40
0.0
  9
$LIMCHECK
 70
     0
  9
$BLIPMODE
 70
     0
  9
$CHAMFERA
 40
0.0
  9
$CHAMFERB
 40
0.0
  9
$SKPOLY
 70
     0
  9
$TDCREATE
 40
2458060.468368056230247
  9
$TDUPDATE
 40
2459384.0606018519029021
  9
$TDINDWG
 40
0.6163612268999999
  9
$TDUSRTIMER
 40
0.6163612268999999
  9
$USRTIMER
 70
     1
  9
$ANGBASE
 50
0.0
  9
$ANGDIR
 70
     0
  9
$PDMODE
 70
     0
  9
$PDSIZE
 40
0.3125
  9
$PLINEWID
 40
0.0
  9
$COORDS
 70
     2
  9
$SPLFRAME
 70
     0
  9
$SPLINETYPE
 70
     6
  9
$SPLINESEGS
 70
     8
  9
$ATTDIA
 70
     1
  9
$ATTREQ
 70
     1
  9
$HANDLING
 70
     1
  9
$HANDSEED
  5
27AB8
  9
$SURFTAB1
 70
     6
  9
$SURFTAB2
 70
     6
  9
$SURFTYPE
 70
     6
  9
$SURFU
 70
     6
  9
$SURFV
 70
     6
  9
$UCSNAME
  2

  9
$UCSORG
 10
0.0
 20
0.0
 30
0.0
  9
$UCSXDIR
 10
1.0
 20
0.0
 30
0.0
  9
$UCSYDIR
 10
0.0
 20
1.0
 30
0.0
  9
$PUCSNAME
  2

  9
$PUCSORG
 10
0.0
 20
0.0
 30
0.0
  9
$PUCSXDIR
 10
1.0
 20
0.0
 30
0.0
  9
$PUCSYDIR
 10
0.0
 20
1.0
 30
0.0
  9
$USERI1
 70
     0
  9
$USERI2
 70
     0
  9
$USERI3
 70
     0
  9
$USERI4
 70
     0
  9
$USERI5
 70
     0
  9
$USERR1
 40
0.0
  9
$USERR2
 40
0.0
  9
$USERR3
 40
0.0
  9
$USERR4
 40
0.0
  9
$USERR5
 40
0.0
  9
$WORLDVIEW
 70
     1
  9
$SHADEDGE
 70
     3
  9
$SHADEDIF
 70
    70
  9
$TILEMODE
 70
     1
  9
$MAXACTVP
 70
    64
  9
$PLIMCHECK
 70
     0
  9
$PEXTMIN
 10
1.0000000000000000E+20
 20
1.0000000000000000E+20
 30
1.0000000000000000E+20
  9
$PEXTMAX
 10
-1.0000000000000000E+20
 20
-1.0000000000000000E+20
 30
-1.0000000000000000E+20
  9
$PLIMMIN
 10
0.0
 20
0.0
  9
$PLIMMAX
 10
12.0
 20
9.0
  9
$UNITMODE
 70
     0
  9
$VISRETAIN
 70
     1
  9
$PLINEGEN
 70
     0
  9
$PSLTSCALE
 70
     1
  0
ENDSEC
  0
SECTION
  2
TABLES
  0
TABLE
  2
VPORT
 70
     1
  0
VPORT
  2
*ACTIVE
 70
     0
 10
0.0
 20
0.0
 11
1.0
 21
1.0
 12
-151.8886587340595042
 22
-32.404942714589609
 13
0.0
 23
0.0
 14
1.0
 24
1.0
 15
0.0
 25
0.0
 16
0.0
 26
0.0
 36
96.5995694866707311
 17
3303.693115234375
 27
195.2615115758877096
 37
0.0
 40
48.5766606473527318
 41
2.357254290171606
 42
50.0
 43
0.0
 44
0.0
 50
0.0
 51
0.0
 71
     0
 72
   100
 73
     1
 74
     1
 75
     0
 76
     0
 77
     0
 78
     0
  0
ENDTAB
  0
TABLE
  2
LTYPE
 70
     2
  0
LTYPE
  2
CONTINUOUS
 70
     0
  3
Solid line
 72
    65
 73
     0
 40
0.0
  0
LTYPE
  2
PHANTOM2
 70
     0
  3
___ _ _ ___ _ _ ___ _ _ ___ _ _
 72
    65
 73
     6
 40
1.25
 49
0.625
 49
-0.125
 49
0.125
 49
-0.125
 49
0.125
 49
-0.125
  0
ENDTAB
  0
TABLE
  2
LAYER
 70
     2
  0
LAYER
  2
0
 70
     0
 62
   255
  6
CONTINUOUS
  0
LAYER
  2
DEFPOINTS
 70
     0
 62
     7
  6
CONTINUOUS
  0
ENDTAB
  0
TABLE
  2
STYLE
 70
     1
  0
STYLE
  2
STANDARD
 70
     0
 40
0.0
 41
0.8
 50
0.0
 71
     0
 42
0.2
  3
txt
  4

  0
ENDTAB
  0
TABLE
  2
VIEW
 70
     3
  0
ENDTAB
  0
TABLE
  2
UCS
 70
     0
  0
ENDTAB
  0
TABLE
  2
APPID
 70
     9
  0
APPID
  2
ACAD
 70
     0
  0
APPID
  2
ACAD_MLEADERVER
 70
     0
  0
APPID
  2
ACAD_EXEMPT_FROM_CAD_STANDARDS
 70
     0
  0
APPID
  2
ACAD_NAV_VCDISPLAY
 70
     0
  0
APPID
  2
ACAECLAYERSTANDARD
 70
     0
  0
APPID
  2
ACCMTRANSPARENCY
 70
     0
  0
APPID
  2
ACAD_DSTYLE_DIMJAG
 70
     0
  0
APPID
  2
ACAD_DSTYLE_DIMTALN
 70
     0
  0
APPID
  2
ACDBATTR
 70
     0
  0
ENDTAB
  0
TABLE
  2
DIMSTYLE
 70
     1
  0
DIMSTYLE
  2
STANDARD
 70
     0
  3

  4

  5

  6

  7

 40
1.0
 41
0.1875
 42
0.0625
 43
0.38
 44
0.125
 45
0.0
 46
0.0
 47
0.01
 48
0.01
140
0.15625
141
0.09
142
0.0
143
25.3999999999999986
144
1.0
145
0.0
146
1.0
147
0.09
 71
     1
 72
     0
 73
     1
 74
     1
 75
     0
 76
     0
 77
     0
 78
     4
170
     0
171
     2
172
     0
173
     0
174
     0
175
     0
176
     0
177
     0
178
     0
  0
ENDTAB
  0
ENDSEC
  0
SECTION
  2
BLOCKS
  0
BLOCK
  8
0
  2
$MODEL_SPACE
 70
     0
 10
0.0
 20
0.0
 30
0.0
  3
$MODEL_SPACE
  1

  0
ENDBLK
  5
21
  8
0
  0
BLOCK
 67
     1
  8
0
  2
$PAPER_SPACE
 70
     0
 10
0.0
 20
0.0
 30
0.0
  3
$PAPER_SPACE
  1

  0
ENDBLK
  5
1D
 67
     1
  8
0
  0
ENDSEC
  0
SECTION
  2
ENTITIES
  0
ATTDEF
  5
273C5
  8
DEFPOINTS
 10
3151.7945614345940157
 20
143.1497285814722886
 30
0.0
 40
0.001
  1
K-21842T-EW
  3

  2
MODELNUMBER
 70
     0
1001
ACDBATTR
1070
     0
1070
     1
  0
ATTDEF
  5
273C6
  8
DEFPOINTS
 10
3151.7945614345940157
 20
143.1480619148055951
 30
0.0
 40
0.001
  1
MODERNLIFE
  3

  2
TRADENAME
 70
     0
1001
ACDBATTR
1070
     0
1070
     1
  0
ATTDEF
  5
273C7
  8
DEFPOINTS
 10
3151.7945614345940157
 20
143.1463952481389867
 30
0.0
 40
0.001
  1
URINAL
  3

  2
PRODUCT
 70
     0
1001
ACDBATTR
1070
     0
1070
     1
  0
LINE
  5
279D7
  8
0
 10
3156.5558534996807794
 20
143.1510353213853932
 30
0.0
 11
3147.0331001492800169
 21
143.1510353213853932
 31
0.0
  0
ARC
  5
279D8
  8
0
 10
3147.0331001492800169
 20
143.3872627892114053
 30
0.0
 40
0.2362274678259517
 50
182.0678980523252051
 51
270.0
  0
ARC
  5
279D9
  8
0
 10
2378.4889487218429167
 20
115.6372017620426931
 30
0.0
 40
768.8087507878872202
 50
2.0678980523260071
 51
3.4554274106510632
  0
ARC
  5
279DA
  8
0
 10
3297.9731953972632255
 20
171.1573235010255019
 30
0.0
 40
152.3501735037758067
 50
178.6190351096273048
 51
183.4554274106509979
  0
ARC
  5
279DB
  8
0
 10
3317.5891290325621412
 20
170.6844411590143977
 30
0.0
 40
171.9718062109151049
 50
177.6168422105924947
 51
178.6190351096273048
  0
ARC
  5
279DC
  8
0
 10
3151.8928526710760707
 20
177.5803810441443886
 30
0.0
 40
6.1320944800956267
 50
155.7867045971042899
 51
177.6168422105924947
  0
ARC
  5
279DD
  8
0
 10
3149.9374232130498967
 20
178.4597313467735091
 30
0.0
 40
3.9880419340862052
 50
115.2049874495709929
 51
155.7867045971042899
  0
ARC
  5
279DE
  8
0
 10
3150.9194671250352258
 20
175.0736165858631068
 30
0.0
 40
7.490451239886422
 50
91.5537896417549177
 51
110.967607169122104
  0
ARC
  5
279DF
  8
0
 10
3141.4821290626910013
 20
782.2473012997270416
 30
0.0
 40
599.7570798274476829
 50
270.8821961515280918
 51
270.9852031511454129
  0
CIRCLE
  5
279E0
  8
0
 10
3151.7822531464798885
 20
178.0388572197855126
 30
0.0
 40
1.0408489143315101
  0
ARC
  5
279E1
  8
0
 10
3160.6149284778612127
 20
161.9671098003267105
 30
0.0
 40
14.70891333359355
 50
186.4006812155124919
 51
192.0284936322578062
  0
ARC
  5
279E2
  8
0
 10
3149.8608871894830372
 20
159.6756774738454112
 30
0.0
 40
3.7134567201118478
 50
192.0284936322578062
 51
228.3005576872185998
  0
ARC
  5
279E3
  8
0
 10
3150.4569042115199409
 20
160.6858942170208877
 30
0.0
 40
4.8695081081445437
 50
230.9725389348344891
 51
253.6652840396833994
  0
ARC
  5
279E4
  8
0
 10
3151.1087344290049259
 20
162.961802925087909
 30
0.0
 40
7.2368906540937123
 50
253.7806859420871035
 51
267.0905300810454719
  0
ARC
  5
279E5
  8
0
 10
3151.7138186710708396
 20
172.0609812243191072
 30
0.0
 40
16.3556731458894795
 50
266.591511897091209
 51
270.2825218253660182
  0
ARC
  5
279E6
  8
0
 10
3149.8519160199839462
 20
159.6660762158967941
 30
0.0
 40
3.1145392101400571
 50
195.9512325466249933
 51
234.7332636686446108
  0
ARC
  5
279E7
  8
0
 10
3159.7764446673768362
 20
163.1924360504063998
 30
0.0
 40
13.6421708962877393
 50
188.7263945040274962
 51
198.7374153697444115
  0
ARC
  5
279E8
  8
0
 10
3307.229043181581801
 20
183.9471177812029055
 30
0.0
 40
162.5472962084679978
 50
186.4989001984052948
 51
188.0719826544516025
  0
ARC
  5
279E9
  8
0
 10
3150.7255824705512168
 20
160.734954180242994
 30
0.0
 40
4.492719376000136
 50
233.5066820522245052
 51
248.6239683565065093
  0
ARC
  5
279EA
  8
0
 10
3151.0632901313401817
 20
161.5977448169145987
 30
0.0
 40
5.4192473825295107
 50
248.6239683565065093
 51
262.6574758815797281
  0
ARC
  5
279EB
  8
0
 10
3151.6866028526987975
 20
166.4349738880474092
 30
0.0
 40
10.2964703459813496
 50
262.6574758815797281
 51
267.3342865390964107
  0
ARC
  5
279EC
  8
0
 10
3151.7257658178691599
 20
167.2761195598417885
 30
0.0
 40
11.1385272199626595
 50
267.3342865390964107
 51
270.3534406181852887
  0
ARC
  5
279ED
  8
0
 10
3156.5558340962797956
 20
143.3872627892114053
 30
0.0
 40
0.2362274678259517
 50
270.0
 51
357.9321019476740275
  0
ARC
  5
279EE
  8
0
 10
3925.0999855237168958
 20
115.6372017620426931
 30
0.0
 40
768.8087507878872202
 50
176.5445725893488884
 51
177.9321019476739991
  0
ARC
  5
279EF
  8
0
 10
3005.6157388482979513
 20
171.1573235010255019
 30
0.0
 40
152.3501735037758067
 50
356.5445725893490021
 51
1.3809648903727429
  0
ARC
  5
279F0
  8
0
 10
2985.9998052129981261
 20
170.6844411590143977
 30
0.0
 40
171.9718062109151049
 50
1.3809648903727429
 51
2.3831577894074809
  0
ARC
  5
279F1
  8
0
 10
3151.6960815744841966
 20
177.5803810441443886
 30
0.0
 40
6.1320944800956267
 50
2.3831577894074809
 51
24.2132954028957208
  0
ARC
  5
279F2
  8
0
 10
3153.6515110325099158
 20
178.4597313467735091
 30
0.0
 40
3.9880419340862052
 50
24.2132954028957208
 51
64.7950125504289502
  0
ARC
  5
279F3
  8
0
 10
3152.669467120525951
 20
175.0736165858631068
 30
0.0
 40
7.490451239886422
 50
69.0323928308778392
 51
88.4462103582450681
  0
ARC
  5
279F4
  8
0
 10
3162.1068051828788157
 20
782.2473013002919515
 30
0.0
 40
599.7570798280128201
 50
269.0147968488545871
 51
269.1178038484720219
  0
ARC
  5
279F5
  8
0
 10
3142.9740057676999641
 20
161.9671098003267105
 30
0.0
 40
14.70891333359355
 50
347.9715063677414264
 51
353.5993187844874797
  0
ARC
  5
279F6
  8
0
 10
3153.7280470560767753
 20
159.6756774738454112
 30
0.0
 40
3.7134567201118478
 50
311.6994423127814002
 51
347.9715063677414264
  0
ARC
  5
279F7
  8
0
 10
3153.1320300340398717
 20
160.6858942170208877
 30
0.0
 40
4.8695081081445437
 50
286.3347159603164869
 51
309.0274610651654825
  0
ARC
  5
279F8
  8
0
 10
3152.4801998165548866
 20
162.961802925087909
 30
0.0
 40
7.2368906540937123
 50
272.9094699189545281
 51
286.2193140579129818
  0
ARC
  5
279F9
  8
0
 10
3151.8751155744889729
 20
172.0609812243191072
 30
0.0
 40
16.3556731458894795
 50
269.7174781746339818
 51
273.408488102908791
  0
ARC
  5
279FA
  8
0
 10
3153.7370182255767759
 20
159.6660762158967941
 30
0.0
 40
3.1145392101400571
 50
305.2667363313553892
 51
344.0487674533749214
  0
ARC
  5
279FB
  8
0
 10
3143.8124895781829764
 20
163.1924360504063998
 30
0.0
 40
13.6421708962877393
 50
341.2625846302548211
 51
351.2736054959725038
  0
ARC
  5
279FC
  8
0
 10
2996.359891063978921
 20
183.9471177812029055
 30
0.0
 40
162.5472962084679978
 50
351.928017345548426
 51
353.5010998015945916
  0
ARC
  5
279FD
  8
0
 10
3152.8633517750090505
 20
160.734954180242994
 30
0.0
 40
4.492719376000136
 50
291.3760316434934907
 51
306.4933179477754948
  0
ARC
  5
279FE
  8
0
 10
3152.5256441142209951
 20
161.5977448169145987
 30
0.0
 40
5.4192473825295107
 50
277.3425241184202719
 51
291.3760316434934907
  0
ARC
  5
279FF
  8
0
 10
3151.902331392861015
 20
166.4349738880474092
 30
0.0
 40
10.2964703459813496
 50
272.6657134609034756
 51
277.3425241184202719
  0
ARC
  5
27A00
  8
0
 10
3151.8631684276920168
 20
167.2761195598417885
 30
0.0
 40
11.1385272199626595
 50
269.6465593818145976
 51
272.6657134609034756
  0
ENDSEC
  0
EOF
