  0
SECTION
  2
HEADER
  9
$ACADVER
  1
AC1009
  9
$INSBASE
 10
3213.4577557549509947
 20
174.4210958322969987
 30
0.0
  9
$EXTMIN
 10
3207.3878177794049407
 20
160.888393800828112
 30
-0.0000000000000058
  9
$EXTMAX
 10
3219.6077377385008731
 20
174.438553924028696
 30
0.0000000000000104
  9
$LIMMIN
 10
0.0
 20
0.0
  9
$LIMMAX
 10
11.6929133858000007
 20
8.2677165353999982
  9
$ORTHOMODE
 70
     1
  9
$REGENMODE
 70
     1
  9
$FILLMODE
 70
     1
  9
$QTEXTMODE
 70
     0
  9
$MIRRTEXT
 70
     0
  9
$DRAGMODE
 70
     2
  9
$LTSCALE
 40
0.6431102362
  9
$OSMODE
 70
   575
  9
$ATTMODE
 70
     1
  9
$TEXTSIZE
 40
0.2
  9
$TRACEWID
 40
0.05
  9
$TEXTSTYLE
  7
STANDARD
  9
$CLAYER
  8
0
  9
$CELTYPE
  6
BYLAYER
  9
$CECOLOR
 62
   256
  9
$DIMSCALE
 40
1.0
  9
$DIMASZ
 40
0.1875
  9
$DIMEXO
 40
0.0625
  9
$DIMDLI
 40
0.4443307087
  9
$DIMRND
 40
0.0
  9
$DIMDLE
 40
0.0
  9
$DIMEXE
 40
0.125
  9
$DIMTP
 40
0.01
  9
$DIMTM
 40
0.01
  9
$DIMTXT
 40
2.0
  9
$DIMCEN
 40
0.1052362205
  9
$DIMTSZ
 40
0.0
  9
$DIMTOL
 70
     1
  9
$DIMLIM
 70
     0
  9
$DIMTIH
 70
     1
  9
$DIMTOH
 70
     1
  9
$DIMSE1
 70
     0
  9
$DIMSE2
 70
     0
  9
$DIMTAD
 70
     0
  9
$DIMZIN
 70
     0
  9
$DIMBLK
  1

  9
$DIMASO
 70
     1
  9
$DIMSHO
 70
     1
  9
$DIMPOST
  1
\X
  9
$DIMAPOST
  1

  9
$DIMALT
 70
     1
  9
$DIMALTD
 70
     2
  9
$DIMALTF
 40
25.3999999999999986
  9
$DIMLFAC
 40
1.0
  9
$DIMTOFL
 70
     0
  9
$DIMTVP
 40
0.0
  9
$DIMTIX
 70
     0
  9
$DIMSOXD
 70
     0
  9
$DIMSAH
 70
     0
  9
$DIMBLK1
  1

  9
$DIMBLK2
  1

  9
$DIMSTYLE
  2
STANDARD
  9
$DIMCLRD
 70
     0
  9
$DIMCLRE
 70
     0
  9
$DIMCLRT
 70
     0
  9
$DIMTFAC
 40
1.0
  9
$DIMGAP
 40
0.09
  9
$LUNITS
 70
     2
  9
$LUPREC
 70
     4
  9
$SKETCHINC
 40
0.1
  9
$FILLETRAD
 40
0.0
  9
$AUNITS
 70
     0
  9
$AUPREC
 70
     0
  9
$MENU
  1
.
  9
$ELEVATION
 40
0.0
  9
$PELEVATION
 40
0.0
  9
$THICKNESS
 40
0.0
  9
$LIMCHECK
 70
     0
  9
$BLIPMODE
 70
     0
  9
$CHAMFERA
 40
0.0
  9
$CHAMFERB
 40
0.0
  9
$SKPOLY
 70
     0
  9
$TDCREATE
 40
2458060.468368056230247
  9
$TDUPDATE
 40
2459384.0107407411560416
  9
$TDINDWG
 40
0.6159445602
  9
$TDUSRTIMER
 40
0.6159445602
  9
$USRTIMER
 70
     1
  9
$ANGBASE
 50
0.0
  9
$ANGDIR
 70
     0
  9
$PDMODE
 70
     0
  9
$PDSIZE
 40
0.3125
  9
$PLINEWID
 40
0.0
  9
$COORDS
 70
     2
  9
$SPLFRAME
 70
     0
  9
$SPLINETYPE
 70
     6
  9
$SPLINESEGS
 70
     8
  9
$ATTDIA
 70
     1
  9
$ATTREQ
 70
     1
  9
$HANDLING
 70
     1
  9
$HANDSEED
  5
27A64
  9
$SURFTAB1
 70
     6
  9
$SURFTAB2
 70
     6
  9
$SURFTYPE
 70
     6
  9
$SURFU
 70
     6
  9
$SURFV
 70
     6
  9
$UCSNAME
  2

  9
$UCSORG
 10
0.0
 20
0.0
 30
0.0
  9
$UCSXDIR
 10
1.0
 20
0.0
 30
0.0
  9
$UCSYDIR
 10
0.0
 20
1.0
 30
0.0
  9
$PUCSNAME
  2

  9
$PUCSORG
 10
0.0
 20
0.0
 30
0.0
  9
$PUCSXDIR
 10
1.0
 20
0.0
 30
0.0
  9
$PUCSYDIR
 10
0.0
 20
1.0
 30
0.0
  9
$USERI1
 70
     0
  9
$USERI2
 70
     0
  9
$USERI3
 70
     0
  9
$USERI4
 70
     0
  9
$USERI5
 70
     0
  9
$USERR1
 40
0.0
  9
$USERR2
 40
0.0
  9
$USERR3
 40
0.0
  9
$USERR4
 40
0.0
  9
$USERR5
 40
0.0
  9
$WORLDVIEW
 70
     1
  9
$SHADEDGE
 70
     3
  9
$SHADEDIF
 70
    70
  9
$TILEMODE
 70
     1
  9
$MAXACTVP
 70
    64
  9
$PLIMCHECK
 70
     0
  9
$PEXTMIN
 10
1.0000000000000000E+20
 20
1.0000000000000000E+20
 30
1.0000000000000000E+20
  9
$PEXTMAX
 10
-1.0000000000000000E+20
 20
-1.0000000000000000E+20
 30
-1.0000000000000000E+20
  9
$PLIMMIN
 10
0.0
 20
0.0
  9
$PLIMMAX
 10
12.0
 20
9.0
  9
$UNITMODE
 70
     0
  9
$VISRETAIN
 70
     1
  9
$PLINEGEN
 70
     0
  9
$PSLTSCALE
 70
     1
  0
ENDSEC
  0
SECTION
  2
TABLES
  0
TABLE
  2
VPORT
 70
     1
  0
VPORT
  2
*ACTIVE
 70
     0
 10
0.0
 20
0.0
 11
1.0
 21
1.0
 12
-90.1953375787483651
 22
-27.5980377636406295
 13
0.0
 23
0.0
 14
1.0
 24
1.0
 15
0.0
 25
0.0
 16
0.0
 26
0.0
 36
96.5995694866707311
 17
3303.693115234375
 27
195.2615115758877096
 37
0.0
 40
16.8224603715999592
 41
2.357254290171606
 42
50.0
 43
0.0
 44
0.0
 50
0.0
 51
0.0
 71
     0
 72
   100
 73
     1
 74
     1
 75
     0
 76
     0
 77
     0
 78
     0
  0
ENDTAB
  0
TABLE
  2
LTYPE
 70
     2
  0
LTYPE
  2
CONTINUOUS
 70
     0
  3
Solid line
 72
    65
 73
     0
 40
0.0
  0
LTYPE
  2
PHANTOM2
 70
     0
  3
___ _ _ ___ _ _ ___ _ _ ___ _ _
 72
    65
 73
     6
 40
1.25
 49
0.625
 49
-0.125
 49
0.125
 49
-0.125
 49
0.125
 49
-0.125
  0
ENDTAB
  0
TABLE
  2
LAYER
 70
     2
  0
LAYER
  2
0
 70
     0
 62
   255
  6
CONTINUOUS
  0
LAYER
  2
DEFPOINTS
 70
     0
 62
     7
  6
CONTINUOUS
  0
ENDTAB
  0
TABLE
  2
STYLE
 70
     1
  0
STYLE
  2
STANDARD
 70
     0
 40
0.0
 41
0.8
 50
0.0
 71
     0
 42
0.2
  3
txt
  4

  0
ENDTAB
  0
TABLE
  2
VIEW
 70
     5
  0
ENDTAB
  0
TABLE
  2
UCS
 70
     0
  0
ENDTAB
  0
TABLE
  2
APPID
 70
     9
  0
APPID
  2
ACAD
 70
     0
  0
APPID
  2
ACAD_MLEADERVER
 70
     0
  0
APPID
  2
ACAD_EXEMPT_FROM_CAD_STANDARDS
 70
     0
  0
APPID
  2
ACAD_NAV_VCDISPLAY
 70
     0
  0
APPID
  2
ACAECLAYERSTANDARD
 70
     0
  0
APPID
  2
ACCMTRANSPARENCY
 70
     0
  0
APPID
  2
ACAD_DSTYLE_DIMJAG
 70
     0
  0
APPID
  2
ACAD_DSTYLE_DIMTALN
 70
     0
  0
APPID
  2
ACDBATTR
 70
     0
  0
ENDTAB
  0
TABLE
  2
DIMSTYLE
 70
     1
  0
DIMSTYLE
  2
STANDARD
 70
     0
  3

  4

  5

  6

  7

 40
1.0
 41
0.1875
 42
0.0625
 43
0.38
 44
0.125
 45
0.0
 46
0.0
 47
0.01
 48
0.01
140
0.15625
141
0.09
142
0.0
143
25.3999999999999986
144
1.0
145
0.0
146
1.0
147
0.09
 71
     1
 72
     0
 73
     1
 74
     1
 75
     0
 76
     0
 77
     0
 78
     4
170
     0
171
     2
172
     0
173
     0
174
     0
175
     0
176
     0
177
     0
178
     0
  0
ENDTAB
  0
ENDSEC
  0
SECTION
  2
BLOCKS
  0
BLOCK
  8
0
  2
$MODEL_SPACE
 70
     0
 10
0.0
 20
0.0
 30
0.0
  3
$MODEL_SPACE
  1

  0
ENDBLK
  5
21
  8
0
  0
BLOCK
 67
     1
  8
0
  2
$PAPER_SPACE
 70
     0
 10
0.0
 20
0.0
 30
0.0
  3
$PAPER_SPACE
  1

  0
ENDBLK
  5
1D
 67
     1
  8
0
  0
ENDSEC
  0
SECTION
  2
ENTITIES
  0
ATTDEF
  5
273C5
  8
DEFPOINTS
 10
3213.4576956488272117
 20
174.4245736032499963
 30
0.0
 40
0.001
  1
K-21841T-EW
  3

  2
MODELNUMBER
 70
     0
1001
ACDBATTR
1070
     0
1070
     1
  0
ATTDEF
  5
273C6
  8
DEFPOINTS
 10
3213.4576956488272117
 20
174.422906936583388
 30
0.0
 40
0.001
  1
MODERNLIFE
  3

  2
TRADENAME
 70
     0
1001
ACDBATTR
1070
     0
1070
     1
  0
ATTDEF
  5
273C7
  8
DEFPOINTS
 10
3213.4576956488272117
 20
174.4212402699166944
 30
0.0
 40
0.001
  1
URINAL
  3

  2
PRODUCT
 70
     0
1001
ACDBATTR
1070
     0
1070
     1
  0
LINE
  5
278F9
  8
0
 10
3218.3269330725502186
 20
174.4210958322470049
 30
0.0
 11
3208.5885781623510411
 21
174.4210958323469924
 31
0.0
  0
ARC
  5
278FA
  8
0
 10
3208.5885781623469484
 20
174.1848765285465106
 30
0.0
 40
0.2362193038004676
 50
89.999999999400714
 51
180.0002834719651901
  0
LINE
  5
278FB
  8
0
 10
3208.3523588585499056
 20
174.1848753598470125
 30
0.0
 11
3208.35235885864995
 21
169.9584974071472061
 31
0.0
  0
ARC
  5
278FC
  8
0
 10
3208.5885793310490044
 20
169.9584974071470072
 30
0.0
 40
0.2362204723983814
 50
179.9999999999380975
 51
181.5144146887531065
  0
ARC
  5
278FD
  8
0
 10
3208.5885793311531415
 20
169.9584974071497072
 30
0.0
 40
0.2362204725027305
 50
181.5144146887531065
 51
269.9999999750913275
  0
LINE
  5
278FE
  8
0
 10
3208.5885793310499139
 20
169.7222769346469988
 30
0.0
 11
3218.3269342016501469
 21
169.7222769304356973
 31
0.0
  0
LINE
  5
278FF
  8
0
 10
3208.5319442038939997
 20
174.4142060685470028
 30
0.0
 11
3208.2146083096499751
 21
174.4142060685470028
 31
0.0
  0
ARC
  5
27900
  8
0
 10
3208.2146083115781039
 20
174.1858950230659104
 30
0.0
 40
0.2283110454811066
 50
90.0000004838432659
 51
180.0088542212600089
  0
LINE
  5
27901
  8
0
 10
3207.9862972688229092
 20
174.1858597409469951
 30
0.0
 11
3207.9862972688229092
 21
173.3316275469053949
 31
0.0
  0
LINE
  5
27902
  8
0
 10
3207.9862972688229092
 20
172.5046919565926089
 30
0.0
 11
3207.9862972688229092
 21
169.7127147219729864
 31
0.0
  0
ARC
  5
27903
  8
0
 10
4609.4362801662382481
 20
-57.2632076157596615
 30
0.0
 40
1419.7112818753789725
 50
170.8003762724524961
 51
170.9341902821963117
  0
ARC
  5
27904
  8
0
 10
3218.1293288338952152
 20
165.5344756198311984
 30
0.0
 40
10.72472228934644
 50
180.4757256621072088
 51
193.1744569239725138
  0
ARC
  5
27905
  8
0
 10
3210.0599156229709479
 20
163.687130870099395
 30
0.0
 40
2.4469842429125248
 50
194.1211907483524044
 51
224.5397221245696073
  0
ARC
  5
27906
  8
0
 10
3211.3605306117010514
 20
166.3520707021818055
 30
0.0
 40
5.3353442886017062
 50
235.2028149891119995
 51
258.6939292019724803
  0
ARC
  5
27907
  8
0
 10
3212.6805916640678333
 20
174.3734092357533996
 30
0.0
 40
13.4626913848531
 50
259.87774750483959
 51
269.7834554787580146
  0
ARC
  5
27908
  8
0
 10
3211.2076120636761516
 20
57.335677419098829
 30
0.0
 40
103.5848989114512051
 50
88.7552761824376972
 51
89.2133717372185373
  0
ARC
  5
27909
  8
0
 10
3209.3019046424092267
 20
166.3197630265171938
 30
0.0
 40
1.8379868585183721
 50
151.3076484332696054
 51
169.9049494390355051
  0
ARC
  5
2790A
  8
0
 10
3209.8631886182761264
 20
165.9913077061187039
 30
0.0
 40
2.4881143092320319
 50
120.9479163077734967
 51
150.8782141545771935
  0
ARC
  5
2790B
  8
0
 10
3211.1524289077101457
 20
163.675668677679397
 30
0.0
 40
5.1377961742486669
 50
97.5689403092207783
 51
119.9984104388512947
  0
ARC
  5
2790C
  8
0
 10
3212.338121423938901
 20
154.7970947408801123
 30
0.0
 40
14.09519140235642
 50
90.2227996720428536
 51
97.5928601398459676
  0
ARC
  5
2790D
  8
0
 10
3213.337172443189047
 20
103.7635831163264015
 30
0.0
 40
65.1371222911167678
 50
89.893921762220117
 51
90.9270356980870531
  0
ARC
  5
2790E
  8
0
 10
3213.4577562017498167
 20
167.7212753874470081
 30
0.0
 40
1.1237335220034339
 50
145.3140563702754093
 51
34.6857372163696382
  0
ARC
  5
2790F
  8
0
 10
3212.9027678981619829
 20
268.1873297689087963
 30
0.0
 40
99.8272447012631403
 50
269.6164769623322854
 51
270.3185436815730895
  0
ARC
  5
27910
  8
0
 10
3212.1739862396098033
 20
153.4621774366578961
 30
0.0
 40
14.9002671660068806
 50
89.7670940716672305
 51
95.8927752767271073
  0
ARC
  5
27911
  8
0
 10
3211.0814190849209808
 20
164.0477855552661879
 30
0.0
 40
4.2584251154852479
 50
95.8927752767271073
 51
114.5943122899725068
  0
ARC
  5
27912
  8
0
 10
3210.4237903358598487
 20
165.4845481273891892
 30
0.0
 40
2.67831048032633
 50
114.5943122899725068
 51
138.4972509918503931
  0
ARC
  5
27913
  8
0
 10
3209.4574667720348771
 20
166.3395616555135916
 30
0.0
 40
1.388027812349738
 50
138.4972509918503931
 51
155.6069114735084895
  0
ARC
  5
27914
  8
0
 10
3213.670569822843845
 20
164.1526860108945129
 30
0.0
 40
6.1333752504125894
 50
153.2552204455697051
 51
183.4337314662076039
  0
ARC
  5
27915
  8
0
 10
3213.1591068407851708
 20
35.4928192572691827
 30
0.0
 40
133.9636483787220982
 50
89.8722634902991757
 51
91.2322526153818103
  0
ARC
  5
27916
  8
0
 10
3209.5917401797642015
 20
201.3382841314011955
 30
0.0
 40
31.9201794171517292
 50
269.3498218534672901
 51
271.232253581832822
  0
ARC
  5
27917
  8
0
 10
3208.7988068591889714
 20
131.4654610803465005
 30
0.0
 40
37.9571426864813191
 50
89.3498218534673327
 51
90.6500915823090878
  0
ARC
  5
27918
  8
0
 10
3208.3672606477812224
 20
169.4981263234022038
 30
0.0
 40
0.077970795969587
 50
223.4973281482139953
 51
270.6500915823090736
  0
ARC
  5
27919
  8
0
 10
3208.5993268844968043
 20
169.6696830297964027
 30
0.0
 40
0.3661037911579068
 50
186.5007326018161962
 51
217.9661703575434046
  0
ARC
  5
2791A
  8
0
 10
3209.740109698408105
 20
169.8814071872025124
 30
0.0
 40
1.5256851580097099
 50
179.579728762711909
 51
189.5518734679750992
  0
LINE
  5
2791B
  8
0
 10
3208.2144655841498206
 20
169.892598165746989
 30
0.0
 11
3208.2144655803867863
 21
174.1858597411469987
 31
0.0
  0
ARC
  5
2791C
  8
0
 10
3208.4430136340588433
 20
174.186835720781886
 30
0.0
 40
0.2285501375492126
 50
95.8241989357360922
 51
180.2446714078706123
  0
LINE
  5
2791D
  8
0
 10
3208.0385321730509531
 20
173.3447887695469944
 30
0.0
 11
3207.9073241361497821
 21
173.3116455277470038
 31
0.0
  0
ARC
  5
2791E
  8
0
 10
3207.9140486662900003
 20
173.2927658135174056
 30
0.0
 40
0.0200415297569752
 50
109.604757017434693
 51
146.8619310655791992
  0
ARC
  5
2791F
  8
0
 10
3208.4010193323329077
 20
173.0973340097681898
 30
0.0
 40
0.5443918708978734
 50
157.7210628260176861
 51
177.5955516153935037
  0
ARC
  5
27920
  8
0
 10
3209.7013229037152087
 20
172.9305659255894057
 30
0.0
 40
1.853937442165061
 50
174.1299456567161883
 51
191.6503096937723001
  0
ARC
  5
27921
  8
0
 10
3207.967860904427198
 20
172.5827159184026129
 30
0.0
 40
0.0864526273465481
 50
197.8711592989091059
 51
217.3629902895910107
  0
ARC
  5
27922
  8
0
 10
3207.912592583003061
 20
172.5410817357532096
 30
0.0
 40
0.0172646068652555
 50
218.8537277576652968
 51
252.2322815656320074
  0
ARC
  5
27923
  8
0
 10
3207.9096266676151572
 20
172.5360797902139893
 30
0.0
 40
0.0116685966840421
 50
258.6192959253110075
 51
314.9073690729853752
  0
ARC
  5
27924
  8
0
 10
3207.7854007248611197
 20
172.6199621046700088
 30
0.0
 40
0.1613616495884662
 50
325.1760821896151015
 51
351.3370978779125835
  0
ARC
  5
27925
  8
0
 10
3206.1416540954801349
 20
172.9066293433255908
 30
0.0
 40
1.8298843399971421
 50
350.2156342468741173
 51
1.8287233952207249
  0
ARC
  5
27926
  8
0
 10
3206.5384222655970916
 20
172.9658237262212879
 30
0.0
 40
1.432184410936125
 50
359.9680179860279168
 51
11.9164425269957199
  0
ARC
  5
27927
  8
0
 10
3207.8122203659281695
 20
173.2324932847197942
 30
0.0
 40
0.1307905124123628
 50
12.8353024262746498
 51
34.0608193451205707
  0
ARC
  5
27928
  8
0
 10
3207.9078913314538113
 20
173.2959835039796133
 30
0.0
 40
0.0159974676569976
 50
37.2077226303501121
 51
87.4917830259246756
  0
ARC
  5
27929
  8
0
 10
3208.0458507667681261
 20
173.3164010877447083
 30
0.0
 40
0.0293156081257644
 50
81.0465205378402374
 51
104.4567015477472012
  0
ARC
  5
2792A
  8
0
 10
3208.0453731247648648
 20
173.3133694456973899
 30
0.0
 40
0.0323846463115976
 50
47.4146874814970332
 51
81.0465205378402374
  0
ARC
  5
2792B
  8
0
 10
3208.0214906488040469
 20
173.2883668764081904
 30
0.0
 40
0.0669575722652907
 50
25.3199933209880399
 51
46.845597774063819
  0
ARC
  5
2792C
  8
0
 10
3207.8518468239840331
 20
173.2108890755069979
 30
0.0
 40
0.2534519762816342
 50
13.2852946280376898
 51
24.7509036135575116
  0
ARC
  5
2792D
  8
0
 10
3207.1651192378421911
 20
173.0487396444480908
 30
0.0
 40
0.9590632117095168
 50
2.2188502586532972
 51
13.2852946280376898
  0
ARC
  5
2792E
  8
0
 10
3205.6238917244809272
 20
172.918835025564789
 30
0.0
 40
2.5051466118925529
 50
355.5522025328460245
 51
3.823160631404289
  0
ARC
  5
2792F
  8
0
 10
3207.0708742060887744
 20
172.7979585785720076
 30
0.0
 40
1.0531804841678329
 50
347.2117143157134933
 51
356.0036301709567965
  0
ARC
  5
27930
  8
0
 10
3207.9225926154790614
 20
172.6021103807281065
 30
0.0
 40
0.1792553601954444
 50
327.9419115873207033
 51
347.9989899647122229
  0
ARC
  5
27931
  8
0
 10
3208.041647576133073
 20
172.5297151724222999
 30
0.0
 40
0.0399713975620952
 50
289.5685803949994011
 51
325.3090074432868164
  0
ARC
  5
27932
  8
0
 10
3208.0458790430880072
 20
172.5195747834353028
 30
0.0
 40
0.0290054538938434
 50
265.305871000880984
 51
288.4016783832424835
  0
ARC
  5
27933
  8
0
 10
3208.046030949337819
 20
172.5211152268639978
 30
0.0
 40
0.0305531722928106
 50
255.4114095391038859
 51
265.258365628365425
  0
LINE
  5
27934
  8
0
 10
3208.0383353186712156
 20
172.4915471088006882
 30
0.0
 11
3207.9073241361497821
 21
172.5246406251469864
 31
0.0
  0
ARC
  5
27935
  8
0
 10
3208.0998043014869836
 20
172.9184290267010908
 30
0.0
 40
0.2386605243594463
 50
161.808870687865209
 51
198.3383115241038865
  0
ARC
  5
27936
  8
0
 10
3207.6572594665499309
 20
172.9178605843351875
 30
0.0
 40
0.2284979884420115
 50
340.9657795089104866
 51
19.1814115857750309
  0
ARC
  5
27937
  8
0
 10
3208.172778261241092
 20
172.9184290267010908
 30
0.0
 40
0.2386605243594463
 50
161.808870687865209
 51
198.3383115241038865
  0
ARC
  5
27938
  8
0
 10
3207.7302334263040393
 20
172.9178605843351875
 30
0.0
 40
0.2284979884420115
 50
340.9657795089104866
 51
19.1814115857750309
  0
ARC
  5
27939
  8
0
 10
3208.0965718715410731
 20
173.2827100321158014
 30
0.0
 40
0.0104343117180719
 50
90.8933090824550476
 51
116.3046934564232942
  0
LINE
  5
2793A
  8
0
 10
3208.0964091948499117
 20
173.2931430756470093
 30
0.0
 11
3208.1270507679168986
 21
173.2931430756470093
 31
0.0
  0
ARC
  5
2793B
  8
0
 10
3208.1269609812948147
 20
173.2829489348534082
 30
0.0
 40
0.0101945696757875
 50
56.7613386288097317
 51
89.4744382925156572
  0
ARC
  5
2793C
  8
0
 10
3208.1143422431609906
 20
173.2660650936539071
 30
0.0
 40
0.0312598367272633
 50
27.935350762863429
 51
54.3783672334897972
  0
ARC
  5
2793D
  8
0
 10
3207.5822497563181059
 20
173.0750684279109919
 30
0.0
 40
0.596291336977632
 50
2.5915736650890251
 51
20.1736682766130002
  0
ARC
  5
2793E
  8
0
 10
3206.0212449347081929
 20
172.9211877209181978
 30
0.0
 40
2.164255026668064
 50
353.4037450854507938
 51
4.7931581631165674
  0
ARC
  5
2793F
  8
0
 10
3207.6138560577019234
 20
172.7384840412013887
 30
0.0
 40
0.56120085198712
 50
343.3555376230589218
 51
353.2554476543680266
  0
ARC
  5
27940
  8
0
 10
3208.0479238027169231
 20
172.6098677991145962
 30
0.0
 40
0.1084861021516844
 50
327.9729813016368212
 51
342.7726860745465842
  0
ARC
  5
27941
  8
0
 10
3208.1189512375699451
 20
172.5655887896917875
 30
0.0
 40
0.024787500145639
 50
301.0737101255169819
 51
327.6781603728932168
  0
ARC
  5
27942
  8
0
 10
3208.1256162106810734
 20
172.5583645020130916
 30
0.0
 40
0.0152885406588905
 50
275.3706392509484999
 51
293.6331477253190201
  0
LINE
  5
27943
  8
0
 10
3208.1270471895500123
 20
172.5431430771469934
 30
0.0
 11
3208.0964091869541335
 21
172.5431430771469934
 31
0.0
  0
ARC
  5
27944
  8
0
 10
3208.0965308954478132
 20
172.5532412248930996
 30
0.0
 40
0.0100989717214495
 50
244.648824516887089
 51
269.2680875924955899
  0
ARC
  5
27945
  8
0
 10
3208.095955868674082
 20
172.5547534195897867
 30
0.0
 40
0.0116189065025348
 50
272.1999941354116004
 51
310.9865226079313061
  0
ARC
  5
27946
  8
0
 10
3208.04381862615719
 20
172.5994087613021009
 30
0.0
 40
0.080158243346682
 50
318.2019534713843996
 51
345.4349679504138066
  0
ARC
  5
27947
  8
0
 10
3207.2972334370979297
 20
172.7979679721410946
 30
0.0
 40
0.8526952079639601
 50
345.1374463522191149
 51
356.7409805163866281
  0
ARC
  5
27948
  8
0
 10
3205.8801989360390507
 20
172.9178381799829083
 30
0.0
 40
2.2745889997832172
 50
355.7555687216595857
 51
4.50703642453737
  0
ARC
  5
27949
  8
0
 10
3207.3068414521430896
 20
173.0418783718214115
 30
0.0
 40
0.8426899771401855
 50
3.7217860990262159
 51
14.5498062101853805
  0
ARC
  5
2794A
  8
0
 10
3207.9980971447212141
 20
173.2178631544337861
 30
0.0
 40
0.1294344727923094
 50
16.0184596793107694
 51
29.7783388834232099
  0
ARC
  5
2794B
  8
0
 10
3208.0869025452498136
 20
173.2689756056686008
 30
0.0
 40
0.0269719848151223
 50
29.2294510021539189
 51
58.6992840912533183
  0
ARC
  5
2794C
  8
0
 10
3208.0961629524758791
 20
173.2827126693038053
 30
0.0
 40
0.0104520899007796
 50
62.9557388003732186
 51
86.3087246647159674
  0
LINE
  5
2794D
  8
0
 10
3208.6827414343938472
 20
169.6563782791469919
 30
0.0
 11
3218.2327949414370778
 21
169.6563782791469919
 31
0.0
  0
ARC
  5
2794E
  8
0
 10
3208.6924626309969426
 20
169.1392811823567115
 30
0.0
 40
0.5171884658152691
 50
91.0770084332516632
 51
102.5082784226385968
  0
ARC
  5
2794F
  8
0
 10
3208.7123458225528339
 20
169.0397527379473956
 30
0.0
 40
0.6186646075860672
 50
102.3096549780646995
 51
115.9902792283494932
  0
ARC
  5
27950
  8
0
 10
3208.6127876639188798
 20
169.4214336538427972
 30
0.0
 40
0.2446456724433347
 50
134.5255493443677892
 51
180.2981619115001877
  0
ARC
  5
27951
  8
0
 10
3210.9561245455251992
 20
171.2677688146661126
 30
0.0
 40
1.624996613529518
 50
252.0032250547768058
 51
262.5803849539374255
  0
ARC
  5
27952
  8
0
 10
3218.3269582134830671
 20
174.1848765285465106
 30
0.0
 40
0.2362193038004676
 50
359.9997165280348099
 51
90.0000000005992433
  0
LINE
  5
27953
  8
0
 10
3218.5631775172810194
 20
174.1848753598470125
 30
0.0
 11
3218.563177517180975
 21
169.9584974071472061
 31
0.0
  0
ARC
  5
27954
  8
0
 10
3218.3269570447819206
 20
169.9584974071470072
 30
0.0
 40
0.2362204723983814
 50
358.4855853112468935
 51
0.0000000000618809
  0
ARC
  5
27955
  8
0
 10
3218.3269570446768739
 20
169.9584974071497072
 30
0.0
 40
0.2362204725027305
 50
270.0000000249086725
 51
358.4855853112468935
  0
LINE
  5
27956
  8
0
 10
3218.3835921719369253
 20
174.4142060685470028
 30
0.0
 11
3218.7009280661800403
 21
174.4142060685470028
 31
0.0
  0
ARC
  5
27957
  8
0
 10
3218.7009280642528211
 20
174.1858950230659104
 30
0.0
 40
0.2283110454811073
 50
359.9911457787383142
 51
89.9999995161567199
  0
LINE
  5
27958
  8
0
 10
3218.9292391070071062
 20
174.1858597409469951
 30
0.0
 11
3218.9292391070071062
 21
173.3315941962410989
 31
0.0
  0
LINE
  5
27959
  8
0
 10
3218.9292391070071062
 20
172.5046919565926089
 30
0.0
 11
3218.9292391070071062
 21
169.7127147219729864
 31
0.0
  0
ARC
  5
2795A
  8
0
 10
1817.4792564496081013
 20
-57.2632075771707605
 30
0.0
 40
1419.7112816322799063
 50
9.0658097177818266
 51
9.1996237275587447
  0
ARC
  5
2795B
  8
0
 10
3208.7862075419348002
 20
165.5344756198313121
 30
0.0
 40
10.7247222893469694
 50
346.8255430760273725
 51
359.5242743378927912
  0
ARC
  5
2795C
  8
0
 10
3216.8556207528599771
 20
163.687130870099395
 30
0.0
 40
2.4469842429125248
 50
315.4602778754303927
 51
345.878809251647624
  0
ARC
  5
2795D
  8
0
 10
3215.5550057641289641
 20
166.3520707021818055
 30
0.0
 40
5.3353442886017062
 50
281.3060707980275197
 51
304.7971850108879153
  0
ARC
  5
2795E
  8
0
 10
3214.2349447117630916
 20
174.3734092357533996
 30
0.0
 40
13.4626913848531
 50
270.2165445212418717
 51
280.12225249516041
  0
ARC
  5
2795F
  8
0
 10
3215.7079294559498521
 20
57.3353872804841913
 30
0.0
 40
103.5851890933401052
 50
90.7866289044488752
 51
91.2447231759081632
  0
ARC
  5
27960
  8
0
 10
3217.6136317334207888
 20
166.3197630265171938
 30
0.0
 40
1.8379868585183721
 50
10.0950505609644505
 51
28.692351566730391
  0
ARC
  5
27961
  8
0
 10
3217.0523477575538891
 20
165.9913077061187039
 30
0.0
 40
2.4881143092320319
 50
29.1217858454228207
 51
59.0520836922264394
  0
ARC
  5
27962
  8
0
 10
3215.7631074681198697
 20
163.675668677679397
 30
0.0
 40
5.1377961742486669
 50
60.0015895611487267
 51
82.4310596907792359
  0
ARC
  5
27963
  8
0
 10
3214.577414951892024
 20
154.7970947408801123
 30
0.0
 40
14.09519140235642
 50
82.4071398601540466
 51
89.7772003279571464
  0
ARC
  5
27964
  8
0
 10
3213.5783639326418779
 20
103.7635831163264015
 30
0.0
 40
65.1371222911167678
 50
89.0729643019129469
 51
90.1060782377798546
  0
ARC
  5
27965
  8
0
 10
3214.012900976571018
 20
267.9536670331465871
 30
0.0
 40
99.5935863236276049
 50
269.6806327421568881
 51
270.3843466139346106
  0
ARC
  5
27966
  8
0
 10
3214.7415501362211216
 20
153.4621774366578961
 30
0.0
 40
14.9002671660068806
 50
84.1072247232729069
 51
90.2329059283327553
  0
ARC
  5
27967
  8
0
 10
3215.8341172909099441
 20
164.0477855552661879
 30
0.0
 40
4.2584251154852479
 50
65.4056877100275216
 51
84.1072247232729069
  0
ARC
  5
27968
  8
0
 10
3216.4917460399701667
 20
165.4845481273891892
 30
0.0
 40
2.67831048032633
 50
41.5027490081496211
 51
65.4056877100275216
  0
ARC
  5
27969
  8
0
 10
3217.4580696037960479
 20
166.3395616555135916
 30
0.0
 40
1.388027812349738
 50
24.3930885264915389
 51
41.5027490081496211
  0
ARC
  5
2796A
  8
0
 10
3213.2449665529861704
 20
164.1526860108945129
 30
0.0
 40
6.1333752504125894
 50
356.5662685337437097
 51
26.7447795544302416
  0
ARC
  5
2796B
  8
0
 10
3213.7564295350448447
 20
35.4928192571620613
 30
0.0
 40
133.9636483788293049
 50
88.7677473846182039
 51
90.1277365097007959
  0
ARC
  5
2796C
  8
0
 10
3217.3237961960671782
 20
201.3382841314011955
 30
0.0
 40
31.9201794171517292
 50
268.767746418167178
 51
270.6501781465327099
  0
ARC
  5
2796D
  8
0
 10
3218.1167295166419535
 20
131.4654610803465005
 30
0.0
 40
37.9571426864813191
 50
89.3499084176909406
 51
90.6501781465326815
  0
ARC
  5
2796E
  8
0
 10
3218.5482757280501573
 20
169.4981263234022038
 30
0.0
 40
0.077970795969587
 50
269.3499084176909264
 51
316.5026718517859194
  0
ARC
  5
2796F
  8
0
 10
3218.3162094913341207
 20
169.6696830297964027
 30
0.0
 40
0.3661037911579068
 50
322.0338296424566238
 51
353.4992673981822122
  0
ARC
  5
27970
  8
0
 10
3217.1754266774219104
 20
169.8814071872025124
 30
0.0
 40
1.5256851580097099
 50
350.4481265320233092
 51
0.4202712372880864
  0
LINE
  5
27971
  8
0
 10
3218.7010707916811043
 20
169.892598165746989
 30
0.0
 11
3218.7010707954441386
 21
174.1858597411469987
 31
0.0
  0
ARC
  5
27972
  8
0
 10
3218.4725227417720816
 20
174.186835720781886
 30
0.0
 40
0.2285501375492126
 50
359.7553285921293877
 51
84.1758010642638936
  0
LINE
  5
27973
  8
0
 10
3218.8770042027808813
 20
173.3447887695469944
 30
0.0
 11
3219.0082122396811428
 21
173.3116455277470038
 31
0.0
  0
ARC
  5
27974
  8
0
 10
3219.0014877095400152
 20
173.2927658135174056
 30
0.0
 40
0.0200415297569752
 50
33.1380689344207582
 51
70.3952429825652928
  0
ARC
  5
27975
  8
0
 10
3218.5145170434971078
 20
173.0973340097681898
 30
0.0
 40
0.5443918708978734
 50
2.4044483846065141
 51
22.2789371739822784
  0
ARC
  5
27976
  8
0
 10
3217.214213472116171
 20
172.9305659255894057
 30
0.0
 40
1.853937442165061
 50
348.3496903062260799
 51
5.8700543432837691
  0
ARC
  5
27977
  8
0
 10
3218.9476754714028175
 20
172.5827159184026129
 30
0.0
 40
0.0864526273465481
 50
322.6370097104075967
 51
342.1288407010908941
  0
ARC
  5
27978
  8
0
 10
3219.0029437928269544
 20
172.5410817357532096
 30
0.0
 40
0.0172646068652555
 50
287.767718434368021
 51
321.1462722423347032
  0
ARC
  5
27979
  8
0
 10
3219.0059097082148583
 20
172.5360797902139893
 30
0.0
 40
0.0116685966840421
 50
225.0926309270145964
 51
281.3807040746889925
  0
ARC
  5
2797A
  8
0
 10
3219.1301356509698053
 20
172.6199621046700088
 30
0.0
 40
0.1613616495884662
 50
188.6629021220873881
 51
214.8239178103848985
  0
ARC
  5
2797B
  8
0
 10
3220.7738822803507901
 20
172.9066293433255908
 30
0.0
 40
1.8298843399971421
 50
178.1712766047776029
 51
189.7843657531259112
  0
ARC
  5
2797C
  8
0
 10
3220.3771141102338333
 20
172.9658237262212879
 30
0.0
 40
1.432184410936125
 50
168.0835574730043049
 51
180.0319820139704916
  0
ARC
  5
2797D
  8
0
 10
3219.1033160099032102
 20
173.2324932847197942
 30
0.0
 40
0.1307905124123628
 50
145.9391806548794079
 51
167.1646975737237142
  0
ARC
  5
2797E
  8
0
 10
3219.0076450443771137
 20
173.2959835039796133
 30
0.0
 40
0.0159974676569976
 50
92.5082169740753102
 51
142.792277369649895
  0
ARC
  5
2797F
  8
0
 10
3218.8696856090627989
 20
173.3164010877447083
 30
0.0
 40
0.0293156081257644
 50
75.5432984522527704
 51
98.9534794621597769
  0
ARC
  5
27980
  8
0
 10
3218.8701632510669697
 20
173.3133694456973899
 30
0.0
 40
0.0323846463115976
 50
98.9534794621597769
 51
132.5853125185030024
  0
ARC
  5
27981
  8
0
 10
3218.8940457270259685
 20
173.2883668764081904
 30
0.0
 40
0.0669575722652907
 50
133.1544022259361952
 51
154.6800066790119104
  0
ARC
  5
27982
  8
0
 10
3219.0636895518459824
 20
173.2108890755069979
 30
0.0
 40
0.2534519762816342
 50
155.2490963864424884
 51
166.7147053719623102
  0
ARC
  5
27983
  8
0
 10
3219.7504171379891886
 20
173.0487396444480908
 30
0.0
 40
0.9590632117095168
 50
166.7147053719623102
 51
177.7811497413466952
  0
ARC
  5
27984
  8
0
 10
3221.2916446513499977
 20
172.918835025564789
 30
0.0
 40
2.5051466118925529
 50
176.1768393685941021
 51
184.4477974671540039
  0
ARC
  5
27985
  8
0
 10
3219.8446621697421506
 20
172.7979585785720076
 30
0.0
 40
1.0531804841678329
 50
183.9963698290432035
 51
192.7882856842865067
  0
ARC
  5
27986
  8
0
 10
3218.9929437603518636
 20
172.6021103807281065
 30
0.0
 40
0.1792553601954444
 50
192.0010100352862139
 51
212.0580884126792967
  0
ARC
  5
27987
  8
0
 10
3218.8738887996978519
 20
172.5297151724222999
 30
0.0
 40
0.0399713975620952
 50
214.6909925567132973
 51
250.4314196050005989
  0
ARC
  5
27988
  8
0
 10
3218.8696573327420083
 20
172.5195747834353028
 30
0.0
 40
0.0290054538938434
 50
251.5983216167574881
 51
274.694128999119016
  0
ARC
  5
27989
  8
0
 10
3218.8695054264931059
 20
172.5211152268639978
 30
0.0
 40
0.0305531722928106
 50
274.741634371634575
 51
284.5885904608961141
  0
LINE
  5
2798A
  8
0
 10
3218.8772010571587998
 20
172.4915471088006882
 30
0.0
 11
3219.0082122396811428
 21
172.5246406251469864
 31
0.0
  0
ARC
  5
2798B
  8
0
 10
3218.8157320743439413
 20
172.9184290267010908
 30
0.0
 40
0.2386605243594463
 50
341.6616884758944934
 51
18.1911293121347413
  0
ARC
  5
2798C
  8
0
 10
3219.258276909280994
 20
172.9178605843351875
 30
0.0
 40
0.2284979884420115
 50
160.8185884142249051
 51
199.0342204910895134
  0
ARC
  5
2798D
  8
0
 10
3218.742758114589833
 20
172.9184290267010908
 30
0.0
 40
0.2386605243594463
 50
341.6616884758944934
 51
18.1911293121347413
  0
ARC
  5
2798E
  8
0
 10
3219.1853029495259761
 20
172.9178605843351875
 30
0.0
 40
0.2284979884420115
 50
160.8185884142249051
 51
199.0342204910895134
  0
ARC
  5
2798F
  8
0
 10
3218.8189645042898519
 20
173.2827100321158014
 30
0.0
 40
0.0104343117180719
 50
63.6953065435766632
 51
89.1066909175449524
  0
LINE
  5
27990
  8
0
 10
3218.8191271809810132
 20
173.2931430756470093
 30
0.0
 11
3218.7884856079131168
 21
173.2931430756470093
 31
0.0
  0
ARC
  5
27991
  8
0
 10
3218.7885753945370197
 20
173.2829489348534082
 30
0.0
 40
0.0101945696757875
 50
90.5255617074843286
 51
123.2386613711902044
  0
ARC
  5
27992
  8
0
 10
3218.8011941326699343
 20
173.2660650936539071
 30
0.0
 40
0.0312598367272633
 50
125.6216327665102028
 51
152.0646492371365071
  0
ARC
  5
27993
  8
0
 10
3219.333286619512819
 20
173.0750684279109919
 30
0.0
 40
0.596291336977632
 50
159.8263317233869998
 51
177.4084263349110131
  0
ARC
  5
27994
  8
0
 10
3220.8942914411231868
 20
172.9211877209181978
 30
0.0
 40
2.164255026668064
 50
175.2068418368833989
 51
186.5962549145475862
  0
ARC
  5
27995
  8
0
 10
3219.3016803181290015
 20
172.7384840412013887
 30
0.0
 40
0.56120085198712
 50
186.7445523456320018
 51
196.6444623769411066
  0
ARC
  5
27996
  8
0
 10
3218.8676125731130924
 20
172.6098677991145962
 30
0.0
 40
0.1084861021516844
 50
197.2273139254533874
 51
212.0270186983632925
  0
ARC
  5
27997
  8
0
 10
3218.7965851382600704
 20
172.5655887896917875
 30
0.0
 40
0.024787500145639
 50
212.3218396271068116
 51
238.9262898744829897
  0
ARC
  5
27998
  8
0
 10
3218.7899201651498515
 20
172.5583645020130916
 30
0.0
 40
0.0152885406588905
 50
246.3668522746810936
 51
264.6293607490516138
  0
LINE
  5
27999
  8
0
 10
3218.7884891862809127
 20
172.5431430771469934
 30
0.0
 11
3218.819127188875882
 21
172.5431430771469934
 31
0.0
  0
ARC
  5
2799A
  8
0
 10
3218.8190054803840212
 20
172.5532412248930996
 30
0.0
 40
0.0100989717214495
 50
270.7319124075044101
 51
295.351175483112911
  0
ARC
  5
2799B
  8
0
 10
3218.8195805071568429
 20
172.5547534195897867
 30
0.0
 40
0.0116189065025348
 50
229.0134773920686939
 51
267.8000058645883996
  0
ARC
  5
2799C
  8
0
 10
3218.8717177496741897
 20
172.5994087613021009
 30
0.0
 40
0.080158243346682
 50
194.5650320495861934
 51
221.7980465286156004
  0
ARC
  5
2799D
  8
0
 10
3219.6183029387329952
 20
172.7979679721410946
 30
0.0
 40
0.8526952079639601
 50
183.2590194836132866
 51
194.8625536477807998
  0
ARC
  5
2799E
  8
0
 10
3221.0353374397909647
 20
172.9178381799829083
 30
0.0
 40
2.2745889997832172
 50
175.4929635754610047
 51
184.244431278337089
  0
ARC
  5
2799F
  8
0
 10
3219.6086949236878354
 20
173.0418783718214115
 30
0.0
 40
0.8426899771401855
 50
165.4501937898145911
 51
176.2782139009738103
  0
ARC
  5
279A0
  8
0
 10
3218.9174392311088013
 20
173.2178631544337861
 30
0.0
 40
0.1294344727923094
 50
150.2216611165781899
 51
163.9815403206891915
  0
ARC
  5
279A1
  8
0
 10
3218.8286338305802019
 20
173.2689756056686008
 30
0.0
 40
0.0269719848151223
 50
121.3007159087465965
 51
150.770548997846106
  0
ARC
  5
279A2
  8
0
 10
3218.8193734233550458
 20
173.2827126693038053
 30
0.0
 40
0.0104520899007796
 50
93.6912753352840468
 51
117.0442611996268027
  0
ARC
  5
279A3
  8
0
 10
3218.2230737448339823
 20
169.1392811823567115
 30
0.0
 40
0.5171884658153156
 50
77.4917215773613748
 51
88.9229915667483368
  0
ARC
  5
279A4
  8
0
 10
3218.2031905532771816
 20
169.0397527379473956
 30
0.0
 40
0.6186646075860672
 50
64.0097207716505068
 51
77.6903450219352578
  0
ARC
  5
279A5
  8
0
 10
3218.3027487119120451
 20
169.4214336538427972
 30
0.0
 40
0.2446456724433347
 50
359.701838088498107
 51
45.474450655632161
  0
ARC
  5
279A6
  8
0
 10
3215.9594118303061805
 20
171.2677688146661126
 30
0.0
 40
1.624996613529518
 50
277.4196150460625745
 51
287.9967749452231942
  0
ARC
  5
279A7
  8
0
 10
3206.7628656592519292
 20
165.2375568625809876
 30
0.0
 40
12.7493892399630795
 50
0.9342214120395823
 51
5.4073975937193071
  0
ARC
  5
279A8
  8
0
 10
3219.7321263109829488
 20
165.2608540266134867
 30
0.0
 40
12.3285318449652994
 50
174.5162114905826911
 51
179.1421695036902975
  0
ARC
  5
279A9
  8
0
 10
3213.4577562017498167
 20
167.7212753874470081
 30
0.0
 40
1.085271248299998
 50
143.9071174310452932
 51
36.0926449453021121
  0
ARC
  5
279AA
  8
0
 10
3213.4577556118501889
 20
167.7212753874970019
 30
0.0
 40
0.9361404764999932
 50
136.9625744656514996
 51
43.0370603553628186
  0
ENDSEC
  0
EOF
