  0
SECTION
  2
HEADER
  9
$ACADVER
  1
AC1009
  9
$INSBASE
 10
4021.8368102581530366
 20
134.1227141040062065
 30
0.0
  9
$EXTMIN
 10
4017.7856291557532131
 20
131.5590824728558061
 30
0.0
  9
$EXTMAX
 10
4021.8496350452228398
 20
136.0912180410061865
 30
0.0
  9
$LIMMIN
 10
0.0
 20
0.0
  9
$LIMMAX
 10
11.6929133858000007
 20
8.2677165353999982
  9
$ORTHOMODE
 70
     0
  9
$REGENMODE
 70
     1
  9
$FILLMODE
 70
     1
  9
$QTEXTMODE
 70
     0
  9
$MIRRTEXT
 70
     0
  9
$DRAGMODE
 70
     2
  9
$LTSCALE
 40
0.6431102362
  9
$OSMODE
 70
  4095
  9
$ATTMODE
 70
     1
  9
$TEXTSIZE
 40
0.2
  9
$TRACEWID
 40
0.05
  9
$TEXTSTYLE
  7
STANDARD
  9
$CLAYER
  8
0
  9
$CELTYPE
  6
BYLAYER
  9
$CECOLOR
 62
   256
  9
$DIMSCALE
 40
1.0
  9
$DIMASZ
 40
0.1875
  9
$DIMEXO
 40
0.0625
  9
$DIMDLI
 40
0.4443307087
  9
$DIMRND
 40
0.0
  9
$DIMDLE
 40
0.0
  9
$DIMEXE
 40
0.125
  9
$DIMTP
 40
0.01
  9
$DIMTM
 40
0.01
  9
$DIMTXT
 40
2.0
  9
$DIMCEN
 40
0.1052362205
  9
$DIMTSZ
 40
0.0
  9
$DIMTOL
 70
     1
  9
$DIMLIM
 70
     0
  9
$DIMTIH
 70
     1
  9
$DIMTOH
 70
     1
  9
$DIMSE1
 70
     0
  9
$DIMSE2
 70
     0
  9
$DIMTAD
 70
     0
  9
$DIMZIN
 70
     0
  9
$DIMBLK
  1

  9
$DIMASO
 70
     1
  9
$DIMSHO
 70
     1
  9
$DIMPOST
  1
\X
  9
$DIMAPOST
  1

  9
$DIMALT
 70
     1
  9
$DIMALTD
 70
     2
  9
$DIMALTF
 40
25.3999999999999986
  9
$DIMLFAC
 40
1.0
  9
$DIMTOFL
 70
     0
  9
$DIMTVP
 40
0.0
  9
$DIMTIX
 70
     0
  9
$DIMSOXD
 70
     0
  9
$DIMSAH
 70
     0
  9
$DIMBLK1
  1

  9
$DIMBLK2
  1

  9
$DIMSTYLE
  2
STANDARD
  9
$DIMCLRD
 70
     0
  9
$DIMCLRE
 70
     0
  9
$DIMCLRT
 70
     0
  9
$DIMTFAC
 40
1.0
  9
$DIMGAP
 40
0.09
  9
$LUNITS
 70
     2
  9
$LUPREC
 70
     4
  9
$SKETCHINC
 40
0.1
  9
$FILLETRAD
 40
0.0
  9
$AUNITS
 70
     0
  9
$AUPREC
 70
     0
  9
$MENU
  1
.
  9
$ELEVATION
 40
0.0
  9
$PELEVATION
 40
0.0
  9
$THICKNESS
 40
0.0
  9
$LIMCHECK
 70
     0
  9
$BLIPMODE
 70
     0
  9
$CHAMFERA
 40
0.0
  9
$CHAMFERB
 40
0.0
  9
$SKPOLY
 70
     0
  9
$TDCREATE
 40
2458060.468368056230247
  9
$TDUPDATE
 40
2459076.6417939821258187
  9
$TDINDWG
 40
0.4064190972
  9
$TDUSRTIMER
 40
0.4064190972
  9
$USRTIMER
 70
     1
  9
$ANGBASE
 50
0.0
  9
$ANGDIR
 70
     0
  9
$PDMODE
 70
     0
  9
$PDSIZE
 40
0.3125
  9
$PLINEWID
 40
0.0
  9
$COORDS
 70
     1
  9
$SPLFRAME
 70
     0
  9
$SPLINETYPE
 70
     6
  9
$SPLINESEGS
 70
     8
  9
$ATTDIA
 70
     1
  9
$ATTREQ
 70
     1
  9
$HANDLING
 70
     1
  9
$HANDSEED
  5
F3C3
  9
$SURFTAB1
 70
     6
  9
$SURFTAB2
 70
     6
  9
$SURFTYPE
 70
     6
  9
$SURFU
 70
     6
  9
$SURFV
 70
     6
  9
$UCSNAME
  2

  9
$UCSORG
 10
0.0
 20
0.0
 30
0.0
  9
$UCSXDIR
 10
1.0
 20
0.0
 30
0.0
  9
$UCSYDIR
 10
0.0
 20
1.0
 30
0.0
  9
$PUCSNAME
  2

  9
$PUCSORG
 10
0.0
 20
0.0
 30
0.0
  9
$PUCSXDIR
 10
1.0
 20
0.0
 30
0.0
  9
$PUCSYDIR
 10
0.0
 20
1.0
 30
0.0
  9
$USERI1
 70
     0
  9
$USERI2
 70
     0
  9
$USERI3
 70
     0
  9
$USERI4
 70
     0
  9
$USERI5
 70
     0
  9
$USERR1
 40
0.0
  9
$USERR2
 40
0.0
  9
$USERR3
 40
0.0
  9
$USERR4
 40
0.0
  9
$USERR5
 40
0.0
  9
$WORLDVIEW
 70
     1
  9
$SHADEDGE
 70
     3
  9
$SHADEDIF
 70
    70
  9
$TILEMODE
 70
     1
  9
$MAXACTVP
 70
    64
  9
$PLIMCHECK
 70
     0
  9
$PEXTMIN
 10
1.0000000000000000E+20
 20
1.0000000000000000E+20
 30
1.0000000000000000E+20
  9
$PEXTMAX
 10
-1.0000000000000000E+20
 20
-1.0000000000000000E+20
 30
-1.0000000000000000E+20
  9
$PLIMMIN
 10
0.0
 20
0.0
  9
$PLIMMAX
 10
12.0
 20
9.0
  9
$UNITMODE
 70
     0
  9
$VISRETAIN
 70
     1
  9
$PLINEGEN
 70
     0
  9
$PSLTSCALE
 70
     1
  0
ENDSEC
  0
SECTION
  2
TABLES
  0
TABLE
  2
VPORT
 70
     1
  0
VPORT
  2
*ACTIVE
 70
     0
 10
0.0
 20
0.0
 11
1.0
 21
1.0
 12
108.4522756551752991
 22
1.2455451543919469
 13
0.0
 23
0.0
 14
1.0
 24
1.0
 15
0.0
 25
0.0
 16
0.0
 26
0.0
 36
60.4960186965801583
 17
3911.3653564453120453
 27
132.5796051025390057
 37
0.0
 40
4.5605205508319351
 41
2.005224660397074
 42
50.0
 43
0.0
 44
0.0
 50
0.0
 51
0.0
 71
     0
 72
   100
 73
     1
 74
     1
 75
     0
 76
     0
 77
     0
 78
     0
  0
ENDTAB
  0
TABLE
  2
LTYPE
 70
     2
  0
LTYPE
  2
CONTINUOUS
 70
     0
  3
Solid line
 72
    65
 73
     0
 40
0.0
  0
LTYPE
  2
PHANTOM2
 70
     0
  3
___ _ _ ___ _ _ ___ _ _ ___ _ _
 72
    65
 73
     6
 40
1.25
 49
0.625
 49
-0.125
 49
0.125
 49
-0.125
 49
0.125
 49
-0.125
  0
ENDTAB
  0
TABLE
  2
LAYER
 70
     2
  0
LAYER
  2
0
 70
     0
 62
   255
  6
CONTINUOUS
  0
LAYER
  2
DEFPOINTS
 70
     0
 62
     7
  6
CONTINUOUS
  0
ENDTAB
  0
TABLE
  2
STYLE
 70
     1
  0
STYLE
  2
STANDARD
 70
     0
 40
0.0
 41
0.8
 50
0.0
 71
     0
 42
0.2
  3
txt
  4

  0
ENDTAB
  0
TABLE
  2
VIEW
 70
     0
  0
ENDTAB
  0
TABLE
  2
UCS
 70
     0
  0
ENDTAB
  0
TABLE
  2
APPID
 70
    11
  0
APPID
  2
ACAD
 70
     0
  0
APPID
  2
ACAD_MLEADERVER
 70
     0
  0
APPID
  2
ACAD_EXEMPT_FROM_CAD_STANDARDS
 70
     0
  0
APPID
  2
ACAD_NAV_VCDISPLAY
 70
     0
  0
APPID
  2
ACAECLAYERSTANDARD
 70
     0
  0
APPID
  2
ACCMTRANSPARENCY
 70
     0
  0
APPID
  2
ACAD_DSTYLE_DIMJAG
 70
     0
  0
APPID
  2
ACAD_DSTYLE_DIMTALN
 70
     0
  0
APPID
  2
ACDBATTR
 70
     0
  0
APPID
  2
ACADANNOTATIVE
 70
     0
  0
APPID
  2
ACAD_DSTYLE_DIMRADIAL_EXTENSION
 70
     0
  0
ENDTAB
  0
TABLE
  2
DIMSTYLE
 70
     1
  0
DIMSTYLE
  2
STANDARD
 70
     0
  3

  4

  5

  6

  7

 40
1.0
 41
0.1875
 42
0.0625
 43
0.38
 44
0.125
 45
0.0
 46
0.0
 47
0.01
 48
0.01
140
0.15625
141
0.09
142
0.0
143
25.3999999999999986
144
1.0
145
0.0
146
1.0
147
0.09
 71
     1
 72
     0
 73
     1
 74
     1
 75
     0
 76
     0
 77
     0
 78
     4
170
     0
171
     2
172
     0
173
     0
174
     0
175
     0
176
     0
177
     0
178
     0
  0
ENDTAB
  0
ENDSEC
  0
SECTION
  2
BLOCKS
  0
BLOCK
  8
0
  2
$MODEL_SPACE
 70
     0
 10
0.0
 20
0.0
 30
0.0
  3
$MODEL_SPACE
  1

  0
ENDBLK
  5
21
  8
0
  0
BLOCK
 67
     1
  8
0
  2
$PAPER_SPACE
 70
     0
 10
0.0
 20
0.0
 30
0.0
  3
$PAPER_SPACE
  1

  0
ENDBLK
  5
1D
 67
     1
  8
0
  0
ENDSEC
  0
SECTION
  2
ENTITIES
  0
ATTDEF
  5
3930
  8
DEFPOINTS
 10
4021.8389683785540001
 20
134.1240272616012987
 30
0.0
 40
0.001
  1
K-21398T-9
  3

  2
MODELNUMBER
 70
     0
1001
ACDBATTR
1070
     0
1070
     1
  0
ATTDEF
  5
3931
  8
DEFPOINTS
 10
4021.8389683785540001
 20
134.1223605949346052
 30
0.0
 40
0.001
  1
COMPONENTS
  3

  2
TRADENAME
 70
     0
1001
ACDBATTR
1070
     0
1070
     1
  0
ATTDEF
  5
3932
  8
DEFPOINTS
 10
4021.8389683785540001
 20
134.1206939282679969
 30
0.0
 40
0.001
  1
VALVE TRIM
  3

  2
PRODUCT
 70
     0
1001
ACDBATTR
1070
     0
1070
     1
  0
LINE
  5
F29D
  8
0
 10
4021.8368102581530366
 20
132.1542101670061982
 30
0.0
 11
4021.7187000219528272
 21
132.1542101670061982
 31
0.0
  0
LINE
  5
F29E
  8
0
 10
4019.5041330927538183
 20
133.1811044189061874
 30
0.0
 11
4019.5139756124531232
 21
133.1811187699061918
 31
0.0
  0
LINE
  5
F29F
  8
0
 10
4019.5257866360529988
 20
133.1581471749061905
 30
0.0
 11
4019.7305110455531576
 21
133.1581471749061905
 31
0.0
  0
LINE
  5
F2A0
  8
0
 10
4019.8486212817529122
 20
133.1581471749061905
 30
0.0
 11
4020.5257866360529988
 21
133.1581471749061905
 31
0.0
  0
LINE
  5
F2A1
  8
0
 10
4020.5690937226531787
 20
133.1581471749061905
 30
0.0
 11
4021.6990149825528533
 21
133.1581471749061905
 31
0.0
  0
LINE
  5
F2A2
  8
0
 10
4019.4352354549528172
 20
133.1581471749061905
 30
0.0
 11
4019.4352354549528172
 21
135.0872810330562004
 31
0.0
  0
LINE
  5
F2A3
  8
0
 10
4019.4824795494528189
 20
133.1956474540604063
 30
0.0
 11
4019.4824795494528189
 21
133.1989506948798976
 31
0.0
  0
LINE
  5
F2A4
  8
0
 10
4019.5041330927538183
 20
135.0675959938062078
 30
0.0
 11
4019.5041330927538183
 21
133.1811044189061874
 31
0.0
  0
LINE
  5
F2A5
  8
0
 10
4019.5139756124531232
 20
135.0754700095062049
 30
0.0
 11
4019.5139756124531232
 21
133.1699581985062082
 31
0.0
  0
LINE
  5
F2A6
  8
0
 10
4020.5375976597529188
 20
133.1699581985062082
 30
0.0
 11
4020.5375976597529188
 21
135.0754700095062049
 31
0.0
  0
LINE
  5
F2A7
  8
0
 10
4019.5139756124531232
 20
135.0675959938062078
 30
0.0
 11
4019.5041330927538183
 21
135.0675959938062078
 31
0.0
  0
LINE
  5
F2A8
  8
0
 10
4019.5257866360529988
 20
135.0872810331061942
 30
0.0
 11
4020.5257866360529988
 21
135.0872810331061942
 31
0.0
  0
LINE
  5
F2A9
  8
0
 10
4020.5690937226531787
 20
135.0872810331061942
 30
0.0
 11
4021.6990149825528533
 21
135.0872810331061942
 31
0.0
  0
LINE
  5
F2AA
  8
0
 10
4021.6990149825528533
 20
136.0715330016062126
 30
0.0
 11
4021.6990149825528533
 21
132.1738952064062005
 31
0.0
  0
LINE
  5
F2AB
  8
0
 10
4021.8368102581530366
 20
132.1542101670061982
 30
0.0
 11
4021.8368102581530366
 21
136.0912180410061865
 31
0.0
  0
LINE
  5
F2AC
  8
0
 10
4021.8368102581530366
 20
136.0912180410061865
 30
0.0
 11
4021.7187000219528272
 21
136.0912180410061865
 31
0.0
  0
ARC
  5
F2AD
  8
0
 10
4020.1185814671530352
 20
133.9467308634062022
 30
0.0
 40
0.9842519684999999
 50
226.0301657019520007
 51
229.738320463346497
  0
ARC
  5
F2AE
  8
0
 10
4020.1185814671530352
 20
134.2986973446062109
 30
0.0
 40
0.9842519684999999
 50
128.6293277340934935
 51
133.969834298047914
  0
ARC
  5
F2AF
  8
0
 10
4020.1175498258539847
 20
133.9474451712061978
 30
0.0
 40
0.9816100229000001
 50
229.6866095459504038
 51
231.3245066977941917
  0
ARC
  5
F2B0
  8
0
 10
4019.7895661636539444
 20
132.1952983827061985
 30
0.0
 40
0.9646581278000002
 50
86.4902321595971131
 51
93.5097678404028869
  0
ARC
  5
F2B1
  8
0
 10
4020.5690937226531787
 20
133.1896432379062105
 30
0.0
 40
0.031496063
 50
180.0
 51
270.0
  0
ARC
  5
F2B2
  8
0
 10
4020.5690937226531787
 20
135.0557849701062025
 30
0.0
 40
0.031496063
 50
90.0
 51
180.0
  0
ARC
  5
F2B3
  8
0
 10
4021.7187000219528272
 20
136.0715330016062126
 30
0.0
 40
0.0196850394
 50
90.0
 51
180.0
  0
ARC
  5
F2B4
  8
0
 10
4021.7187000219528272
 20
132.1738952064062005
 30
0.0
 40
0.0196850394
 50
180.0
 51
270.0
  0
ARC
  5
F2B5
  8
0
 10
4019.5257866360529988
 20
135.0754700095062049
 30
0.0
 40
0.0118110236
 50
90.0
 51
180.0
  0
ARC
  5
F2B6
  8
0
 10
4019.5257866360529988
 20
133.1699581985062082
 30
0.0
 40
0.0118110236
 50
180.0
 51
270.0
  0
ARC
  5
F2B7
  8
0
 10
4020.5257866360529988
 20
135.0754700095062049
 30
0.0
 40
0.0118110236
 50
0.0
 51
90.0
  0
ARC
  5
F2B8
  8
0
 10
4020.5257866360529988
 20
133.1699581985062082
 30
0.0
 40
0.0118110236
 50
270.0
 51
0.0
  0
LINE
  5
F2BA
  8
0
 10
4017.7913947703032136
 20
131.5775784107061952
 30
0.0
 11
4017.8023597412379786
 21
131.5666134397714018
 31
0.0
  0
LINE
  5
F2BB
  8
0
 10
4017.7913959357210842
 20
135.0930478130240999
 30
0.0
 11
4017.8023597412379786
 21
135.1040116185409943
 31
0.0
  0
LINE
  5
F2BC
  8
0
 10
4017.8023597412379786
 20
131.5666134397714018
 30
0.0
 11
4018.233808548252
 21
131.5590824728558061
 31
0.0
  0
LINE
  5
F2BD
  8
0
 10
4017.7856291557532131
 20
131.5914978355561971
 30
0.0
 11
4017.7856291557532131
 21
135.0791272228561866
 31
0.0
  0
LINE
  5
F2BE
  8
0
 10
4018.2580701006531854
 20
131.5914978355561971
 30
0.0
 11
4018.2580701006531854
 21
135.0791272228561866
 31
0.0
  0
LINE
  5
F2BF
  8
0
 10
4018.7451216966528591
 20
133.1864163095561935
 30
0.0
 11
4018.7451216966528591
 21
135.0590118983562036
 31
0.0
  0
LINE
  5
F2C0
  8
0
 10
4018.7645164463838228
 20
133.1675127875572002
 30
0.0
 11
4019.4352354549528172
 21
133.1581471749061905
 31
0.0
  0
LINE
  5
F2C1
  8
0
 10
4018.2824355443558488
 20
134.8733893797189012
 30
0.0
 11
4018.5852049427990096
 21
134.5098790626018115
 31
0.0
  0
LINE
  5
F2C2
  8
0
 10
4018.2523044860658956
 20
135.0930466477437903
 30
0.0
 11
4018.233808548252
 21
135.1115425854565899
 31
0.0
  0
LINE
  5
F2C3
  8
0
 10
4018.7291575262152037
 20
133.7731535993744103
 30
0.0
 11
4018.3875392133518289
 21
133.7683833953491899
 31
0.0
  0
LINE
  5
F2C4
  8
0
 10
4018.2580701006531854
 20
133.7701912426562103
 30
0.0
 11
4018.3875392133518289
 21
133.7683833953491899
 31
0.0
  0
LINE
  5
F2C5
  8
0
 10
4018.2521804945299664
 20
131.5774544190336997
 30
0.0
 11
4018.233808548252
 21
131.5590824728558061
 31
0.0
  0
LINE
  5
F2C6
  8
0
 10
4018.6619920046409788
 20
134.4732124796514938
 30
0.0
 11
4018.7291575262529477
 21
134.4722746111561946
 31
0.0
  0
LINE
  5
F2C7
  8
0
 10
4017.8023597412379786
 20
135.1040116185409943
 30
0.0
 11
4018.233808548252
 21
135.1115425854565899
 31
0.0
  0
LINE
  5
F2C8
  8
0
 10
4018.764516446385187
 20
135.0779154204552128
 30
0.0
 11
4019.4352354549528172
 21
135.0872810330562004
 31
0.0
  0
ARC
  5
F2C9
  8
0
 10
4042.3744085102580357
 20
134.1229167205133024
 30
0.0
 40
23.6478377095940786
 50
180.8474635943723001
 51
182.2696179217450947
  0
ARC
  5
F2CA
  8
0
 10
4042.3747404395439844
 20
134.1225024561414898
 30
0.0
 40
23.6481697361497183
 50
177.7303920624786997
 51
179.1525264214033086
  0
ARC
  5
F2CB
  8
0
 10
4018.4032570891531577
 20
134.9742197956562109
 30
0.0
 40
0.1573677809
 50
202.6913029255759966
 51
219.8463500970250948
  0
ARC
  5
F2CC
  8
0
 10
4018.6626674824588008
 20
134.573363986754913
 30
0.0
 40
0.1001537849771711
 50
219.3365535314858903
 51
269.6135710541871049
  0
ARC
  5
F2CD
  8
0
 10
4018.7646620590639941
 20
135.0583648916000072
 30
0.0
 40
0.0195510710929099
 50
90.4267320706919833
 51
178.1035552479519026
  0
ARC
  5
F2CE
  8
0
 10
4018.7647062514251957
 20
133.1871086570577063
 30
0.0
 40
0.0195967887843987
 50
182.0246606293000013
 51
269.4450520434799046
  0
ARC
  5
F2CF
  8
0
 10
4017.805314195153187
 20
135.0791272228561866
 30
0.0
 40
0.0196850394
 50
134.9952030586713079
 51
180.0
  0
ARC
  5
F2D0
  8
0
 10
4017.805314195153187
 20
131.5914978355561971
 30
0.0
 40
0.0196850394
 50
180.0
 51
224.999999999994202
  0
ARC
  5
F2D1
  8
0
 10
4018.2381733950301168
 20
131.5915855104707077
 30
0.0
 40
0.0198968987920526
 50
314.7475257478648132
 51
359.7475275479558832
  0
ARC
  5
F2D2
  8
0
 10
4018.2383850612532115
 20
135.0791272228561866
 30
0.0
 40
0.0196850394
 50
0.0
 51
45.0000001548975206
  0
LINE
  5
F2D3
  8
0
 10
4018.7291575262529477
 20
134.4722746111561946
 30
0.0
 11
4018.7291575262529477
 21
133.7731535967562024
 31
0.0
  0
LINE
  5
F2D4
  8
0
 10
4017.8023597412529853
 20
132.5479109543570075
 30
0.0
 11
4017.8023597412529853
 21
134.1227141040552908
 31
0.0
  0
ARC
  5
F2D5
  8
0
 10
4018.5901826850531506
 20
132.1221030121562023
 30
0.0
 40
0.7878209247000074
 50
172.7351856916135091
 51
187.2656635677977022
  0
ARC
  5
F2D6
  8
0
 10
4018.3961949881331748
 20
131.9359979592146885
 30
0.0
 40
0.5938365196231893
 50
171.6273292289799883
 51
188.3696523777649929
  0
ARC
  5
F2D7
  8
0
 10
4018.181303437123006
 20
131.7806153696562035
 30
0.0
 40
0.3789449144269501
 50
169.5173605616029135
 51
190.4826394383970865
  0
ARC
  5
F2D8
  8
0
 10
4017.9875056437949752
 20
131.6636929997061998
 30
0.0
 40
0.1851469712757355
 50
164.9812627104489025
 51
195.0187372895510975
  0
ARC
  5
F2D9
  8
0
 10
4017.8532585926650427
 20
131.5911394225391859
 30
0.0
 40
0.0509012066829039
 50
151.1310128393683101
 51
208.9479600336499061
  0
ARC
  5
F2DA
  8
0
 10
4018.6871759892201226
 20
132.3273542722135119
 30
0.0
 40
0.8848171804678135
 50
172.8600099165878134
 51
186.856160925594196
  0
ARC
  5
F2DB
  8
0
 10
4018.5981885862702256
 20
132.5417826039335125
 30
0.0
 40
0.7958524406202062
 50
179.5587975021126965
 51
187.5414813397335934
  0
ARC
  5
F2DC
  8
0
 10
4017.4459846313529852
 20
132.1221030121562023
 30
0.0
 40
0.7878209247000074
 50
352.7343364322023263
 51
7.2648143083864412
  0
ARC
  5
F2DD
  8
0
 10
4017.6399723282738705
 20
131.9359979592146885
 30
0.0
 40
0.5938365196231893
 50
351.6303476222349218
 51
8.3726707710199584
  0
ARC
  5
F2DE
  8
0
 10
4017.8548638792831298
 20
131.7806153696562035
 30
0.0
 40
0.3789449144269501
 50
349.5173605616029135
 51
10.4826394383970793
  0
ARC
  5
F2DF
  8
0
 10
4018.0486616726111606
 20
131.6636929997061998
 30
0.0
 40
0.1851469712757355
 50
344.9812627104487888
 51
15.0187372895511402
  0
ARC
  5
F2E0
  8
0
 10
4018.1829087237410931
 20
131.5911394225391859
 30
0.0
 40
0.0509012066829039
 50
321.2483706348403985
 51
28.8689871606316686
  0
ARC
  5
F2E1
  8
0
 10
4017.3489913271851037
 20
132.3273542722135119
 30
0.0
 40
0.8848171804678135
 50
353.1438390744057756
 51
7.139990083412175
  0
ARC
  5
F2E2
  8
0
 10
4017.4379787301350007
 20
132.5417826039335125
 30
0.0
 40
0.7958524406202062
 50
352.458518660266293
 51
0.4412024978872896
  0
LINE
  5
F2E3
  8
0
 10
4017.8086830831539373
 20
131.6157149549561893
 30
0.0
 11
4018.227484233253108
 21
131.6157149549561893
 31
0.0
  0
LINE
  5
F2E4
  8
0
 10
4017.8086830831539373
 20
131.7116710444562102
 30
0.0
 11
4018.227484233253108
 21
131.7116710444562102
 31
0.0
  0
LINE
  5
F2E5
  8
0
 10
4017.8086830831539373
 20
131.8495596948561968
 30
0.0
 11
4018.227484233253108
 21
131.8495596948561968
 31
0.0
  0
LINE
  5
F2E6
  8
0
 10
4017.8086876376141845
 20
132.0224671741094937
 30
0.0
 11
4018.2274796787919513
 21
132.0224671741094937
 31
0.0
  0
LINE
  5
F2E7
  8
0
 10
4017.808686160860816
 20
132.2217272665808139
 30
0.0
 11
4018.2274811555457745
 21
132.2217272665808139
 31
0.0
  0
LINE
  5
F2E8
  8
0
 10
4017.8092201877529988
 20
132.4373317859254087
 30
0.0
 11
4018.2269471286517728
 21
132.437331785925295
 31
0.0
  0
LINE
  5
F2E9
  8
0
 10
4018.2338085482369934
 20
132.5479109543570075
 30
0.0
 11
4018.2338085482369934
 21
134.1228417994589108
 31
0.0
  0
ARC
  5
F2EA
  8
0
 10
4018.5901826850531506
 20
134.5485220462562097
 30
0.0
 40
0.7878209247000074
 50
172.7343364322022978
 51
187.2648143083864056
  0
ARC
  5
F2EB
  8
0
 10
4018.3961949881331748
 20
134.7346270991976951
 30
0.0
 40
0.5938365196231893
 50
171.6303476222348934
 51
188.372670771019898
  0
ARC
  5
F2EC
  8
0
 10
4018.181303437123006
 20
134.8900096887560949
 30
0.0
 40
0.3789449144269501
 50
169.5173605616029135
 51
190.4826394383970865
  0
ARC
  5
F2ED
  8
0
 10
4017.9875056437949752
 20
135.0069320587062123
 30
0.0
 40
0.1851469712757355
 50
164.9812627104473961
 51
195.0187372895510975
  0
ARC
  5
F2EE
  8
0
 10
4017.8532585926650427
 20
135.0794856358731977
 30
0.0
 40
0.0509012066829039
 50
151.0520399663500939
 51
208.8689871606316046
  0
ARC
  5
F2EF
  8
0
 10
4018.6871759892201226
 20
134.3432707861989002
 30
0.0
 40
0.8848171804678135
 50
173.143839074405804
 51
187.1399900834121013
  0
ARC
  5
F2F0
  8
0
 10
4018.5981885862702256
 20
134.1288424544788995
 30
0.0
 40
0.7958524406202062
 50
172.458518660266293
 51
180.4412024978873035
  0
ARC
  5
F2F1
  8
0
 10
4017.4459846313529852
 20
134.5485220462562097
 30
0.0
 40
0.7878209247000074
 50
352.7351856916134807
 51
7.2656635677976871
  0
ARC
  5
F2F2
  8
0
 10
4017.6399723282738705
 20
134.7346270991976951
 30
0.0
 40
0.5938365196231893
 50
351.6273292289799883
 51
8.369652377765048
  0
ARC
  5
F2F3
  8
0
 10
4017.8548638792831298
 20
134.8900096887560949
 30
0.0
 40
0.3789449144269501
 50
349.5173605616029135
 51
10.4826394383970793
  0
ARC
  5
F2F4
  8
0
 10
4018.0486616726111606
 20
135.0069320587062123
 30
0.0
 40
0.1851469712757355
 50
344.9812627104487888
 51
15.0187372895511402
  0
ARC
  5
F2F5
  8
0
 10
4018.1829087237410931
 20
135.0794856358731977
 30
0.0
 40
0.0509012066829039
 50
331.1310128393682817
 51
38.7516293651595518
  0
ARC
  5
F2F6
  8
0
 10
4017.3489913271851037
 20
134.3432707861989002
 30
0.0
 40
0.8848171804678135
 50
352.8600099165878987
 51
6.8561609255941933
  0
ARC
  5
F2F7
  8
0
 10
4017.4379787301350007
 20
134.1288424544788995
 30
0.0
 40
0.7958524406202062
 50
359.5679909401155214
 51
7.5414813397336689
  0
LINE
  5
F2F8
  8
0
 10
4017.8086830831539373
 20
135.0549101034561943
 30
0.0
 11
4018.227484233253108
 21
135.0549101034561943
 31
0.0
  0
LINE
  5
F2F9
  8
0
 10
4017.8086830831539373
 20
134.9589540139562018
 30
0.0
 11
4018.227484233253108
 21
134.9589540139562018
 31
0.0
  0
LINE
  5
F2FA
  8
0
 10
4017.8086830831539373
 20
134.8210653635561869
 30
0.0
 11
4018.227484233253108
 21
134.8210653635561869
 31
0.0
  0
LINE
  5
F2FB
  8
0
 10
4017.8086876376141845
 20
134.6481578843028899
 30
0.0
 11
4018.2274796787919513
 21
134.6481578843028899
 31
0.0
  0
LINE
  5
F2FC
  8
0
 10
4017.808686160860816
 20
134.4488977918315982
 30
0.0
 11
4018.2274811555457745
 21
134.4488977918315982
 31
0.0
  0
LINE
  5
F2FD
  8
0
 10
4017.8092201877529988
 20
134.2332932724870034
 30
0.0
 11
4018.2269471286517728
 21
134.2332932724870886
 31
0.0
  0
ENDSEC
  0
EOF
