  0
SECTION
  2
HEADER
  9
$ACADVER
  1
AC1009
  9
$INSBASE
 10
4018.6486821241101097
 20
135.6273652181046998
 30
0.0
  9
$EXTMIN
 10
4016.6801781871108687
 20
131.5761841157047058
 30
0.0
  9
$EXTMAX
 10
4020.6171860611111697
 20
135.6273652181046998
 30
0.0
  9
$LIMMIN
 10
0.0
 20
0.0
  9
$LIMMAX
 10
11.6929133858000007
 20
8.2677165353999982
  9
$ORTHOMODE
 70
     0
  9
$REGENMODE
 70
     1
  9
$FILLMODE
 70
     1
  9
$QTEXTMODE
 70
     0
  9
$MIRRTEXT
 70
     0
  9
$DRAGMODE
 70
     2
  9
$LTSCALE
 40
0.6431102362
  9
$OSMODE
 70
  4095
  9
$ATTMODE
 70
     1
  9
$TEXTSIZE
 40
0.2
  9
$TRACEWID
 40
0.05
  9
$TEXTSTYLE
  7
STANDARD
  9
$CLAYER
  8
0
  9
$CELTYPE
  6
BYLAYER
  9
$CECOLOR
 62
   256
  9
$DIMSCALE
 40
1.0
  9
$DIMASZ
 40
0.1875
  9
$DIMEXO
 40
0.0625
  9
$DIMDLI
 40
0.4443307087
  9
$DIMRND
 40
0.0
  9
$DIMDLE
 40
0.0
  9
$DIMEXE
 40
0.125
  9
$DIMTP
 40
0.01
  9
$DIMTM
 40
0.01
  9
$DIMTXT
 40
2.0
  9
$DIMCEN
 40
0.1052362205
  9
$DIMTSZ
 40
0.0
  9
$DIMTOL
 70
     1
  9
$DIMLIM
 70
     0
  9
$DIMTIH
 70
     1
  9
$DIMTOH
 70
     1
  9
$DIMSE1
 70
     0
  9
$DIMSE2
 70
     0
  9
$DIMTAD
 70
     0
  9
$DIMZIN
 70
     0
  9
$DIMBLK
  1

  9
$DIMASO
 70
     1
  9
$DIMSHO
 70
     1
  9
$DIMPOST
  1
\X
  9
$DIMAPOST
  1

  9
$DIMALT
 70
     1
  9
$DIMALTD
 70
     2
  9
$DIMALTF
 40
25.3999999999999986
  9
$DIMLFAC
 40
1.0
  9
$DIMTOFL
 70
     0
  9
$DIMTVP
 40
0.0
  9
$DIMTIX
 70
     0
  9
$DIMSOXD
 70
     0
  9
$DIMSAH
 70
     0
  9
$DIMBLK1
  1

  9
$DIMBLK2
  1

  9
$DIMSTYLE
  2
STANDARD
  9
$DIMCLRD
 70
     0
  9
$DIMCLRE
 70
     0
  9
$DIMCLRT
 70
     0
  9
$DIMTFAC
 40
1.0
  9
$DIMGAP
 40
0.09
  9
$LUNITS
 70
     2
  9
$LUPREC
 70
     4
  9
$SKETCHINC
 40
0.1
  9
$FILLETRAD
 40
0.0
  9
$AUNITS
 70
     0
  9
$AUPREC
 70
     0
  9
$MENU
  1
.
  9
$ELEVATION
 40
0.0
  9
$PELEVATION
 40
0.0
  9
$THICKNESS
 40
0.0
  9
$LIMCHECK
 70
     0
  9
$BLIPMODE
 70
     0
  9
$CHAMFERA
 40
0.0
  9
$CHAMFERB
 40
0.0
  9
$SKPOLY
 70
     0
  9
$TDCREATE
 40
2458060.468368056230247
  9
$TDUPDATE
 40
2459076.6405208338983357
  9
$TDINDWG
 40
0.4050765046
  9
$TDUSRTIMER
 40
0.4050765046
  9
$USRTIMER
 70
     1
  9
$ANGBASE
 50
0.0
  9
$ANGDIR
 70
     0
  9
$PDMODE
 70
     0
  9
$PDSIZE
 40
0.3125
  9
$PLINEWID
 40
0.0
  9
$COORDS
 70
     1
  9
$SPLFRAME
 70
     0
  9
$SPLINETYPE
 70
     6
  9
$SPLINESEGS
 70
     8
  9
$ATTDIA
 70
     1
  9
$ATTREQ
 70
     1
  9
$HANDLING
 70
     1
  9
$HANDSEED
  5
F3CB
  9
$SURFTAB1
 70
     6
  9
$SURFTAB2
 70
     6
  9
$SURFTYPE
 70
     6
  9
$SURFU
 70
     6
  9
$SURFV
 70
     6
  9
$UCSNAME
  2

  9
$UCSORG
 10
0.0
 20
0.0
 30
0.0
  9
$UCSXDIR
 10
1.0
 20
0.0
 30
0.0
  9
$UCSYDIR
 10
0.0
 20
1.0
 30
0.0
  9
$PUCSNAME
  2

  9
$PUCSORG
 10
0.0
 20
0.0
 30
0.0
  9
$PUCSXDIR
 10
1.0
 20
0.0
 30
0.0
  9
$PUCSYDIR
 10
0.0
 20
1.0
 30
0.0
  9
$USERI1
 70
     0
  9
$USERI2
 70
     0
  9
$USERI3
 70
     0
  9
$USERI4
 70
     0
  9
$USERI5
 70
     0
  9
$USERR1
 40
0.0
  9
$USERR2
 40
0.0
  9
$USERR3
 40
0.0
  9
$USERR4
 40
0.0
  9
$USERR5
 40
0.0
  9
$WORLDVIEW
 70
     1
  9
$SHADEDGE
 70
     3
  9
$SHADEDIF
 70
    70
  9
$TILEMODE
 70
     1
  9
$MAXACTVP
 70
    64
  9
$PLIMCHECK
 70
     0
  9
$PEXTMIN
 10
1.0000000000000000E+20
 20
1.0000000000000000E+20
 30
1.0000000000000000E+20
  9
$PEXTMAX
 10
-1.0000000000000000E+20
 20
-1.0000000000000000E+20
 30
-1.0000000000000000E+20
  9
$PLIMMIN
 10
0.0
 20
0.0
  9
$PLIMMAX
 10
12.0
 20
9.0
  9
$UNITMODE
 70
     0
  9
$VISRETAIN
 70
     1
  9
$PLINEGEN
 70
     0
  9
$PSLTSCALE
 70
     1
  0
ENDSEC
  0
SECTION
  2
TABLES
  0
TABLE
  2
VPORT
 70
     1
  0
VPORT
  2
*ACTIVE
 70
     0
 10
0.0
 20
0.0
 11
1.0
 21
1.0
 12
107.2833256787979934
 22
1.0221695643656681
 13
0.0
 23
0.0
 14
1.0
 24
1.0
 15
0.0
 25
0.0
 16
0.0
 26
0.0
 36
60.4960186965801583
 17
3911.3653564453120453
 27
132.5796051025390057
 37
0.0
 40
4.0765538441686777
 41
2.005224660397074
 42
50.0
 43
0.0
 44
0.0
 50
0.0
 51
0.0
 71
     0
 72
   100
 73
     1
 74
     1
 75
     0
 76
     0
 77
     0
 78
     0
  0
ENDTAB
  0
TABLE
  2
LTYPE
 70
     2
  0
LTYPE
  2
CONTINUOUS
 70
     0
  3
Solid line
 72
    65
 73
     0
 40
0.0
  0
LTYPE
  2
PHANTOM2
 70
     0
  3
___ _ _ ___ _ _ ___ _ _ ___ _ _
 72
    65
 73
     6
 40
1.25
 49
0.625
 49
-0.125
 49
0.125
 49
-0.125
 49
0.125
 49
-0.125
  0
ENDTAB
  0
TABLE
  2
LAYER
 70
     2
  0
LAYER
  2
0
 70
     0
 62
   255
  6
CONTINUOUS
  0
LAYER
  2
DEFPOINTS
 70
     0
 62
     7
  6
CONTINUOUS
  0
ENDTAB
  0
TABLE
  2
STYLE
 70
     1
  0
STYLE
  2
STANDARD
 70
     0
 40
0.0
 41
0.8
 50
0.0
 71
     0
 42
0.2
  3
txt
  4

  0
ENDTAB
  0
TABLE
  2
VIEW
 70
     0
  0
ENDTAB
  0
TABLE
  2
UCS
 70
     0
  0
ENDTAB
  0
TABLE
  2
APPID
 70
    11
  0
APPID
  2
ACAD
 70
     0
  0
APPID
  2
ACAD_MLEADERVER
 70
     0
  0
APPID
  2
ACAD_EXEMPT_FROM_CAD_STANDARDS
 70
     0
  0
APPID
  2
ACAD_NAV_VCDISPLAY
 70
     0
  0
APPID
  2
ACAECLAYERSTANDARD
 70
     0
  0
APPID
  2
ACCMTRANSPARENCY
 70
     0
  0
APPID
  2
ACAD_DSTYLE_DIMJAG
 70
     0
  0
APPID
  2
ACAD_DSTYLE_DIMTALN
 70
     0
  0
APPID
  2
ACDBATTR
 70
     0
  0
APPID
  2
ACADANNOTATIVE
 70
     0
  0
APPID
  2
ACAD_DSTYLE_DIMRADIAL_EXTENSION
 70
     0
  0
ENDTAB
  0
TABLE
  2
DIMSTYLE
 70
     1
  0
DIMSTYLE
  2
STANDARD
 70
     0
  3

  4

  5

  6

  7

 40
1.0
 41
0.1875
 42
0.0625
 43
0.38
 44
0.125
 45
0.0
 46
0.0
 47
0.01
 48
0.01
140
0.15625
141
0.09
142
0.0
143
25.3999999999999986
144
1.0
145
0.0
146
1.0
147
0.09
 71
     1
 72
     0
 73
     1
 74
     1
 75
     0
 76
     0
 77
     0
 78
     4
170
     0
171
     2
172
     0
173
     0
174
     0
175
     0
176
     0
177
     0
178
     0
  0
ENDTAB
  0
ENDSEC
  0
SECTION
  2
BLOCKS
  0
BLOCK
  8
0
  2
$MODEL_SPACE
 70
     0
 10
0.0
 20
0.0
 30
0.0
  3
$MODEL_SPACE
  1

  0
ENDBLK
  5
21
  8
0
  0
BLOCK
 67
     1
  8
0
  2
$PAPER_SPACE
 70
     0
 10
0.0
 20
0.0
 30
0.0
  3
$PAPER_SPACE
  1

  0
ENDBLK
  5
1D
 67
     1
  8
0
  0
ENDSEC
  0
SECTION
  2
ENTITIES
  0
ATTDEF
  5
3930
  8
DEFPOINTS
 10
4018.6444041586269122
 20
135.6255929736400105
 30
0.0
 40
0.001
  1
K-21398T-9
  3

  2
MODELNUMBER
 70
     0
1001
ACDBATTR
1070
     0
1070
     1
  0
ATTDEF
  5
3931
  8
DEFPOINTS
 10
4018.6444041586269122
 20
135.6239263069734022
 30
0.0
 40
0.001
  1
COMPONENTS
  3

  2
TRADENAME
 70
     0
1001
ACDBATTR
1070
     0
1070
     1
  0
ATTDEF
  5
3932
  8
DEFPOINTS
 10
4018.6444041586269122
 20
135.6222596403067087
 30
0.0
 40
0.001
  1
VALVE TRIM
  3

  2
PRODUCT
 70
     0
1001
ACDBATTR
1070
     0
1070
     1
  0
LINE
  5
F2A3
  8
0
 10
4020.6171860611111697
 20
135.6273652181046998
 30
0.0
 11
4020.6171860611111697
 21
135.5092549819046894
 31
0.0
  0
LINE
  5
F2A4
  8
0
 10
4019.593564043295828
 20
133.2946880527047142
 30
0.0
 11
4019.5935496922961647
 21
133.3045305724047012
 31
0.0
  0
LINE
  5
F2A5
  8
0
 10
4019.6132490532099837
 20
133.3163415960046905
 30
0.0
 11
4019.6132490532099837
 21
133.5210660055047072
 31
0.0
  0
LINE
  5
F2A6
  8
0
 10
4019.6132490532099837
 20
133.6391762417046891
 30
0.0
 11
4019.6132490532099837
 21
134.3163415960046905
 31
0.0
  0
LINE
  5
F2A7
  8
0
 10
4019.6132490532099837
 20
134.3596486826046998
 30
0.0
 11
4019.6132490532099837
 21
135.4895699425046871
 31
0.0
  0
LINE
  5
F2A8
  8
0
 10
4019.6132490532099837
 20
133.2257904149047079
 30
0.0
 11
4017.684115195009781
 21
133.2257904149047079
 31
0.0
  0
LINE
  5
F2A9
  8
0
 10
4017.7038002343101653
 20
133.2946880527047142
 30
0.0
 11
4019.593564043295828
 21
133.2946880527047142
 31
0.0
  0
LINE
  5
F2AA
  8
0
 10
4017.6959262186101114
 20
133.3045305724047012
 30
0.0
 11
4019.6014380296101081
 21
133.3045305724047012
 31
0.0
  0
LINE
  5
F2AB
  8
0
 10
4019.6014380296101081
 20
134.3281526197046958
 30
0.0
 11
4017.6959262186101114
 21
134.3281526197046958
 31
0.0
  0
LINE
  5
F2AC
  8
0
 10
4017.7038002343101653
 20
133.3045305724047012
 30
0.0
 11
4017.7038002343101653
 21
133.2946880527047142
 31
0.0
  0
LINE
  5
F2AD
  8
0
 10
4017.684115195009781
 20
133.3163415960046905
 30
0.0
 11
4017.684115195009781
 21
134.3163415960046905
 31
0.0
  0
LINE
  5
F2AE
  8
0
 10
4017.684115195009781
 20
134.3596486826046998
 30
0.0
 11
4017.684115195009781
 21
135.4895699425046871
 31
0.0
  0
LINE
  5
F2AF
  8
0
 10
4016.6998632265108427
 20
135.4895699425046871
 30
0.0
 11
4020.5975010217098315
 21
135.4895699425046871
 31
0.0
  0
LINE
  5
F2B0
  8
0
 10
4020.6171860611111697
 20
135.6273652181046998
 30
0.0
 11
4016.6801781871108687
 21
135.6273652181046998
 31
0.0
  0
LINE
  5
F2B1
  8
0
 10
4016.6801781871108687
 20
135.6273652181046998
 30
0.0
 11
4016.6801781871108687
 21
135.5092549819046894
 31
0.0
  0
ARC
  5
F2B2
  8
0
 10
4018.824657577322796
 20
133.9091435966846859
 30
0.0
 40
0.9842625508173422
 50
316.0301800591968231
 51
321.3706302909919259
  0
ARC
  5
F2B3
  8
0
 10
4018.4726988835100201
 20
133.9091364271046984
 30
0.0
 40
0.9842519684999999
 50
218.6293277340957957
 51
223.9698342980584016
  0
ARC
  5
F2B4
  8
0
 10
4020.5760978454109136
 20
133.5801211236046981
 30
0.0
 40
0.9646581278000002
 50
176.4902321596009074
 51
183.5097678403990074
  0
ARC
  5
F2B5
  8
0
 10
4019.5817529902110437
 20
134.3596486826046998
 30
0.0
 40
0.031496063
 50
270.0
 51
0.0
  0
ARC
  5
F2B6
  8
0
 10
4017.7156112580109948
 20
134.3596486826046998
 30
0.0
 40
0.031496063
 50
180.0
 51
270.0
  0
ARC
  5
F2B7
  8
0
 10
4016.6998632265108427
 20
135.5092549819046894
 30
0.0
 40
0.0196850394
 50
180.0
 51
270.0
  0
ARC
  5
F2B8
  8
0
 10
4020.5975010217098315
 20
135.5092549819046894
 30
0.0
 40
0.0196850394
 50
270.0
 51
0.0
  0
ARC
  5
F2B9
  8
0
 10
4017.6959262186101114
 20
133.3163415960046905
 30
0.0
 40
0.0118110236
 50
180.0
 51
270.0
  0
ARC
  5
F2BA
  8
0
 10
4019.6014380296101081
 20
133.3163415960046905
 30
0.0
 40
0.0118110236
 50
270.0
 51
0.0
  0
ARC
  5
F2BB
  8
0
 10
4017.6959262186101114
 20
134.3163415960046905
 30
0.0
 40
0.0118110236
 50
90.0
 51
180.0
  0
ARC
  5
F2BC
  8
0
 10
4019.6014380296101081
 20
134.3163415960046905
 30
0.0
 40
0.0118110236
 50
0.0
 51
90.0
  0
LINE
  5
F2BE
  8
0
 10
4017.6783484588258943
 20
131.5819508709890897
 30
0.0
 11
4017.6673846285539184
 21
131.5929147012612077
 31
0.0
  0
LINE
  5
F2BF
  8
0
 10
4017.6922690243100078
 20
131.5761841157047058
 30
0.0
 11
4019.6050952620112184
 21
131.5761841157047058
 31
0.0
  0
LINE
  5
F2C0
  8
0
 10
4019.6050952620112184
 20
132.0486250606047065
 30
0.0
 11
4017.6922690243100078
 21
132.0486250606047065
 31
0.0
  0
LINE
  5
F2C1
  8
0
 10
4017.6673846285539184
 20
131.5929147012612077
 30
0.0
 11
4017.6598536558781234
 21
132.0243635082046865
 31
0.0
  0
LINE
  5
F2C2
  8
0
 10
4018.2961592818110148
 20
132.0486250606047065
 30
0.0
 11
4018.2943514345101903
 21
132.1780941728046912
 31
0.0
  0
LINE
  5
F2C3
  8
0
 10
4019.6190146868611919
 20
132.042859446054706
 30
0.0
 11
4019.637510624710103
 21
132.0243635082223932
 31
0.0
  0
LINE
  5
F2C4
  8
0
 10
4018.2991216359991995
 20
132.5197124862046962
 30
0.0
 11
4018.2943514345101903
 21
132.1780941728046912
 31
0.0
  0
LINE
  5
F2C5
  8
0
 10
4018.9982426503011084
 20
132.519712486485588
 30
0.0
 11
4019.0030128518101264
 21
132.1780941728046912
 31
0.0
  0
LINE
  5
F2C6
  8
0
 10
4019.0012050045102114
 20
132.0486250606047065
 30
0.0
 11
4019.0030128518101264
 21
132.1780941728046912
 31
0.0
  0
LINE
  5
F2C7
  8
0
 10
4017.6598536558781234
 20
132.0243635082046865
 30
0.0
 11
4017.6783495994600344
 21
132.042859446054706
 31
0.0
  0
LINE
  5
F2C8
  8
0
 10
4019.6299796577100096
 20
131.5929147012047054
 30
0.0
 11
4019.637510624710103
 21
132.0243635082223932
 31
0.0
  0
LINE
  5
F2C9
  8
0
 10
4019.6299796577100096
 20
131.5929147012047054
 30
0.0
 11
4019.6190158521490048
 21
131.5819508956423931
 31
0.0
  0
ARC
  5
F2CA
  8
0
 10
4019.6050952620112184
 20
132.0289400212047042
 30
0.0
 40
0.0196850394
 50
44.9999999999953886
 51
90.0
  0
ARC
  5
F2CB
  8
0
 10
4017.6922690243100078
 20
132.0289400212047042
 30
0.0
 40
0.0196850394
 50
90.0
 51
135.0000000000046043
  0
ARC
  5
F2CC
  8
0
 10
4017.6922690243100078
 20
131.5958691551047082
 30
0.0
 40
0.0196850394
 50
224.9953046623913053
 51
270.0
  0
ARC
  5
F2CD
  8
0
 10
4019.6050952620112184
 20
131.5958691551047082
 30
0.0
 40
0.0196850394
 50
270.0
 51
315.004796816983287
  0
LINE
  5
F2CE
  8
0
 10
4019.5849799185098163
 20
132.5356766566046929
 30
0.0
 11
4017.7123843297108579
 21
132.5356766566046929
 31
0.0
  0
LINE
  5
F2CF
  8
0
 10
4019.6038834405098896
 20
132.5550714063350881
 30
0.0
 11
4019.6132490532099837
 21
133.2257904149047079
 31
0.0
  0
LINE
  5
F2D0
  8
0
 10
4017.6934808076111949
 20
132.5550714063365945
 30
0.0
 11
4017.684115195009781
 21
133.2257904149047079
 31
0.0
  0
ARC
  5
F2D1
  8
0
 10
4018.6484852823259644
 20
156.1647512278011902
 30
0.0
 40
23.6476254049908192
 50
270.8474572100986961
 51
272.2696243060153165
  0
ARC
  5
F2D2
  8
0
 10
4018.6489140188327838
 20
156.1660395417802079
 30
0.0
 40
23.6489140965009703
 50
267.7304144447948033
 51
269.1525040390912977
  0
ARC
  5
F2D3
  8
0
 10
4017.7130174192238883
 20
132.555203454267911
 30
0.0
 40
0.0195370578468728
 50
180.3872561983947946
 51
268.1430311262708983
  0
ARC
  5
F2D4
  8
0
 10
4019.5842003201678381
 20
132.5553462523392909
 30
0.0
 40
0.0196850392414566
 50
272.2697124908742126
 51
359.2000001818821033
  0
LINE
  5
F2D5
  8
0
 10
4018.2991216169111794
 20
132.5197124862046962
 30
0.0
 11
4018.998242631310859
 21
132.5197124862046962
 31
0.0
  0
ARC
  5
F2D6
  8
0
 10
4018.9517979903098421
 20
132.1555064987693129
 30
0.0
 40
0.4803968367483706
 50
177.9886178056422921
 51
192.8550736193475075
  0
ARC
  5
F2D7
  8
0
 10
4018.7290525652952056
 20
132.1701277963011023
 30
0.0
 40
0.257365172352711
 50
148.5408824403662038
 51
179.5013848676966859
  0
ARC
  5
F2D8
  8
0
 10
4018.6498658625628195
 20
132.2076366787395898
 30
0.0
 40
0.1704979270137915
 50
114.7504929240952976
 51
145.4035691084694975
  0
ARC
  5
F2D9
  8
0
 10
4018.646135011827937
 20
132.2098753107881919
 30
0.0
 40
0.1669209446375181
 50
89.1256601731271303
 51
113.9091920702284
  0
ARC
  5
F2DA
  8
0
 10
4018.3455662987221331
 20
132.15550649937191
 30
0.0
 40
0.4803968367483706
 50
347.1449262667453013
 51
2.0113820804505651
  0
ARC
  5
F2DB
  8
0
 10
4018.568311723766783
 20
132.1701277964608892
 30
0.0
 40
0.257365172352711
 50
0.4986150183975017
 51
31.4591174457345488
  0
ARC
  5
F2DC
  8
0
 10
4018.6474984265728381
 20
132.207636678741892
 30
0.0
 40
0.1704979270137915
 50
34.5964307776280009
 51
65.2495069620019734
  0
ARC
  5
F2DD
  8
0
 10
4018.6512292773118133
 20
132.2098753107831897
 30
0.0
 40
0.1669209446375181
 50
66.0908078158558538
 51
90.8743397129467354
  0
ARC
  5
F2DE
  8
0
 10
4017.6847538290389821
 20
131.9711863791904989
 30
0.0
 40
0.053160046719244
 50
62.208975562146648
 51
117.799566103302098
  0
ARC
  5
F2DF
  8
0
 10
4017.757875165760197
 20
131.831294087869793
 30
0.0
 40
0.1930689401232007
 50
75.501543069806317
 51
104.4984569301936972
  0
ARC
  5
F2E0
  8
0
 10
4017.8756688188109365
 20
131.6370790456699922
 30
0.0
 40
0.3874129038745407
 50
79.6717694979183904
 51
100.3282305020815954
  0
ARC
  5
F2E1
  8
0
 10
4018.0322064421247887
 20
131.4042635895287958
 30
0.0
 40
0.6200957379592907
 50
81.9273179964552156
 51
98.0726820035447986
  0
ARC
  5
F2E2
  8
0
 10
4018.2196576246078621
 20
131.2015937936367891
 30
0.0
 40
0.8227660997594419
 50
82.9906069089142306
 51
97.0071340151190071
  0
ARC
  5
F2E3
  8
0
 10
4018.4286736135049978
 20
131.0621277980374089
 30
0.0
 40
0.9622323301641772
 50
83.5192822063633855
 51
96.4810837621176347
  0
ARC
  5
F2E4
  8
0
 10
4018.6486785328379483
 20
131.0121800892277122
 30
0.0
 40
1.0121801402834161
 50
89.9997967113046542
 51
96.3186793892437407
  0
ARC
  5
F2E5
  8
0
 10
4017.6919165454301037
 20
131.6435435736271131
 30
0.0
 40
0.0506620686451358
 50
240.8945032452809016
 51
299.0105262410559135
  0
ARC
  5
F2E6
  8
0
 10
4017.7644641885108285
 20
131.781692891954691
 30
0.0
 40
0.1886575326938016
 50
255.2671247843107096
 51
284.7328752156893188
  0
ARC
  5
F2E7
  8
0
 10
4017.8813865584111227
 20
131.9734436955760941
 30
0.0
 40
0.3805038637370435
 50
259.5607912881088737
 51
280.4392087118911263
  0
ARC
  5
F2E8
  8
0
 10
4018.0367843329108837
 20
132.2034982448849121
 30
0.0
 40
0.6104134585272925
 50
261.8577656348269898
 51
278.1422343651730102
  0
ARC
  5
F2E9
  8
0
 10
4018.2227923852469758
 20
132.4021422323729098
 30
0.0
 40
0.8090526905772311
 50
262.9317925784117733
 51
277.0785949498630885
  0
ARC
  5
F2EA
  8
0
 10
4018.4303771165291437
 20
132.5402083331262872
 30
0.0
 40
0.947116769373604
 50
263.4593321262394738
 51
276.5310683638574005
  0
ARC
  5
F2EB
  8
0
 10
4018.6478929872118897
 20
132.5767847226919969
 30
0.0
 40
0.9836925971329581
 50
263.5919237856086852
 51
270.0459637682649259
  0
LINE
  5
F2EC
  8
0
 10
4018.5372796533879409
 20
132.0182113641101012
 30
0.0
 11
4018.5381040311108336
 21
131.5992380431046911
 31
0.0
  0
LINE
  5
F2ED
  8
0
 10
4018.322492550422794
 20
131.599256105207786
 30
0.0
 11
4018.3200614667798618
 21
132.0182106703852867
 31
0.0
  0
LINE
  5
F2EE
  8
0
 10
4018.1232377822097988
 20
131.5992380431046911
 30
0.0
 11
4018.1192859803400097
 21
132.018214628504694
 31
0.0
  0
LINE
  5
F2EF
  8
0
 10
4017.9503308836101496
 20
131.5992380431046911
 30
0.0
 11
4017.9451269039100225
 21
132.018214628504694
 31
0.0
  0
LINE
  5
F2F0
  8
0
 10
4017.8124422332111862
 20
131.5992380431046911
 30
0.0
 11
4017.806210733710941
 21
132.018214628504694
 31
0.0
  0
LINE
  5
F2F1
  8
0
 10
4017.7164861438100161
 20
131.5992380431046911
 30
0.0
 11
4017.7095395978099077
 21
132.018214628504694
 31
0.0
  0
ARC
  5
F2F2
  8
0
 10
4019.6126104191830564
 20
131.9711863791904989
 30
0.0
 40
0.053160046719244
 50
62.2003947213372115
 51
117.7910244378532951
  0
ARC
  5
F2F3
  8
0
 10
4019.5394890824600225
 20
131.831294087869793
 30
0.0
 40
0.1930689401232007
 50
75.501543069806317
 51
104.4984569301936972
  0
ARC
  5
F2F4
  8
0
 10
4019.4216954294101924
 20
131.6370790456699922
 30
0.0
 40
0.3874129038745407
 50
79.6717694979183904
 51
100.3282305020815954
  0
ARC
  5
F2F5
  8
0
 10
4019.2651578060958855
 20
131.4042635895287958
 30
0.0
 40
0.6200957379592907
 50
81.9273179964552156
 51
98.0726820035447986
  0
ARC
  5
F2F6
  8
0
 10
4019.0777066236128121
 20
131.2015937936367891
 30
0.0
 40
0.8227660997594419
 50
82.9928659848810213
 51
97.0093930910857836
  0
ARC
  5
F2F7
  8
0
 10
4018.8686906347152217
 20
131.0621277980374089
 30
0.0
 40
0.9622323301641772
 50
83.5189162378823653
 51
96.4807177936366145
  0
ARC
  5
F2F8
  8
0
 10
4018.6486857153818164
 20
131.0121800892277122
 30
0.0
 40
1.0121801402834161
 50
83.6813206107562735
 51
90.0002032886171861
  0
ARC
  5
F2F9
  8
0
 10
4019.6054477027892062
 20
131.6435435736271131
 30
0.0
 40
0.0506620686451358
 50
240.9894737589440865
 51
299.1055464830070036
  0
ARC
  5
F2FA
  8
0
 10
4019.5329000597112099
 20
131.781692891954691
 30
0.0
 40
0.1886575326938016
 50
255.2671247843107096
 51
284.7328752156893188
  0
ARC
  5
F2FB
  8
0
 10
4019.4159776898100063
 20
131.9734436955760941
 30
0.0
 40
0.3805038637370435
 50
259.5607912881088737
 51
280.4392087118911263
  0
ARC
  5
F2FC
  8
0
 10
4019.2605799153097905
 20
132.2034982448849121
 30
0.0
 40
0.6104134585272925
 50
261.8577656348269898
 51
278.1422343651730102
  0
ARC
  5
F2FD
  8
0
 10
4019.0745718629727889
 20
132.4021422323729098
 30
0.0
 40
0.8090526905772311
 50
262.9214050501369115
 51
277.0682074215624198
  0
ARC
  5
F2FE
  8
0
 10
4018.8669871316919853
 20
132.5402083331262872
 30
0.0
 40
0.947116769373604
 50
263.4689316361425995
 51
276.5406678737605262
  0
ARC
  5
F2FF
  8
0
 10
4018.6494712610087845
 20
132.5767847226919969
 30
0.0
 40
0.9836925971329581
 50
269.9540362317350741
 51
276.4080762143913148
  0
LINE
  5
F300
  8
0
 10
4018.760084594833188
 20
132.0182113641101012
 30
0.0
 11
4018.7592602171112048
 21
131.5992380431046911
 31
0.0
  0
LINE
  5
F301
  8
0
 10
4018.9748716977978802
 20
131.599256105207786
 30
0.0
 11
4018.9773027814408124
 21
132.0182106703852867
 31
0.0
  0
LINE
  5
F302
  8
0
 10
4019.174126466009966
 20
131.5992380431046911
 30
0.0
 11
4019.1780782678811192
 21
132.018214628504694
 31
0.0
  0
LINE
  5
F303
  8
0
 10
4019.3470333646100698
 20
131.5992380431046911
 30
0.0
 11
4019.3522373443101969
 21
132.018214628504694
 31
0.0
  0
LINE
  5
F304
  8
0
 10
4019.4849220150108522
 20
131.5992380431046911
 30
0.0
 11
4019.491153514510188
 21
132.018214628504694
 31
0.0
  0
LINE
  5
F305
  8
0
 10
4019.5808781044102034
 20
131.5992380431046911
 30
0.0
 11
4019.587824650409857
 21
132.018214628504694
 31
0.0
  0
ENDSEC
  0
EOF
