  0
SECTION
  2
HEADER
  9
$ACADVER
  1
AC1009
  9
$INSBASE
 10
-5.7953725500057081
 20
42.5306669017785595
 30
0.0
  9
$EXTMIN
 10
-6.3471007268874891
 20
41.8751305344443523
 30
-0.0015258207003583
  9
$EXTMAX
 10
-5.244167917704103
 20
43.083610047668742
 30
0.0000000349246037
  9
$LIMMIN
 10
0.0
 20
0.0
  9
$LIMMAX
 10
11.6929133858000007
 20
8.2677165353999982
  9
$ORTHOMODE
 70
     0
  9
$REGENMODE
 70
     1
  9
$FILLMODE
 70
     1
  9
$QTEXTMODE
 70
     0
  9
$MIRRTEXT
 70
     0
  9
$DRAGMODE
 70
     2
  9
$LTSCALE
 40
0.6431102362
  9
$OSMODE
 70
  4095
  9
$ATTMODE
 70
     1
  9
$TEXTSIZE
 40
0.2
  9
$TRACEWID
 40
0.05
  9
$TEXTSTYLE
  7
STANDARD
  9
$CLAYER
  8
0
  9
$CELTYPE
  6
BYLAYER
  9
$CECOLOR
 62
   256
  9
$DIMSCALE
 40
1.0
  9
$DIMASZ
 40
0.1875
  9
$DIMEXO
 40
0.0625
  9
$DIMDLI
 40
0.4443307087
  9
$DIMRND
 40
0.0
  9
$DIMDLE
 40
0.0
  9
$DIMEXE
 40
0.125
  9
$DIMTP
 40
0.01
  9
$DIMTM
 40
0.01
  9
$DIMTXT
 40
0.15625
  9
$DIMCEN
 40
0.1052362205
  9
$DIMTSZ
 40
0.0
  9
$DIMTOL
 70
     1
  9
$DIMLIM
 70
     0
  9
$DIMTIH
 70
     1
  9
$DIMTOH
 70
     1
  9
$DIMSE1
 70
     0
  9
$DIMSE2
 70
     0
  9
$DIMTAD
 70
     0
  9
$DIMZIN
 70
     0
  9
$DIMBLK
  1

  9
$DIMASO
 70
     1
  9
$DIMSHO
 70
     1
  9
$DIMPOST
  1

  9
$DIMAPOST
  1

  9
$DIMALT
 70
     0
  9
$DIMALTD
 70
     2
  9
$DIMALTF
 40
25.3999999999999986
  9
$DIMLFAC
 40
1.0
  9
$DIMTOFL
 70
     0
  9
$DIMTVP
 40
0.0
  9
$DIMTIX
 70
     0
  9
$DIMSOXD
 70
     0
  9
$DIMSAH
 70
     0
  9
$DIMBLK1
  1

  9
$DIMBLK2
  1

  9
$DIMSTYLE
  2
STANDARD
  9
$DIMCLRD
 70
     0
  9
$DIMCLRE
 70
     0
  9
$DIMCLRT
 70
     0
  9
$DIMTFAC
 40
1.0
  9
$DIMGAP
 40
0.09
  9
$LUNITS
 70
     2
  9
$LUPREC
 70
     4
  9
$SKETCHINC
 40
0.1
  9
$FILLETRAD
 40
0.0
  9
$AUNITS
 70
     0
  9
$AUPREC
 70
     0
  9
$MENU
  1
.
  9
$ELEVATION
 40
0.0
  9
$PELEVATION
 40
0.0
  9
$THICKNESS
 40
0.0
  9
$LIMCHECK
 70
     0
  9
$BLIPMODE
 70
     0
  9
$CHAMFERA
 40
0.0
  9
$CHAMFERB
 40
0.0
  9
$SKPOLY
 70
     0
  9
$TDCREATE
 40
2457730.4652893519960344
  9
$TDUPDATE
 40
2460181.6436574067920446
  9
$TDINDWG
 40
0.0861312384
  9
$TDUSRTIMER
 40
0.0861312384
  9
$USRTIMER
 70
     1
  9
$ANGBASE
 50
0.0
  9
$ANGDIR
 70
     0
  9
$PDMODE
 70
     0
  9
$PDSIZE
 40
0.3125
  9
$PLINEWID
 40
0.0
  9
$COORDS
 70
     1
  9
$SPLFRAME
 70
     0
  9
$SPLINETYPE
 70
     6
  9
$SPLINESEGS
 70
     8
  9
$ATTDIA
 70
     1
  9
$ATTREQ
 70
     1
  9
$HANDLING
 70
     1
  9
$HANDSEED
  5
4085
  9
$SURFTAB1
 70
     6
  9
$SURFTAB2
 70
     6
  9
$SURFTYPE
 70
     6
  9
$SURFU
 70
     6
  9
$SURFV
 70
     6
  9
$UCSNAME
  2

  9
$UCSORG
 10
0.0
 20
0.0
 30
0.0
  9
$UCSXDIR
 10
1.0
 20
0.0
 30
0.0
  9
$UCSYDIR
 10
0.0
 20
1.0
 30
0.0
  9
$PUCSNAME
  2

  9
$PUCSORG
 10
0.0
 20
0.0
 30
0.0
  9
$PUCSXDIR
 10
1.0
 20
0.0
 30
0.0
  9
$PUCSYDIR
 10
0.0
 20
1.0
 30
0.0
  9
$USERI1
 70
     0
  9
$USERI2
 70
     0
  9
$USERI3
 70
     0
  9
$USERI4
 70
     0
  9
$USERI5
 70
     0
  9
$USERR1
 40
0.0
  9
$USERR2
 40
0.0
  9
$USERR3
 40
0.0
  9
$USERR4
 40
0.0
  9
$USERR5
 40
0.0
  9
$WORLDVIEW
 70
     1
  9
$SHADEDGE
 70
     3
  9
$SHADEDIF
 70
    70
  9
$TILEMODE
 70
     1
  9
$MAXACTVP
 70
    64
  9
$PLIMCHECK
 70
     0
  9
$PEXTMIN
 10
1.0000000000000000E+20
 20
1.0000000000000000E+20
 30
1.0000000000000000E+20
  9
$PEXTMAX
 10
-1.0000000000000000E+20
 20
-1.0000000000000000E+20
 30
-1.0000000000000000E+20
  9
$PLIMMIN
 10
0.0
 20
0.0
  9
$PLIMMAX
 10
12.0
 20
9.0
  9
$UNITMODE
 70
     0
  9
$VISRETAIN
 70
     1
  9
$PLINEGEN
 70
     0
  9
$PSLTSCALE
 70
     1
  0
ENDSEC
  0
SECTION
  2
TABLES
  0
TABLE
  2
VPORT
 70
     1
  0
VPORT
  2
*ACTIVE
 70
     0
 10
0.0
 20
0.0
 11
1.0
 21
1.0
 12
1.6543380688327429
 22
0.0391542266034222
 13
0.0
 23
0.0
 14
1.0
 24
1.0
 15
0.0
 25
0.0
 16
-0.0000000000000018
 26
0.0
 36
6.7704178575130101
 17
-7.44997239112854
 27
42.4402160644531179
 37
0.0
 40
1.218315724060028
 41
2.5251322751322749
 42
50.0
 43
0.0
 44
0.0
 50
0.0
 51
0.0
 71
     0
 72
   100
 73
     1
 74
     1
 75
     0
 76
     0
 77
     0
 78
     0
  0
ENDTAB
  0
TABLE
  2
LTYPE
 70
     2
  0
LTYPE
  2
CONTINUOUS
 70
     0
  3
Solid line
 72
    65
 73
     0
 40
0.0
  0
LTYPE
  2
PHANTOM2
 70
     0
  3
___ _ _ ___ _ _ ___ _ _ ___ _ _
 72
    65
 73
     6
 40
1.25
 49
0.625
 49
-0.125
 49
0.125
 49
-0.125
 49
0.125
 49
-0.125
  0
ENDTAB
  0
TABLE
  2
LAYER
 70
     2
  0
LAYER
  2
0
 70
     0
 62
     7
  6
CONTINUOUS
  0
LAYER
  2
DEFPOINTS
 70
     0
 62
     7
  6
CONTINUOUS
  0
ENDTAB
  0
TABLE
  2
STYLE
 70
     1
  0
STYLE
  2
STANDARD
 70
     0
 40
0.0
 41
0.8
 50
0.0
 71
     0
 42
0.2
  3
txt
  4

  0
ENDTAB
  0
TABLE
  2
VIEW
 70
     0
  0
ENDTAB
  0
TABLE
  2
UCS
 70
     0
  0
ENDTAB
  0
TABLE
  2
APPID
 70
     5
  0
APPID
  2
ACAD
 70
     0
  0
APPID
  2
ACAD_NAV_VCDISPLAY
 70
     0
  0
APPID
  2
ACAD_MLEADERVER
 70
     0
  0
APPID
  2
ACAD_EXEMPT_FROM_CAD_STANDARDS
 70
     0
  0
APPID
  2
ACDBATTR
 70
     0
  0
ENDTAB
  0
TABLE
  2
DIMSTYLE
 70
     1
  0
DIMSTYLE
  2
STANDARD
 70
     0
  3

  4

  5

  6

  7

 40
1.0
 41
0.1875
 42
0.0625
 43
0.38
 44
0.125
 45
0.0
 46
0.0
 47
0.01
 48
0.01
140
0.15625
141
0.09
142
0.0
143
25.3999999999999986
144
1.0
145
0.0
146
1.0
147
0.09
 71
     1
 72
     0
 73
     1
 74
     1
 75
     0
 76
     0
 77
     0
 78
     4
170
     0
171
     2
172
     0
173
     0
174
     0
175
     0
176
     0
177
     0
178
     0
  0
ENDTAB
  0
ENDSEC
  0
SECTION
  2
BLOCKS
  0
BLOCK
  8
0
  2
$MODEL_SPACE
 70
     0
 10
0.0
 20
0.0
 30
0.0
  3
$MODEL_SPACE
  1

  0
ENDBLK
  5
21
  8
0
  0
BLOCK
 67
     1
  8
0
  2
$PAPER_SPACE
 70
     0
 10
0.0
 20
0.0
 30
0.0
  3
$PAPER_SPACE
  1

  0
ENDBLK
  5
1D
 67
     1
  8
0
  0
BLOCK
  8
0
  2
_FILLED
 70
     0
 10
0.0
 20
0.0
 30
0.0
  3
_FILLED
  1

  0
SOLID
  5
7FB
  8
0
  6
BYBLOCK
 62
     0
 10
0.0
 20
0.0
 30
0.0
 11
-1.0
 21
0.1666666667
 31
0.0
 12
-1.0
 22
-0.1666666667
 32
0.0
 13
-1.0
 23
-0.1666666667
 33
0.0
  0
ENDBLK
  5
7FC
  8
0
  6
BYBLOCK
 62
     0
  0
ENDSEC
  0
SECTION
  2
ENTITIES
  0
ATTDEF
  5
766
  8
DEFPOINTS
 10
-5.802028163915657
 20
42.5291891634437604
 30
0.0
 40
0.001
  1
K-21335T
  3

  2
MODELNUMBER
 70
     0
1001
ACDBATTR
1070
     0
1070
     1
  0
ATTDEF
  5
767
  8
DEFPOINTS
 10
-5.802028163915657
 20
42.5275224967770882
 30
0.0
 40
0.001
  1
SHIFT
  3

  2
TRADENAME
 70
     0
1001
ACDBATTR
1070
     0
1070
     1
  0
ATTDEF
  5
768
  8
DEFPOINTS
 10
-5.802028163915657
 20
42.525855830110423
 30
0.0
 40
0.001
  1
HANDSHOWER
  3

  2
PRODUCT
 70
     0
1001
ACDBATTR
1070
     0
1070
     1
  0
CIRCLE
  5
3FBF
  8
0
 10
-5.7953725500057081
 20
42.5306669017785595
 30
0.0
 40
0.5511811023999976
  0
ARC
  5
3FC0
  8
0
 10
-5.7939714174999164
 20
42.1343082765284223
 30
0.0
 40
0.1899266038202387
 50
256.997020548849207
 51
269.5772890138222806
  0
ARC
  5
3FC1
  8
0
 10
-5.7916694365662611
 20
41.7504072738795671
 30
0.0
 40
0.2038806734837629
 50
91.0407499170916736
 51
102.7614829164615031
  0
LINE
  5
3FC2
  8
0
 10
-5.8367052305050162
 20
41.9492517012203905
 30
0.0
 11
-5.843007902134282
 21
41.9815480796002873
 31
0.0
  0
ARC
  5
3FC3
  8
0
 10
-5.7953726300050166
 20
42.0744882537373428
 30
0.0
 40
0.1270625121169467
 50
260.1893858816292777
 51
279.8106141183703812
  0
ARC
  5
3FC4
  8
0
 10
-5.7953726300050166
 20
41.8279409980083798
 30
0.0
 40
0.1232592049120174
 50
79.8835317095131643
 51
100.116468290485102
  0
ARC
  5
3FC5
  8
0
 10
-5.7968902061718683
 20
42.1352969882759467
 30
0.0
 40
0.1909161783651833
 50
270.4554451851560088
 51
282.9702452507215753
  0
ARC
  5
3FC6
  8
0
 10
-5.7960168539330361
 20
41.7756810406180392
 30
0.0
 40
0.1785744345717775
 50
76.404468766927053
 51
89.7932983999868242
  0
LINE
  5
3FC7
  8
0
 10
-5.7540400215049887
 20
41.9492517012203905
 30
0.0
 11
-5.7477373524932283
 21
41.9815480661875569
 31
0.0
  0
ARC
  5
3FC8
  8
0
 10
-5.7953726220049884
 20
42.0744882537373428
 30
0.0
 40
0.1270625121169467
 50
260.1893858816292777
 51
279.8106141183686759
  0
ARC
  5
3FC9
  8
0
 10
-5.7953726220049884
 20
41.8279409980083798
 30
0.0
 40
0.1232592049120174
 50
79.8835317095148412
 51
100.1164682904867931
  0
LINE
  5
3FCA
  8
0
 10
-5.713942023392744
 20
41.9855341867646672
 30
0.0
 11
-5.7066334388502771
 21
41.9601626605536779
 31
0.0
  0
ARC
  5
3FCB
  8
0
 10
-5.6858823488759098
 20
42.2001570086089188
 30
0.0
 40
0.2408897981102384
 50
265.0582162831386768
 51
284.8190203795878119
  0
LINE
  5
3FCC
  8
0
 10
-5.6242707605057003
 20
41.9672795579785713
 30
0.0
 11
-5.6213089951735924
 21
41.9952586343627488
 31
0.0
  0
ARC
  5
3FCD
  8
0
 10
-5.6452119068282967
 20
41.7294847006479372
 30
0.0
 40
0.238715156163557
 50
84.9672924674138983
 51
104.9099441953069061
  0
ARC
  5
3FCE
  8
0
 10
-5.6548314116712488
 20
41.8423528246088878
 30
0.0
 40
0.1237286992233378
 50
84.922283736751055
 51
105.0777148775508039
  0
ARC
  5
3FCF
  8
0
 10
-5.6764019542475959
 20
42.0889052887941375
 30
0.0
 40
0.1275258074652154
 50
265.2253420099729055
 51
284.7746566043305734
  0
LINE
  5
3FD0
  8
0
 10
-5.5819900938293427
 20
42.0096793190722835
 30
0.0
 11
-5.5781929894057418
 21
41.9998089774785512
 31
0.0
  0
ARC
  5
3FD1
  8
0
 10
-5.5796977888095478
 20
42.2463689378216003
 30
0.0
 40
0.2465645523298273
 50
270.3496820174818822
 51
289.6503173470169941
  0
LINE
  5
3FD2
  8
0
 10
-5.4923080565483122
 20
42.056207159815763
 30
0.0
 11
-5.4922229437057073
 21
42.0703399268541816
 31
0.0
  0
ARC
  5
3FD3
  8
0
 10
-5.4966986683887678
 20
41.7756575198701796
 30
0.0
 40
0.2385061850476321
 50
90.0203470219060051
 51
109.979652342604993
  0
ARC
  5
3FD4
  8
0
 10
-5.5159926866280129
 20
41.8843044690329691
 30
0.0
 40
0.1264690084551246
 50
90.0810734783795368
 51
109.7962446095605031
  0
ARC
  5
3FD5
  8
0
 10
-5.5592009661584711
 20
42.1308942739271188
 30
0.0
 40
0.1275952940142773
 50
270.1689436844508236
 51
289.7083744034969754
  0
LINE
  5
3FD6
  8
0
 10
-5.6497032587057081
 20
41.9990833568723687
 30
0.0
 11
-5.649703258663286
 21
41.9868465348394508
 31
0.0
  0
ARC
  5
3FD7
  8
0
 10
-5.7953725500057809
 20
42.5306669017787229
 30
0.0
 40
0.5629921260001681
 50
284.9953859996030019
 51
302.5686915722264985
  0
LINE
  5
3FD8
  8
0
 10
-5.4967833673057731
 20
42.0141636898785578
 30
0.0
 11
-5.4971798746718781
 21
42.0531302410756993
 31
0.0
  0
LINE
  5
3FD9
  8
0
 10
-5.8768030766186721
 20
41.9855341867646672
 30
0.0
 11
-5.8841116611611399
 21
41.9601626605536779
 31
0.0
  0
ARC
  5
3FDA
  8
0
 10
-5.9048627511355072
 20
42.2001570086089188
 30
0.0
 40
0.2408897981102384
 50
255.1809796204123018
 51
274.9417837168610959
  0
LINE
  5
3FDB
  8
0
 10
-5.9664743395057167
 20
41.9672795579785713
 30
0.0
 11
-5.9694361048378246
 21
41.9952586343627488
 31
0.0
  0
ARC
  5
3FDC
  8
0
 10
-5.9455331931831203
 20
41.7294847006479372
 30
0.0
 40
0.238715156163557
 50
75.0900558046929802
 51
95.0327075325862012
  0
ARC
  5
3FDD
  8
0
 10
-5.9359136883401682
 20
41.8423528246088878
 30
0.0
 40
0.1237286992233378
 50
74.9222851224491961
 51
95.0777162632490445
  0
ARC
  5
3FDE
  8
0
 10
-5.9143431457638211
 20
42.0889052887941375
 30
0.0
 40
0.1275258074652154
 50
255.2253433956697108
 51
274.7746579900270945
  0
LINE
  5
3FDF
  8
0
 10
-6.0087550061820743
 20
42.0096793190722835
 30
0.0
 11
-6.0125521106056752
 21
41.9998089774785512
 31
0.0
  0
ARC
  5
3FE0
  8
0
 10
-6.0110473112018692
 20
42.2463689378216003
 30
0.0
 40
0.2465645523298273
 50
250.3496826529826933
 51
269.6503179825178904
  0
LINE
  5
3FE1
  8
0
 10
-6.0984370434631048
 20
42.056207159815763
 30
0.0
 11
-6.0985221563057097
 21
42.0703399268541816
 31
0.0
  0
ARC
  5
3FE2
  8
0
 10
-6.0940464316226493
 20
41.7756575198701796
 30
0.0
 40
0.2385061850476321
 50
70.020347657395078
 51
89.9796529780939949
  0
ARC
  5
3FE3
  8
0
 10
-6.0747524133834041
 20
41.8843044690329691
 30
0.0
 40
0.1264690084551246
 50
70.2037553904396106
 51
89.918926521620449
  0
ARC
  5
3FE4
  8
0
 10
-6.0315441338529459
 20
42.1308942739271188
 30
0.0
 40
0.1275952940142773
 50
250.2916255965029109
 51
269.8310563155491764
  0
LINE
  5
3FE5
  8
0
 10
-5.9410418413057089
 20
41.9990833568723687
 30
0.0
 11
-5.9410418413481301
 21
41.9868465348394508
 31
0.0
  0
ARC
  5
3FE6
  8
0
 10
-5.7953725500056361
 20
42.5306669017787229
 30
0.0
 40
0.5629921260001681
 50
237.4313084277733026
 51
255.0046140003969981
  0
LINE
  5
3FE7
  8
0
 10
-6.093961732705643
 20
42.0141636898785578
 30
0.0
 11
-6.093565225339538
 21
42.0531302410756993
 31
0.0
  0
LINE
  5
3FE8
  8
0
 10
-5.5192902322576174
 20
42.0073187222244684
 30
0.0
 11
-5.5197226651057081
 21
41.9577668290785724
 31
0.0
  0
ARC
  5
3FE9
  8
0
 10
-5.5315370506708037
 20
41.9578721533258019
 30
0.0
 40
0.0118148550341386
 50
299.2963401270803843
 51
359.4892265067572907
  0
LINE
  5
3FEA
  8
0
 10
-6.0714548677537996
 20
42.0073187222244684
 30
0.0
 11
-6.071022434905708
 21
41.9577668290785724
 31
0.0
  0
ARC
  5
3FEB
  8
0
 10
-6.0592080493406133
 20
41.9578721533258019
 30
0.0
 40
0.0118148550341386
 50
180.5107734932427093
 51
240.7036598729195873
  0
ARC
  5
3FEC
  8
0
 10
-5.7953725500057081
 20
42.4283046963602217
 30
0.0
 40
0.5511811016816571
 50
240.7144859801805978
 51
299.2855140198192885
  0
CIRCLE
  5
3FEE
  8
0
 10
-5.7953725499557089
 20
42.5306669017785595
 30
0.0
 40
0.5196850394000005
  0
CIRCLE
  5
3FEF
  8
0
 10
-5.7953725500057081
 20
42.5306669017785595
 30
0.0
 40
0.5157480314999976
  0
LINE
  5
3FF0
  8
0
 10
-5.8642687372699633
 20
43.0457648104811099
 30
0.0
 11
-5.8642701877557091
 21
43.0417922753433118
 31
0.0
  0
LINE
  5
3FF1
  8
0
 10
-5.7264801324117434
 20
43.0457653146873227
 30
0.0
 11
-5.7264749121557088
 21
43.0417922753785689
 31
0.0
  0
LINE
  5
3FF2
  8
0
 10
-5.649703258655709
 20
42.0359179860967984
 30
0.0
 11
-5.649703258655709
 21
42.0318412303785607
 31
0.0
  0
LINE
  5
3FF3
  8
0
 10
-5.9410418413557089
 20
42.0359179861115209
 30
0.0
 11
-5.9410418413557089
 21
42.0318152227003026
 31
0.0
  0
LINE
  5
3FF4
  8
0
 10
-6.266312027955709
 20
42.3110642166785595
 30
0.0
 11
-6.26279900705571
 21
42.3127023652785681
 31
0.0
  0
LINE
  5
3FF5
  8
0
 10
-6.2210236530557088
 20
42.2326227907785565
 30
0.0
 11
-6.2178486043458099
 21
42.2348459838854993
 31
0.0
  0
LINE
  5
3FF6
  8
0
 10
-6.1815220660557086
 20
42.8783574877785583
 30
0.0
 11
-6.1786480308151317
 21
42.8757696948244984
 31
0.0
  0
LINE
  5
3FF7
  8
0
 10
-5.40922507195571
 20
42.8783556526785574
 30
0.0
 11
-5.4120970691497794
 21
42.8757696948838998
 31
0.0
  0
LINE
  5
3FF8
  8
0
 10
-5.3011878765557103
 20
42.6912372357785586
 30
0.0
 11
-5.3048670238869748
 21
42.6900418083451498
 31
0.0
  0
LINE
  5
3FF9
  8
0
 10
-5.3042554738779959
 20
42.3731865868785675
 30
0.0
 11
-5.3001232238478533
 21
42.3731846959078808
 31
0.0
  0
LINE
  5
3FFA
  8
0
 10
-5.3279460928726996
 20
42.3127023652864906
 30
0.0
 11
-5.3243739719369376
 21
42.3110470491229407
 31
0.0
  0
LINE
  5
3FFB
  8
0
 10
-5.4922229436557091
 20
42.1134183569083902
 30
0.0
 11
-5.4922229436557091
 21
42.1085616348411165
 31
0.0
  0
ENDSEC
  0
EOF
