  0
SECTION
  2
HEADER
  9
$ACADVER
  1
AC1009
  9
$INSBASE
 10
3655.0851610429949687
 20
157.3201887030508885
 30
0.0
  9
$EXTMIN
 10
3653.1481539750398042
 20
153.7091970708736142
 30
0.0
  9
$EXTMAX
 10
3661.0221697215488348
 20
158.8949969425671043
 30
0.0
  9
$LIMMIN
 10
0.0
 20
0.0
  9
$LIMMAX
 10
11.6929133858000007
 20
8.2677165353999982
  9
$ORTHOMODE
 70
     0
  9
$REGENMODE
 70
     1
  9
$FILLMODE
 70
     1
  9
$QTEXTMODE
 70
     0
  9
$MIRRTEXT
 70
     0
  9
$DRAGMODE
 70
     2
  9
$LTSCALE
 40
0.6431102362
  9
$OSMODE
 70
  3839
  9
$ATTMODE
 70
     1
  9
$TEXTSIZE
 40
0.2
  9
$TRACEWID
 40
0.05
  9
$TEXTSTYLE
  7
STANDARD
  9
$CLAYER
  8
0
  9
$CELTYPE
  6
BYLAYER
  9
$CECOLOR
 62
   256
  9
$DIMSCALE
 40
1.0
  9
$DIMASZ
 40
0.1875
  9
$DIMEXO
 40
0.0625
  9
$DIMDLI
 40
0.4443307087
  9
$DIMRND
 40
0.0
  9
$DIMDLE
 40
0.0
  9
$DIMEXE
 40
0.125
  9
$DIMTP
 40
0.01
  9
$DIMTM
 40
0.01
  9
$DIMTXT
 40
2.0
  9
$DIMCEN
 40
0.1052362205
  9
$DIMTSZ
 40
0.0
  9
$DIMTOL
 70
     1
  9
$DIMLIM
 70
     0
  9
$DIMTIH
 70
     1
  9
$DIMTOH
 70
     1
  9
$DIMSE1
 70
     0
  9
$DIMSE2
 70
     0
  9
$DIMTAD
 70
     0
  9
$DIMZIN
 70
     0
  9
$DIMBLK
  1

  9
$DIMASO
 70
     1
  9
$DIMSHO
 70
     1
  9
$DIMPOST
  1
\X
  9
$DIMAPOST
  1

  9
$DIMALT
 70
     1
  9
$DIMALTD
 70
     2
  9
$DIMALTF
 40
25.3999999999999986
  9
$DIMLFAC
 40
1.0
  9
$DIMTOFL
 70
     0
  9
$DIMTVP
 40
0.0
  9
$DIMTIX
 70
     0
  9
$DIMSOXD
 70
     0
  9
$DIMSAH
 70
     0
  9
$DIMBLK1
  1

  9
$DIMBLK2
  1

  9
$DIMSTYLE
  2
STANDARD
  9
$DIMCLRD
 70
     0
  9
$DIMCLRE
 70
     0
  9
$DIMCLRT
 70
     0
  9
$DIMTFAC
 40
1.0
  9
$DIMGAP
 40
0.09
  9
$LUNITS
 70
     2
  9
$LUPREC
 70
     4
  9
$SKETCHINC
 40
0.1
  9
$FILLETRAD
 40
0.0
  9
$AUNITS
 70
     0
  9
$AUPREC
 70
     0
  9
$MENU
  1
.
  9
$ELEVATION
 40
0.0
  9
$PELEVATION
 40
0.0
  9
$THICKNESS
 40
0.0
  9
$LIMCHECK
 70
     0
  9
$BLIPMODE
 70
     0
  9
$CHAMFERA
 40
0.0
  9
$CHAMFERB
 40
0.0
  9
$SKPOLY
 70
     0
  9
$TDCREATE
 40
2458060.468368056230247
  9
$TDUPDATE
 40
2459069.4974652780219913
  9
$TDINDWG
 40
0.739972338
  9
$TDUSRTIMER
 40
0.739972338
  9
$USRTIMER
 70
     1
  9
$ANGBASE
 50
0.0
  9
$ANGDIR
 70
     0
  9
$PDMODE
 70
     0
  9
$PDSIZE
 40
0.3125
  9
$PLINEWID
 40
0.0
  9
$COORDS
 70
     1
  9
$SPLFRAME
 70
     0
  9
$SPLINETYPE
 70
     6
  9
$SPLINESEGS
 70
     8
  9
$ATTDIA
 70
     1
  9
$ATTREQ
 70
     1
  9
$HANDLING
 70
     1
  9
$HANDSEED
  5
F47C
  9
$SURFTAB1
 70
     6
  9
$SURFTAB2
 70
     6
  9
$SURFTYPE
 70
     6
  9
$SURFU
 70
     6
  9
$SURFV
 70
     6
  9
$UCSNAME
  2

  9
$UCSORG
 10
0.0
 20
0.0
 30
0.0
  9
$UCSXDIR
 10
1.0
 20
0.0
 30
0.0
  9
$UCSYDIR
 10
0.0
 20
1.0
 30
0.0
  9
$PUCSNAME
  2

  9
$PUCSORG
 10
0.0
 20
0.0
 30
0.0
  9
$PUCSXDIR
 10
1.0
 20
0.0
 30
0.0
  9
$PUCSYDIR
 10
0.0
 20
1.0
 30
0.0
  9
$USERI1
 70
     0
  9
$USERI2
 70
     0
  9
$USERI3
 70
     0
  9
$USERI4
 70
     0
  9
$USERI5
 70
     0
  9
$USERR1
 40
0.0
  9
$USERR2
 40
0.0
  9
$USERR3
 40
0.0
  9
$USERR4
 40
0.0
  9
$USERR5
 40
0.0
  9
$WORLDVIEW
 70
     1
  9
$SHADEDGE
 70
     3
  9
$SHADEDIF
 70
    70
  9
$TILEMODE
 70
     1
  9
$MAXACTVP
 70
    64
  9
$PLIMCHECK
 70
     0
  9
$PEXTMIN
 10
1.0000000000000000E+20
 20
1.0000000000000000E+20
 30
1.0000000000000000E+20
  9
$PEXTMAX
 10
-1.0000000000000000E+20
 20
-1.0000000000000000E+20
 30
-1.0000000000000000E+20
  9
$PLIMMIN
 10
0.0
 20
0.0
  9
$PLIMMAX
 10
12.0
 20
9.0
  9
$UNITMODE
 70
     0
  9
$VISRETAIN
 70
     1
  9
$PLINEGEN
 70
     0
  9
$PSLTSCALE
 70
     1
  0
ENDSEC
  0
SECTION
  2
TABLES
  0
TABLE
  2
VPORT
 70
     1
  0
VPORT
  2
*ACTIVE
 70
     0
 10
0.0
 20
0.0
 11
1.0
 21
1.0
 12
0.0
 22
0.0
 13
0.0
 23
0.0
 14
1.0
 24
1.0
 15
0.0
 25
0.0
 16
0.0
 26
0.0
 36
39.1325955906695668
 17
3657.085205078125
 27
156.3041534423828125
 37
0.0
 40
9.4260257226535415
 41
3.314341846758349
 42
50.0
 43
0.0
 44
0.0
 50
0.0
 51
0.0
 71
     0
 72
   100
 73
     1
 74
     1
 75
     0
 76
     0
 77
     0
 78
     0
  0
ENDTAB
  0
TABLE
  2
LTYPE
 70
     2
  0
LTYPE
  2
CONTINUOUS
 70
     0
  3
Solid line
 72
    65
 73
     0
 40
0.0
  0
LTYPE
  2
PHANTOM2
 70
     0
  3
___ _ _ ___ _ _ ___ _ _ ___ _ _
 72
    65
 73
     6
 40
1.25
 49
0.625
 49
-0.125
 49
0.125
 49
-0.125
 49
0.125
 49
-0.125
  0
ENDTAB
  0
TABLE
  2
LAYER
 70
     2
  0
LAYER
  2
0
 70
     0
 62
   255
  6
CONTINUOUS
  0
LAYER
  2
DEFPOINTS
 70
     0
 62
     7
  6
CONTINUOUS
  0
ENDTAB
  0
TABLE
  2
STYLE
 70
     1
  0
STYLE
  2
STANDARD
 70
     0
 40
0.0
 41
0.8
 50
0.0
 71
     0
 42
0.2
  3
txt
  4

  0
ENDTAB
  0
TABLE
  2
VIEW
 70
     0
  0
ENDTAB
  0
TABLE
  2
UCS
 70
     0
  0
ENDTAB
  0
TABLE
  2
APPID
 70
    10
  0
APPID
  2
ACAD
 70
     0
  0
APPID
  2
ACAD_MLEADERVER
 70
     0
  0
APPID
  2
ACAD_EXEMPT_FROM_CAD_STANDARDS
 70
     0
  0
APPID
  2
ACAD_NAV_VCDISPLAY
 70
     0
  0
APPID
  2
ACAECLAYERSTANDARD
 70
     0
  0
APPID
  2
ACCMTRANSPARENCY
 70
     0
  0
APPID
  2
ACAD_DSTYLE_DIMJAG
 70
     0
  0
APPID
  2
ACAD_DSTYLE_DIMTALN
 70
     0
  0
APPID
  2
ACDBATTR
 70
     0
  0
APPID
  2
ACAD_PSEXT
 70
     0
  0
ENDTAB
  0
TABLE
  2
DIMSTYLE
 70
     1
  0
DIMSTYLE
  2
STANDARD
 70
     0
  3

  4

  5

  6

  7

 40
1.0
 41
0.1875
 42
0.0625
 43
0.38
 44
0.125
 45
0.0
 46
0.0
 47
0.01
 48
0.01
140
0.15625
141
0.09
142
0.0
143
25.3999999999999986
144
1.0
145
0.0
146
1.0
147
0.09
 71
     1
 72
     0
 73
     1
 74
     1
 75
     0
 76
     0
 77
     0
 78
     4
170
     0
171
     2
172
     0
173
     0
174
     0
175
     0
176
     0
177
     0
178
     0
  0
ENDTAB
  0
ENDSEC
  0
SECTION
  2
BLOCKS
  0
BLOCK
  8
0
  2
$MODEL_SPACE
 70
     0
 10
0.0
 20
0.0
 30
0.0
  3
$MODEL_SPACE
  1

  0
ENDBLK
  5
21
  8
0
  0
BLOCK
 67
     1
  8
0
  2
$PAPER_SPACE
 70
     0
 10
0.0
 20
0.0
 30
0.0
  3
$PAPER_SPACE
  1

  0
ENDBLK
  5
1D
 67
     1
  8
0
  0
BLOCK
  8
0
  2
_FILLED
 70
     0
 10
0.0
 20
0.0
 30
0.0
  3
_FILLED
  1

  0
SOLID
  5
B630
  8
0
  6
BYBLOCK
 62
     0
 10
0.0
 20
0.0
 30
0.0
 11
-1.0
 21
0.1666666667
 31
0.0
 12
-1.0
 22
-0.1666666667
 32
0.0
 13
-1.0
 23
-0.1666666667
 33
0.0
  0
ENDBLK
  5
B631
  8
0
  6
BYBLOCK
 62
     0
  0
BLOCK
  8
0
  2
_CLOSED
 70
     0
 10
0.0
 20
0.0
 30
0.0
  3
_CLOSED
  1

  0
LINE
  5
ECF3
  8
0
  6
BYBLOCK
 62
     0
 10
0.0
 20
0.0
 30
0.0
 11
-1.0
 21
0.1666666667
 31
0.0
  0
LINE
  5
ECF4
  8
0
  6
BYBLOCK
 62
     0
 10
-1.0
 20
0.1666666667
 30
0.0
 11
-1.0
 21
-0.1666666667
 31
0.0
  0
LINE
  5
ECF5
  8
0
  6
BYBLOCK
 62
     0
 10
-1.0
 20
-0.1666666667
 30
0.0
 11
0.0
 21
0.0
 31
0.0
  0
LINE
  5
ECF6
  8
0
  6
BYBLOCK
 62
     0
 10
-1.0
 20
0.0
 30
0.0
 11
0.0
 21
0.0
 31
0.0
  0
ENDBLK
  5
ECF7
  8
0
  6
BYBLOCK
 62
     0
  0
ENDSEC
  0
SECTION
  2
ENTITIES
  0
ATTDEF
  5
AA11
  8
DEFPOINTS
 10
3655.0862326680498882
 20
157.3185884254320968
 30
0.0
 40
0.001
  1
K-21089T-4E
  3

  2
MODELNUMBER
 70
     0
1001
ACDBATTR
1070
     0
1070
     1
  0
ATTDEF
  5
AA12
  8
DEFPOINTS
 10
3655.0862326680498882
 20
157.3169217587654032
 30
0.0
 40
0.001
  1
ALEO
  3

  2
TRADENAME
 70
     0
1001
ACDBATTR
1070
     0
1070
     1
  0
ATTDEF
  5
AA13
  8
DEFPOINTS
 10
3655.0862326680498882
 20
157.3152550920987949
 30
0.0
 40
0.001
  1
BATHROOM SINK FAUCET
  3

  2
PRODUCT
 70
     0
1001
ACDBATTR
1070
     0
1070
     1
  0
LINE
  5
F016
  8
0
 10
3655.0770718479438983
 20
156.9761814419080963
 30
0.0
 11
3655.0705906764169413
 21
156.9753310586928876
 31
0.0
  0
LINE
  5
F017
  8
0
 10
3655.0705906764169413
 20
156.9753310586928876
 30
0.0
 11
3655.0672292662461587
 21
156.9750027850519132
 31
0.0
  0
LINE
  5
F018
  8
0
 10
3655.0672292662461587
 20
156.9750027850519132
 30
0.0
 11
3655.0475441083440273
 21
156.975919304508011
 31
0.0
  0
LINE
  5
F019
  8
0
 10
3655.0475441083440273
 20
156.975919304508011
 30
0.0
 11
3655.0377017668420194
 21
156.9780067964167074
 31
0.0
  0
LINE
  5
F01A
  8
0
 10
3655.0377017668420194
 20
156.9780067964167074
 30
0.0
 11
3655.0475408306720055
 21
156.9773891779684902
 31
0.0
  0
LINE
  5
F01B
  8
0
 10
3655.0475408306720055
 20
156.9773891779684902
 30
0.0
 11
3655.0672291469468291
 21
156.9764768453565864
 31
0.0
  0
LINE
  5
F01C
  8
0
 10
3655.0672291469468291
 20
156.9764768453565864
 30
0.0
 11
3655.0770718479438983
 21
156.9761814419080963
 31
0.0
  0
LINE
  5
F01D
  8
0
 10
3655.0492327035790368
 20
156.9751944694666008
 30
0.0
 11
3655.0393900035919614
 21
156.9751944567971975
 31
0.0
  0
LINE
  5
F01E
  8
0
 10
3655.0393900035919614
 20
156.9751944567971975
 30
0.0
 11
3655.0197049616440381
 21
156.9771658537478913
 31
0.0
  0
LINE
  5
F01F
  8
0
 10
3655.0197049616440381
 20
156.9771658537478913
 30
0.0
 11
3655.0098626205899564
 21
156.9788874014290059
 31
0.0
  0
LINE
  5
F020
  8
0
 10
3655.0098626205899564
 20
156.9788874014290059
 30
0.0
 11
3655.0197049593989505
 21
156.9788874142637098
 31
0.0
  0
LINE
  5
F021
  8
0
 10
3655.0197049593989505
 20
156.9788874142637098
 30
0.0
 11
3655.0393900013441453
 21
156.9769402290079938
 31
0.0
  0
LINE
  5
F022
  8
0
 10
3655.0393900013441453
 20
156.9769402290079938
 30
0.0
 11
3655.0492327035790368
 21
156.9751944694666008
 31
0.0
  0
LINE
  5
F023
  8
0
 10
3655.0213941441779752
 20
156.9795234179605927
 30
0.0
 11
3655.0115514439571598
 21
156.9792835726387921
 31
0.0
  0
LINE
  5
F024
  8
0
 10
3655.0115514439571598
 20
156.9792835726387921
 30
0.0
 11
3654.991866400885101
 21
156.9820586677753056
 31
0.0
  0
LINE
  5
F025
  8
0
 10
3654.991866400885101
 20
156.9820586677753056
 30
0.0
 11
3654.9822663717941396
 21
156.9850476360579989
 31
0.0
  0
LINE
  5
F026
  8
0
 10
3654.9822663717941396
 20
156.9850476360579989
 30
0.0
 11
3655.0213941441779752
 21
156.9795234179605927
 31
0.0
  0
LINE
  5
F027
  8
0
 10
3654.9935549969591193
 20
156.9811942261449076
 30
0.0
 11
3654.9837123032480122
 21
156.9822912270718973
 31
0.0
  0
LINE
  5
F028
  8
0
 10
3654.9837123032480122
 20
156.9822912270718973
 30
0.0
 11
3654.9640272505639587
 21
156.9860590052917075
 31
0.0
  0
LINE
  5
F029
  8
0
 10
3654.9640272505639587
 20
156.9860590052917075
 30
0.0
 11
3654.9541849082629597
 21
156.9886855662587948
 31
0.0
  0
LINE
  5
F02A
  8
0
 10
3654.9541849082629597
 20
156.9886855662587948
 30
0.0
 11
3654.964027610391895
 21
156.987566587198188
 31
0.0
  0
LINE
  5
F02B
  8
0
 10
3654.964027610391895
 20
156.987566587198188
 30
0.0
 11
3654.9837122928452118
 21
156.9838427661080118
 31
0.0
  0
LINE
  5
F02C
  8
0
 10
3654.9837122928452118
 20
156.9838427661080118
 30
0.0
 11
3654.9935549969591193
 21
156.9811942261449076
 31
0.0
  0
LINE
  5
F02D
  8
0
 10
3654.9657164335440029
 20
156.9881257424079877
 30
0.0
 11
3654.9558737319439388
 21
156.988882584007996
 31
0.0
  0
LINE
  5
F02E
  8
0
 10
3654.9558737319439388
 20
156.988882584007996
 30
0.0
 11
3654.9361886863439395
 21
156.9935967460079951
 31
0.0
  0
LINE
  5
F02F
  8
0
 10
3654.9361886863439395
 20
156.9935967460079951
 30
0.0
 11
3654.9263463423449139
 21
156.9975125403080085
 31
0.0
  0
LINE
  5
F030
  8
0
 10
3654.9263463423449139
 20
156.9975125403080085
 30
0.0
 11
3654.9657164335440029
 21
156.9881257424079877
 31
0.0
  0
LINE
  5
F031
  8
0
 10
3654.9378772822301471
 20
156.9926047736888961
 30
0.0
 11
3654.9280345791439686
 21
156.9947692498080016
 31
0.0
  0
LINE
  5
F032
  8
0
 10
3654.9280345791439686
 20
156.9947692498080016
 30
0.0
 11
3654.9083495320769543
 21
157.0005631196748084
 31
0.0
  0
LINE
  5
F033
  8
0
 10
3654.9083495320769543
 20
157.0005631196748084
 30
0.0
 11
3654.8985071892889209
 21
157.0041213734189114
 31
0.0
  0
LINE
  5
F034
  8
0
 10
3654.8985071892889209
 20
157.0041213734189114
 30
0.0
 11
3654.9083495303439122
 21
157.0018958000079863
 31
0.0
  0
LINE
  5
F035
  8
0
 10
3654.9083495303439122
 20
157.0018958000079863
 30
0.0
 11
3654.9280345772440342
 21
156.996172905608006
 31
0.0
  0
LINE
  5
F036
  8
0
 10
3654.9280345772440342
 20
156.996172905608006
 30
0.0
 11
3654.9378772822301471
 21
156.9926047736888961
 31
0.0
  0
LINE
  5
F037
  8
0
 10
3654.910038715544033
 20
157.0022387722079884
 30
0.0
 11
3654.8709109325441204
 21
157.0157212617579887
 31
0.0
  0
LINE
  5
F038
  8
0
 10
3654.8709109325441204
 20
157.0157212617579887
 30
0.0
 11
3654.880510964073892
 21
157.0108863720344914
 31
0.0
  0
LINE
  5
F039
  8
0
 10
3654.880510964073892
 20
157.0108863720344914
 30
0.0
 11
3654.9001960124978723
 21
157.0040853348018004
 31
0.0
  0
LINE
  5
F03A
  8
0
 10
3654.9001960124978723
 20
157.0040853348018004
 30
0.0
 11
3654.910038715544033
 21
157.0022387722079884
 31
0.0
  0
LINE
  5
F03B
  8
0
 10
3654.8821995604880613
 20
157.0097767711050096
 30
0.0
 11
3654.8723568554441954
 21
157.0131378047080091
 31
0.0
  0
LINE
  5
F03C
  8
0
 10
3654.8723568554441954
 20
157.0131378047080091
 30
0.0
 11
3654.8524576879440247
 21
157.0212457778580131
 31
0.0
  0
LINE
  5
F03D
  8
0
 10
3654.8524576879440247
 20
157.0212457778580131
 30
0.0
 11
3654.8428294608429496
 21
157.0257043607107903
 31
0.0
  0
LINE
  5
F03E
  8
0
 10
3654.8428294608429496
 20
157.0257043607107903
 30
0.0
 11
3654.8526718039452135
 21
157.0223092466079891
 31
0.0
  0
LINE
  5
F03F
  8
0
 10
3654.8526718039452135
 20
157.0223092466079891
 30
0.0
 11
3654.8723568539448934
 21
157.0143111126079987
 31
0.0
  0
LINE
  5
F040
  8
0
 10
3654.8723568539448934
 20
157.0143111126079987
 30
0.0
 11
3654.8821995604757831
 21
157.0097767710817891
 31
0.0
  0
LINE
  5
F041
  8
0
 10
3654.8543609896651105
 20
157.0223092488884049
 30
0.0
 11
3654.8445182861401008
 21
157.0253878937932086
 31
0.0
  0
LINE
  5
F042
  8
0
 10
3654.8445182861401008
 20
157.0253878937932086
 30
0.0
 11
3654.8248332335811028
 21
157.0345169825203868
 31
0.0
  0
LINE
  5
F043
  8
0
 10
3654.8248332335811028
 20
157.0345169825203868
 30
0.0
 11
3654.8149908869281717
 21
157.0404760041070062
 31
0.0
  0
LINE
  5
F044
  8
0
 10
3654.8149908869281717
 20
157.0404760041070062
 30
0.0
 11
3654.8248335917451186
 21
157.0372437050079952
 31
0.0
  0
LINE
  5
F045
  8
0
 10
3654.8248335917451186
 20
157.0372437050079952
 30
0.0
 11
3654.8365401597438904
 21
157.0317654503080007
 31
0.0
  0
LINE
  5
F046
  8
0
 10
3654.8365401597438904
 20
157.0317654503080007
 30
0.0
 11
3654.841448817636774
 21
157.0279541764909084
 31
0.0
  0
LINE
  5
F047
  8
0
 10
3654.841448817636774
 20
157.0279541764909084
 30
0.0
 11
3654.8543609896441922
 21
157.0223092489079875
 31
0.0
  0
LINE
  5
F048
  8
0
 10
3655.09506770504413
 20
156.9736163488080081
 30
0.0
 11
3655.0753826656441561
 21
156.9736163225697112
 31
0.0
  0
LINE
  5
F049
  8
0
 10
3655.0753826656441561
 20
156.9736163225697112
 30
0.0
 11
3655.0655403258388105
 21
156.9744326545207116
 31
0.0
  0
LINE
  5
F04A
  8
0
 10
3655.0655403258388105
 20
156.9744326545207116
 30
0.0
 11
3655.0753575418380024
 21
156.9751046669177867
 31
0.0
  0
LINE
  5
F04B
  8
0
 10
3655.0753575418380024
 20
156.9751046669177867
 30
0.0
 11
3655.0950680645942157
 21
156.9752668791331871
 31
0.0
  0
LINE
  5
F04C
  8
0
 10
3655.0731357543691047
 20
156.9738026832829121
 30
0.0
 11
3655.0426791912459521
 21
156.975194461031009
 31
0.0
  0
LINE
  5
F04D
  8
0
 10
3655.0170991382487955
 20
156.9776216446211947
 30
0.0
 11
3654.9874733908468443
 21
156.9818720413587982
 31
0.0
  0
ARC
  5
F04E
  8
0
 10
3655.0847833033940333
 20
157.565328141580494
 30
0.0
 40
0.5916033071777747
 50
254.8231022101817018
 51
258.0097898541305881
  0
ARC
  5
F04F
  8
0
 10
3655.0840100633067777
 20
157.5627134692520883
 30
0.0
 40
0.5888757290008724
 50
249.0603210679977053
 51
252.4621610017541968
  0
ARC
  5
F050
  8
0
 10
3654.965959713113989
 20
157.316752768649593
 30
0.0
 40
0.3162898923954586
 50
233.376428078328189
 51
248.1890897135542957
  0
ARC
  5
F051
  8
0
 10
3655.0851773706758649
 20
157.5832901771887009
 30
0.0
 40
0.6031924506354959
 50
244.8612900348570918
 51
269.9987866164144066
  0
LINE
  5
F052
  8
0
 10
3654.8289344962918221
 20
157.0372309113288054
 30
0.0
 11
3654.8284291458439839
 21
157.0383941665079988
 31
0.0
  0
LINE
  5
F053
  8
0
 10
3654.8284291458439839
 20
157.0383941665079988
 30
0.0
 11
3654.8248338169491944
 21
157.0401023579250079
 31
0.0
  0
LINE
  5
F054
  8
0
 10
3654.8248338169491944
 20
157.0401023579250079
 30
0.0
 11
3654.8149919773450165
 21
157.047789009148488
 31
0.0
  0
LINE
  5
F055
  8
0
 10
3654.8149919773450165
 20
157.047789009148488
 30
0.0
 11
3654.8248338086450531
 21
157.0463757858080101
 31
0.0
  0
LINE
  5
F056
  8
0
 10
3654.8248338086450531
 20
157.0463757858080101
 30
0.0
 11
3654.8268519204721088
 21
157.0454167540048047
 31
0.0
  0
LINE
  5
F057
  8
0
 10
3654.8268519204721088
 20
157.0454167540048047
 30
0.0
 11
3654.8268521428440181
 21
157.0504916407080032
 31
0.0
  0
LINE
  5
F058
  8
0
 10
3654.8268521428440181
 20
157.0504916407080032
 30
0.0
 11
3654.8248343927079986
 21
157.0514506724796036
 31
0.0
  0
LINE
  5
F059
  8
0
 10
3654.8248343927079986
 20
157.0514506724796036
 30
0.0
 11
3654.8149920414198277
 21
157.0608813216935005
 31
0.0
  0
LINE
  5
F05A
  8
0
 10
3654.8149920414198277
 20
157.0608813216935005
 30
0.0
 11
3654.8248343797440612
 21
157.0612118150079937
 31
0.0
  0
LINE
  5
F05B
  8
0
 10
3654.8248343797440612
 20
157.0612118150079937
 30
0.0
 11
3654.8284300704171983
 21
157.0595036236209125
 31
0.0
  0
LINE
  5
F05C
  8
0
 10
3654.8284300704171983
 20
157.0595036236209125
 30
0.0
 11
3654.8289355504380183
 21
157.0613005765063974
 31
0.0
  0
LINE
  5
F05D
  8
0
 10
3654.8289344962190626
 20
157.0372309113635936
 30
0.0
 11
3654.8454261822439548
 21
157.0470972438812112
 31
0.0
  0
LINE
  5
F05E
  8
0
 10
3654.8454261822439548
 20
157.0470972438812112
 30
0.0
 11
3654.8502480182069121
 21
157.0517781247625066
 31
0.0
  0
LINE
  5
F05F
  8
0
 10
3654.8284291458439839
 20
157.0383941665079988
 30
0.0
 11
3654.8445188457440054
 21
157.0480577385073104
 31
0.0
  0
LINE
  5
F060
  8
0
 10
3654.8445188457440054
 20
157.0480577385073104
 30
0.0
 11
3654.8489166146468961
 21
157.0523425904007127
 31
0.0
  0
ARC
  5
F061
  8
0
 10
3655.0847494950480723
 20
157.6061071582660134
 30
0.0
 40
0.6018762212690315
 50
244.8475960340099959
 51
258.4808802063870985
  0
ARC
  5
F062
  8
0
 10
3655.085328242721971
 20
157.608946943004895
 30
0.0
 40
0.6047743803800572
 50
258.4808802063870985
 51
269.9897449260892017
  0
LINE
  5
F063
  8
0
 10
3654.8796034078309276
 20
157.040271432433002
 30
0.0
 11
3654.8796034020829211
 21
157.0353601826087981
 31
0.0
  0
LINE
  5
F064
  8
0
 10
3654.8796034020829211
 20
157.0353601826087981
 30
0.0
 11
3654.8454261978440627
 21
157.0353602226080056
 31
0.0
  0
LINE
  5
F065
  8
0
 10
3654.8454261978440627
 20
157.0353602226080056
 30
0.0
 11
3654.8454261822439548
 21
157.0470972438812112
 31
0.0
  0
LINE
  5
F066
  8
0
 10
3654.8526723774439233
 20
157.0353602141275076
 30
0.0
 11
3654.8526731767278761
 21
157.0507734133844053
 31
0.0
  0
LINE
  5
F067
  8
0
 10
3654.8723574168438972
 20
157.0353601910080101
 30
0.0
 11
3654.8723573501551982
 21
157.042951262872009
 31
0.0
  0
LINE
  5
F068
  8
0
 10
3654.8268519205480516
 20
157.0454167539685102
 30
0.0
 11
3654.8427216466220671
 21
157.0550377376706024
 31
0.0
  0
LINE
  5
F069
  8
0
 10
3654.8268521428440181
 20
157.0504916407080032
 30
0.0
 11
3654.837806343487955
 21
157.0572227755160952
 31
0.0
  0
LINE
  5
F06A
  8
0
 10
3655.0753826656441561
 20
156.9736163225697112
 30
0.0
 11
3655.0753575418380024
 21
156.9751046669177867
 31
0.0
  0
LINE
  5
F06B
  8
0
 10
3655.0672292662461587
 20
156.9750027850519132
 30
0.0
 11
3655.0672974257931855
 21
156.9764736813980051
 31
0.0
  0
LINE
  5
F06C
  8
0
 10
3655.0475441083440273
 20
156.975919304508011
 30
0.0
 11
3655.0475408306720055
 21
156.9773891779684902
 31
0.0
  0
LINE
  5
F06D
  8
0
 10
3655.0393900035919614
 20
156.9751944567971975
 30
0.0
 11
3655.0393900013441453
 21
156.9769402290079938
 31
0.0
  0
LINE
  5
F06E
  8
0
 10
3655.0197049616440381
 20
156.9771658537478913
 30
0.0
 11
3655.0197049593989505
 21
156.9788874142637098
 31
0.0
  0
LINE
  5
F06F
  8
0
 10
3655.0115514439571598
 20
156.9792835726387921
 30
0.0
 11
3655.0117770041820222
 21
156.9808812049128051
 31
0.0
  0
LINE
  5
F070
  8
0
 10
3654.991866400885101
 20
156.9820586677753056
 30
0.0
 11
3654.9920925313272164
 21
156.9836603388772005
 31
0.0
  0
LINE
  5
F071
  8
0
 10
3654.9837123032480122
 20
156.9822912270718973
 30
0.0
 11
3654.9837122928452118
 21
156.9838427661080118
 31
0.0
  0
LINE
  5
F072
  8
0
 10
3654.9640272505639587
 20
156.9860590052917075
 30
0.0
 11
3654.964027610391895
 21
156.987566587198188
 31
0.0
  0
LINE
  5
F073
  8
0
 10
3654.9558737319439388
 20
156.988882584007996
 30
0.0
 11
3654.9562324136031748
 21
156.9903869659856923
 31
0.0
  0
LINE
  5
F074
  8
0
 10
3654.9361886863439395
 20
156.9935967460079951
 30
0.0
 11
3654.9365426838571693
 21
156.9950814817511002
 31
0.0
  0
LINE
  5
F075
  8
0
 10
3654.9280345791439686
 20
156.9947692498080016
 30
0.0
 11
3654.9280345772440342
 21
156.996172905608006
 31
0.0
  0
LINE
  5
F076
  8
0
 10
3654.9083495320769543
 20
157.0005631196748084
 30
0.0
 11
3654.9083495303439122
 21
157.0018958000079863
 31
0.0
  0
LINE
  5
F077
  8
0
 10
3654.9001960124978723
 20
157.0040853348018004
 30
0.0
 11
3654.9006718796717905
 21
157.0054663577516862
 31
0.0
  0
LINE
  5
F078
  8
0
 10
3654.880510964073892
 20
157.0108863720344914
 30
0.0
 11
3654.8809812733779836
 21
157.0122512653863112
 31
0.0
  0
LINE
  5
F079
  8
0
 10
3654.8723568554441954
 20
157.0131378047080091
 30
0.0
 11
3654.8723568539448934
 21
157.0143111126079987
 31
0.0
  0
LINE
  5
F07A
  8
0
 10
3654.8524576879440247
 20
157.0212457778580131
 30
0.0
 11
3654.8526718039452135
 21
157.0223092466079891
 31
0.0
  0
LINE
  5
F07B
  8
0
 10
3654.8445182861401008
 20
157.0253878937932086
 30
0.0
 11
3654.8445405710749583
 21
157.0266025275008133
 31
0.0
  0
LINE
  5
F07C
  8
0
 10
3654.8248332335811028
 20
157.0345169825203868
 30
0.0
 11
3654.8248335917451186
 21
157.0372437050079952
 31
0.0
  0
LINE
  5
F07D
  8
0
 10
3654.8248338169491944
 20
157.0401023579250079
 30
0.0
 11
3654.8248338086450531
 21
157.0463757858080101
 31
0.0
  0
LINE
  5
F07E
  8
0
 10
3654.8248343927079986
 20
157.0514506724796036
 30
0.0
 11
3654.8248343797440612
 21
157.0612118150079937
 31
0.0
  0
LINE
  5
F07F
  8
0
 10
3654.8265224149249661
 20
157.0377568951655007
 30
0.0
 11
3654.81668006676
 21
157.0450732569119907
 31
0.0
  0
LINE
  5
F080
  8
0
 10
3654.81668006676
 20
157.0450732569119907
 30
0.0
 11
3654.7969950134770443
 21
157.0553309671896045
 31
0.0
  0
LINE
  5
F081
  8
0
 10
3654.7969950134770443
 20
157.0553309671896045
 30
0.0
 11
3654.7871523089088441
 21
157.0583481627297999
 31
0.0
  0
LINE
  5
F082
  8
0
 10
3654.7871523089088441
 20
157.0583481627297999
 30
0.0
 11
3654.796994657544019
 21
157.0509165211207119
 31
0.0
  0
LINE
  5
F083
  8
0
 10
3654.796994657544019
 20
157.0509165211207119
 30
0.0
 11
3654.8166797106009653
 21
157.0405858119706863
 31
0.0
  0
LINE
  5
F084
  8
0
 10
3654.8166797106009653
 20
157.0405858119706863
 30
0.0
 11
3654.826522414899955
 21
157.0377568951828096
 31
0.0
  0
LINE
  5
F085
  8
0
 10
3654.796994657544019
 20
157.0509165211207119
 30
0.0
 11
3654.7969950134770443
 21
157.0553309671896045
 31
0.0
  0
LINE
  5
F086
  8
0
 10
3654.8166797106009653
 20
157.0405858119706863
 30
0.0
 11
3654.81668006676
 21
157.0450732569119907
 31
0.0
  0
LINE
  5
F087
  8
0
 10
3654.8265229921630635
 20
157.0480033463400105
 30
0.0
 11
3654.8166802795440162
 21
157.0570533270081057
 31
0.0
  0
LINE
  5
F088
  8
0
 10
3654.8166802795440162
 20
157.0570533270081057
 30
0.0
 11
3654.7969952266439577
 21
157.067288253708
 31
0.0
  0
LINE
  5
F089
  8
0
 10
3654.7969952266439577
 20
157.067288253708
 30
0.0
 11
3654.7871528861478509
 21
157.068594613904196
 31
0.0
  0
LINE
  5
F08A
  8
0
 10
3654.7871528861478509
 20
157.068594613904196
 30
0.0
 11
3654.7969952372441185
 21
157.0592709686376054
 31
0.0
  0
LINE
  5
F08B
  8
0
 10
3654.7969952372441185
 20
157.0592709686376054
 30
0.0
 11
3654.816878830441965
 21
157.0489369488788896
 31
0.0
  0
LINE
  5
F08C
  8
0
 10
3654.816878830441965
 20
157.0489369488788896
 30
0.0
 11
3654.8265229921389619
 21
157.0480033463572056
 31
0.0
  0
LINE
  5
F08D
  8
0
 10
3654.7969952372441185
 20
157.0592709686376054
 30
0.0
 11
3654.7969952266439577
 21
157.067288253708
 31
0.0
  0
LINE
  5
F08E
  8
0
 10
3654.816878830441965
 20
157.0489369488788896
 30
0.0
 11
3654.8166802795440162
 21
157.0570533270081057
 31
0.0
  0
LINE
  5
F08F
  8
0
 10
3654.8265235618318911
 20
157.0639412388622134
 30
0.0
 11
3654.8166808468440649
 21
157.0747874409080964
 31
0.0
  0
LINE
  5
F090
  8
0
 10
3654.8166808468440649
 20
157.0747874409080964
 30
0.0
 11
3654.8051610227021229
 21
157.0805731821799895
 31
0.0
  0
LINE
  5
F091
  8
0
 10
3654.795485757501865
 20
157.0751909783274129
 30
0.0
 11
3654.7969958091121043
 21
157.0734980259985889
 31
0.0
  0
LINE
  5
F092
  8
0
 10
3654.7969958091121043
 20
157.0734980259985889
 30
0.0
 11
3654.816802723220917
 21
157.0632444711073106
 31
0.0
  0
LINE
  5
F093
  8
0
 10
3654.816802723220917
 20
157.0632444711073106
 30
0.0
 11
3654.8265235618077895
 21
157.0639412388794938
 31
0.0
  0
LINE
  5
F094
  8
0
 10
3654.7969958091121043
 20
157.0734980259985889
 30
0.0
 11
3654.7969958902522194
 21
157.0760795406906141
 31
0.0
  0
LINE
  5
F095
  8
0
 10
3654.816802723220917
 20
157.0632444711073106
 30
0.0
 11
3654.8166808468440649
 21
157.0747874409080964
 31
0.0
  0
LINE
  5
F096
  8
0
 10
3655.0949442296077905
 20
157.0196180407068027
 30
0.0
 11
3655.0753849634797916
 21
157.0196180407068027
 31
0.0
  0
LINE
  5
F097
  8
0
 10
3655.0753849634797916
 20
157.0196180407068027
 30
0.0
 11
3655.0655426195808104
 21
157.0268013419141084
 31
0.0
  0
LINE
  5
F098
  8
0
 10
3655.0655426195808104
 20
157.0268013419141084
 30
0.0
 11
3655.075384948745068
 21
157.0340020672664991
 31
0.0
  0
LINE
  5
F099
  8
0
 10
3655.075384948745068
 20
157.0340020672664991
 30
0.0
 11
3655.0949442443438784
 21
157.0340020672664991
 31
0.0
  0
LINE
  5
F09A
  8
0
 10
3655.0753849634797916
 20
157.0196180407068027
 30
0.0
 11
3655.075384948745068
 21
157.0340020672664991
 31
0.0
  0
LINE
  5
F09B
  8
0
 10
3655.094943666943891
 20
157.0441666187080045
 30
0.0
 11
3655.0753855261441458
 21
157.0441666187080045
 31
0.0
  0
LINE
  5
F09C
  8
0
 10
3655.0753855261441458
 20
157.0441666187080045
 30
0.0
 11
3655.065543175538096
 21
157.0530428458779966
 31
0.0
  0
LINE
  5
F09D
  8
0
 10
3655.065543175538096
 20
157.0530428458779966
 30
0.0
 11
3655.0753855025450321
 21
157.0619621562904058
 31
0.0
  0
LINE
  5
F09E
  8
0
 10
3655.0753855025450321
 20
157.0619621562904058
 30
0.0
 11
3655.0949436905430048
 21
157.0619621562904058
 31
0.0
  0
LINE
  5
F09F
  8
0
 10
3655.0753855261441458
 20
157.0441666187080045
 30
0.0
 11
3655.0753855025450321
 21
157.0619621562904058
 31
0.0
  0
LINE
  5
F0A0
  8
0
 10
3655.077074125028048
 20
157.0389543043019955
 30
0.0
 11
3655.0672202514779201
 21
157.0314022061166952
 31
0.0
  0
LINE
  5
F0A1
  8
0
 10
3655.0672202514779201
 20
157.0314022061166952
 30
0.0
 11
3655.0475463967441101
 21
157.0323249741080076
 31
0.0
  0
LINE
  5
F0A2
  8
0
 10
3655.0475463967441101
 20
157.0323249741080076
 30
0.0
 11
3655.0377040467001279
 21
157.0408138217914029
 31
0.0
  0
LINE
  5
F0A3
  8
0
 10
3655.0377040467001279
 20
157.0408138217914029
 30
0.0
 11
3655.0476899793197845
 21
157.0483917138163861
 31
0.0
  0
LINE
  5
F0A4
  8
0
 10
3655.0476899793197845
 20
157.0483917138163861
 30
0.0
 11
3655.0672317778457909
 21
157.047464375692897
 31
0.0
  0
LINE
  5
F0A5
  8
0
 10
3655.0672317778457909
 20
157.047464375692897
 30
0.0
 11
3655.077074125028048
 21
157.0389543043019955
 31
0.0
  0
LINE
  5
F0A6
  8
0
 10
3655.0672202514779201
 20
157.0314022061166952
 30
0.0
 11
3655.0672317778457909
 21
157.047464375692897
 31
0.0
  0
LINE
  5
F0A7
  8
0
 10
3655.0475463967441101
 20
157.0323249741080076
 30
0.0
 11
3655.0476899793197845
 21
157.0483917138163861
 31
0.0
  0
LINE
  5
F0A8
  8
0
 10
3655.0770735654227792
 20
157.015457955443992
 30
0.0
 11
3655.0672254236451408
 21
157.0152859211106886
 31
0.0
  0
LINE
  5
F0A9
  8
0
 10
3655.0672254236451408
 20
157.0152859211106886
 30
0.0
 11
3655.0475460187822137
 21
157.0162707148261916
 31
0.0
  0
LINE
  5
F0AA
  8
0
 10
3655.0475460187822137
 20
157.0162707148261916
 30
0.0
 11
3655.0377034870671196
 21
157.0172833121073097
 31
0.0
  0
LINE
  5
F0AB
  8
0
 10
3655.0377034870671196
 20
157.0172833121073097
 30
0.0
 11
3655.0475461796668242
 21
157.0232131053327009
 31
0.0
  0
LINE
  5
F0AC
  8
0
 10
3655.0475461796668242
 20
157.0232131053327009
 30
0.0
 11
3655.0672199696518874
 21
157.0222969284361056
 31
0.0
  0
LINE
  5
F0AD
  8
0
 10
3655.0672199696518874
 20
157.0222969284361056
 30
0.0
 11
3655.0770735654227792
 21
157.015457955443992
 31
0.0
  0
LINE
  5
F0AE
  8
0
 10
3655.0949431210437979
 20
157.0743726027804996
 30
0.0
 11
3655.0753860720437842
 21
157.0743726027804996
 31
0.0
  0
LINE
  5
F0AF
  8
0
 10
3655.0753860720437842
 20
157.0743726027804996
 30
0.0
 11
3655.0655437239879575
 21
157.0850905711006078
 31
0.0
  0
LINE
  5
F0B0
  8
0
 10
3655.0655437239879575
 20
157.0850905711006078
 30
0.0
 11
3655.0753860484451252
 21
157.0958936390026111
 31
0.0
  0
LINE
  5
F0B1
  8
0
 10
3655.0753860484451252
 20
157.0958936390026111
 30
0.0
 11
3655.0949431446429116
 21
157.0958936390026111
 31
0.0
  0
LINE
  5
F0B2
  8
0
 10
3655.0753860720437842
 20
157.0743726027804996
 30
0.0
 11
3655.0753860484451252
 21
157.0958936390026111
 31
0.0
  0
LINE
  5
F0B3
  8
0
 10
3655.0770746773291648
 20
157.0680272320672941
 30
0.0
 11
3655.0672319919449365
 21
157.0587294089511943
 31
0.0
  0
LINE
  5
F0B4
  8
0
 10
3655.0672319919449365
 20
157.0587294089511943
 30
0.0
 11
3655.0475469512762174
 21
157.059676576419605
 31
0.0
  0
LINE
  5
F0B5
  8
0
 10
3655.0475469512762174
 20
157.059676576419605
 30
0.0
 11
3655.0377045989530416
 21
157.0699417893279133
 31
0.0
  0
LINE
  5
F0B6
  8
0
 10
3655.0377045989530416
 20
157.0699417893279133
 30
0.0
 11
3655.0478157204897798
 21
157.0792930803208947
 31
0.0
  0
LINE
  5
F0B7
  8
0
 10
3655.0478157204897798
 20
157.0792930803208947
 30
0.0
 11
3655.0672319659438472
 21
157.0783431775080032
 31
0.0
  0
LINE
  5
F0B8
  8
0
 10
3655.0672319659438472
 20
157.0783431775080032
 30
0.0
 11
3655.0770746773291648
 21
157.0680272320672941
 31
0.0
  0
LINE
  5
F0B9
  8
0
 10
3655.0672319919449365
 20
157.0587294089511943
 30
0.0
 11
3655.0672319659438472
 21
157.0783431775080032
 31
0.0
  0
LINE
  5
F0BA
  8
0
 10
3655.0475469512762174
 20
157.059676576419605
 30
0.0
 11
3655.0478157204897798
 21
157.0792930803208947
 31
0.0
  0
LINE
  5
F0BB
  8
0
 10
3655.0949425736707781
 20
157.1108012476115903
 30
0.0
 11
3655.075386619416804
 21
157.1108012476115903
 31
0.0
  0
LINE
  5
F0BC
  8
0
 10
3655.075386619416804
 20
157.1108012476115903
 30
0.0
 11
3655.0672340870601147
 21
157.1213367067443016
 31
0.0
  0
LINE
  5
F0BD
  8
0
 10
3655.075386619416804
 20
157.1108012476115903
 30
0.0
 11
3655.0753866053719321
 21
157.1214212392958132
 31
0.0
  0
LINE
  5
F0BE
  8
0
 10
3655.0770752215680659
 20
157.1031909113744121
 30
0.0
 11
3655.0672325387440651
 21
157.0919662710147975
 31
0.0
  0
LINE
  5
F0BF
  8
0
 10
3655.0672325387440651
 20
157.0919662710147975
 30
0.0
 11
3655.0475474980439685
 21
157.0929497147079985
 31
0.0
  0
LINE
  5
F0C0
  8
0
 10
3655.0475474980439685
 20
157.0929497147079985
 30
0.0
 11
3655.0377051430200481
 21
157.105187082360402
 31
0.0
  0
LINE
  5
F0C1
  8
0
 10
3655.0377051430200481
 20
157.105187082360402
 30
0.0
 11
3655.047547466845117
 21
157.116541956708005
 31
0.0
  0
LINE
  5
F0C2
  8
0
 10
3655.047547466845117
 20
157.116541956708005
 30
0.0
 11
3655.0672325075452136
 21
157.115528560508011
 31
0.0
  0
LINE
  5
F0C3
  8
0
 10
3655.0672325075452136
 20
157.115528560508011
 30
0.0
 11
3655.0770752215680659
 21
157.1031909113744121
 31
0.0
  0
LINE
  5
F0C4
  8
0
 10
3655.0672325387440651
 20
157.0919662710147975
 30
0.0
 11
3655.0672325075452136
 21
157.115528560508011
 31
0.0
  0
LINE
  5
F0C5
  8
0
 10
3655.0475474980439685
 20
157.0929497147079985
 30
0.0
 11
3655.047547466845117
 21
157.116541956708005
 31
0.0
  0
LINE
  5
F0C6
  8
0
 10
3655.0463419334569153
 20
157.1208860633124971
 30
0.0
 11
3655.0393939570631119
 21
157.1126439201279936
 31
0.0
  0
LINE
  5
F0C7
  8
0
 10
3655.0393939570631119
 20
157.1126439201279936
 30
0.0
 11
3655.0197089150128704
 21
157.1146670913894923
 31
0.0
  0
LINE
  5
F0C8
  8
0
 10
3655.0197089150128704
 20
157.1146670913894923
 30
0.0
 11
3655.0158025999799065
 21
157.1196208740009865
 31
0.0
  0
LINE
  5
F0C9
  8
0
 10
3655.0393939570631119
 20
157.1126439201279936
 30
0.0
 11
3655.0393939464411233
 21
157.1206615536083859
 31
0.0
  0
LINE
  5
F0CA
  8
0
 10
3655.0197089150128704
 20
157.1146670913894923
 30
0.0
 11
3655.0197812267911104
 21
157.1198265582659133
 31
0.0
  0
LINE
  5
F0CB
  8
0
 10
3655.0492361022879777
 20
157.085898490196314
 30
0.0
 11
3655.0393934146109132
 21
157.0761353580903119
 31
0.0
  0
LINE
  5
F0CC
  8
0
 10
3655.0393934146109132
 20
157.0761353580903119
 30
0.0
 11
3655.0197083726538949
 21
157.0780698513372897
 31
0.0
  0
LINE
  5
F0CD
  8
0
 10
3655.0197083726538949
 20
157.0780698513372897
 30
0.0
 11
3655.0098660183680295
 21
157.089816864722394
 31
0.0
  0
LINE
  5
F0CE
  8
0
 10
3655.0098660183680295
 20
157.089816864722394
 30
0.0
 11
3655.0197083440439201
 21
157.0996868892081011
 31
0.0
  0
LINE
  5
F0CF
  8
0
 10
3655.0197083440439201
 20
157.0996868892081011
 30
0.0
 11
3655.0393933860441393
 21
157.0977020584080037
 31
0.0
  0
LINE
  5
F0D0
  8
0
 10
3655.0393933860441393
 20
157.0977020584080037
 30
0.0
 11
3655.0492361022879777
 21
157.085898490196314
 31
0.0
  0
LINE
  5
F0D1
  8
0
 10
3655.0393934146109132
 20
157.0761353580903119
 30
0.0
 11
3655.0393933860441393
 21
157.0977020584080037
 31
0.0
  0
LINE
  5
F0D2
  8
0
 10
3655.0197083726538949
 20
157.0780698513372897
 30
0.0
 11
3655.0197083440439201
 21
157.0996868892081011
 31
0.0
  0
LINE
  5
F0D3
  8
0
 10
3655.0492355539349774
 20
157.0538228920065933
 30
0.0
 11
3655.0393928639441583
 21
157.045874584859888
 31
0.0
  0
LINE
  5
F0D4
  8
0
 10
3655.0393928639441583
 20
157.045874584859888
 30
0.0
 11
3655.0197078179858181
 21
157.0477488545421068
 31
0.0
  0
LINE
  5
F0D5
  8
0
 10
3655.0197078179858181
 20
157.0477488545421068
 30
0.0
 11
3655.0098654702619569
 21
157.0576049313594069
 31
0.0
  0
LINE
  5
F0D6
  8
0
 10
3655.0098654702619569
 20
157.0576049313594069
 30
0.0
 11
3655.0197077984439602
 21
157.0656090901873938
 31
0.0
  0
LINE
  5
F0D7
  8
0
 10
3655.0197077984439602
 20
157.0656090901873938
 30
0.0
 11
3655.0393928403450445
 21
157.063701187407986
 31
0.0
  0
LINE
  5
F0D8
  8
0
 10
3655.0393928403450445
 20
157.063701187407986
 30
0.0
 11
3655.0492355539349774
 21
157.0538228920065933
 31
0.0
  0
LINE
  5
F0D9
  8
0
 10
3655.0393928639441583
 20
157.045874584859888
 30
0.0
 11
3655.0393928403450445
 21
157.063701187407986
 31
0.0
  0
LINE
  5
F0DA
  8
0
 10
3655.0197078179858181
 20
157.0477488545421068
 30
0.0
 11
3655.0197077984439602
 21
157.0656090901873938
 31
0.0
  0
LINE
  5
F0DB
  8
0
 10
3655.0492349950918651
 20
157.027563154927293
 30
0.0
 11
3655.0393923056440144
 21
157.0212916313080029
 31
0.0
  0
LINE
  5
F0DC
  8
0
 10
3655.0393923056440144
 20
157.0212916313080029
 30
0.0
 11
3655.019707263921191
 21
157.0231276484626903
 31
0.0
  0
LINE
  5
F0DD
  8
0
 10
3655.019707263921191
 20
157.0231276484626903
 30
0.0
 11
3655.0098649142669274
 21
157.0312560889524036
 31
0.0
  0
LINE
  5
F0DE
  8
0
 10
3655.0098649142669274
 20
157.0312560889524036
 30
0.0
 11
3655.01970724474495
 21
157.037551582684813
 31
0.0
  0
LINE
  5
F0DF
  8
0
 10
3655.01970724474495
 20
157.037551582684813
 30
0.0
 11
3655.0393922866442153
 21
157.0356947464080974
 31
0.0
  0
LINE
  5
F0E0
  8
0
 10
3655.0393922866442153
 20
157.0356947464080974
 30
0.0
 11
3655.0492349950918651
 21
157.027563154927293
 31
0.0
  0
LINE
  5
F0E1
  8
0
 10
3655.0393923056440144
 20
157.0212916313080029
 30
0.0
 11
3655.0393922866442153
 21
157.0356947464080974
 31
0.0
  0
LINE
  5
F0E2
  8
0
 10
3655.019707263921191
 20
157.0231276484626903
 30
0.0
 11
3655.01970724474495
 21
157.037551582684813
 31
0.0
  0
LINE
  5
F0E3
  8
0
 10
3655.021396424122031
 20
157.042358999447913
 30
0.0
 11
3655.0115537323440549
 21
157.0357136249064922
 31
0.0
  0
LINE
  5
F0E4
  8
0
 10
3655.0115537323440549
 20
157.0357136249064922
 30
0.0
 11
3654.991868689245166
 21
157.0385090561067898
 31
0.0
  0
LINE
  5
F0E5
  8
0
 10
3654.991868689245166
 20
157.0385090561067898
 30
0.0
 11
3654.9820263378951495
 21
157.0479909661762008
 31
0.0
  0
LINE
  5
F0E6
  8
0
 10
3654.9820263378951495
 20
157.0479909661762008
 30
0.0
 11
3654.9918686678452104
 21
157.0546760083138906
 31
0.0
  0
LINE
  5
F0E7
  8
0
 10
3654.9918686678452104
 20
157.0546760083138906
 30
0.0
 11
3655.0115537109440993
 21
157.0518393275079916
 31
0.0
  0
LINE
  5
F0E8
  8
0
 10
3655.0115537109440993
 20
157.0518393275079916
 30
0.0
 11
3655.021396424122031
 21
157.042358999447913
 31
0.0
  0
LINE
  5
F0E9
  8
0
 10
3655.0115537323440549
 20
157.0357136249064922
 30
0.0
 11
3655.0115537109440993
 21
157.0518393275079916
 31
0.0
  0
LINE
  5
F0EA
  8
0
 10
3654.991868689245166
 20
157.0385090561067898
 30
0.0
 11
3654.9918686678452104
 21
157.0546760083138906
 31
0.0
  0
LINE
  5
F0EB
  8
0
 10
3655.0213969733390513
 20
157.0715329946202132
 30
0.0
 11
3655.011554286874798
 21
157.0631542640718123
 31
0.0
  0
LINE
  5
F0EC
  8
0
 10
3655.011554286874798
 20
157.0631542640718123
 30
0.0
 11
3654.9918692435949197
 21
157.0660239980850008
 31
0.0
  0
LINE
  5
F0ED
  8
0
 10
3654.9918692435949197
 20
157.0660239980850008
 30
0.0
 11
3654.9820268898438371
 21
157.0773350313826029
 31
0.0
  0
LINE
  5
F0EE
  8
0
 10
3654.9820268898438371
 20
157.0773350313826029
 30
0.0
 11
3654.9918695792471226
 21
157.0857979453348037
 31
0.0
  0
LINE
  5
F0EF
  8
0
 10
3654.9918695792471226
 20
157.0857979453348037
 30
0.0
 11
3655.0115542606440613
 21
157.0828646649081008
 31
0.0
  0
LINE
  5
F0F0
  8
0
 10
3655.0115542606440613
 20
157.0828646649081008
 30
0.0
 11
3655.0213969733390513
 21
157.0715329946202132
 31
0.0
  0
LINE
  5
F0F1
  8
0
 10
3655.011554286874798
 20
157.0631542640718123
 30
0.0
 11
3655.0115542606440613
 21
157.0828646649081008
 31
0.0
  0
LINE
  5
F0F2
  8
0
 10
3654.9918692435949197
 20
157.0660239980850008
 30
0.0
 11
3654.9918695792471226
 21
157.0857979453348037
 31
0.0
  0
LINE
  5
F0F3
  8
0
 10
3655.0213975202791516
 20
157.1068465913438956
 30
0.0
 11
3655.0115548334370033
 21
157.0965617481747074
 31
0.0
  0
LINE
  5
F0F4
  8
0
 10
3655.0115548334370033
 20
157.0965617481747074
 30
0.0
 11
3654.9918697854650418
 21
157.099663336249904
 31
0.0
  0
LINE
  5
F0F5
  8
0
 10
3654.9918697854650418
 20
157.099663336249904
 30
0.0
 11
3654.9820274335220347
 21
157.1129013633425018
 31
0.0
  0
LINE
  5
F0F6
  8
0
 10
3654.9820274335220347
 20
157.1129013633425018
 30
0.0
 11
3654.9867977722287833
 21
157.1177896441263897
 31
0.0
  0
LINE
  5
F0F7
  8
0
 10
3655.0121163471958425
 20
157.1194193669867047
 30
0.0
 11
3655.0213975202791516
 21
157.1068465913438956
 31
0.0
  0
LINE
  5
F0F8
  8
0
 10
3655.0115548334370033
 20
157.0965617481747074
 30
0.0
 11
3655.0113846821650441
 21
157.1193781191637981
 31
0.0
  0
LINE
  5
F0F9
  8
0
 10
3654.9918697854650418
 20
157.099663336249904
 30
0.0
 11
3654.9918470451671055
 21
157.1181323077653929
 31
0.0
  0
LINE
  5
F0FA
  8
0
 10
3654.9935583944920836
 20
157.0922661761389065
 30
0.0
 11
3654.9837157056322212
 21
157.0834117597713089
 31
0.0
  0
LINE
  5
F0FB
  8
0
 10
3654.9837157056322212
 20
157.0834117597713089
 30
0.0
 11
3654.964030657100011
 21
157.0873414700612898
 31
0.0
  0
LINE
  5
F0FC
  8
0
 10
3654.964030657100011
 20
157.0873414700612898
 30
0.0
 11
3654.9541883052170306
 21
157.1002292936952074
 31
0.0
  0
LINE
  5
F0FD
  8
0
 10
3654.9541883052170306
 20
157.1002292936952074
 30
0.0
 11
3654.9640306321439311
 21
157.1092047790270101
 31
0.0
  0
LINE
  5
F0FE
  8
0
 10
3654.9640306321439311
 20
157.1092047790270101
 30
0.0
 11
3654.9837156768439854
 21
157.1051697889080003
 31
0.0
  0
LINE
  5
F0FF
  8
0
 10
3654.9837156768439854
 20
157.1051697889080003
 30
0.0
 11
3654.9935583944920836
 21
157.0922661761389065
 31
0.0
  0
LINE
  5
F100
  8
0
 10
3654.9837157056322212
 20
157.0834117597713089
 30
0.0
 11
3654.9837156768439854
 21
157.1051697889080003
 31
0.0
  0
LINE
  5
F101
  8
0
 10
3654.964030657100011
 20
157.0873414700612898
 30
0.0
 11
3654.9640306321439311
 21
157.1092047790270101
 31
0.0
  0
LINE
  5
F102
  8
0
 10
3654.9937689596008568
 20
157.0601221072697911
 30
0.0
 11
3654.9837151558599544
 21
157.0527849964458085
 31
0.0
  0
LINE
  5
F103
  8
0
 10
3654.9837151558599544
 20
157.0527849964458085
 30
0.0
 11
3654.9640301072790862
 21
157.056725961338401
 31
0.0
  0
LINE
  5
F104
  8
0
 10
3654.9640301072790862
 20
157.056725961338401
 30
0.0
 11
3654.9541877575829858
 21
157.0676455458612963
 31
0.0
  0
LINE
  5
F105
  8
0
 10
3654.9541877575829858
 20
157.0676455458612963
 30
0.0
 11
3654.9640300870451028
 21
157.0747521377925864
 31
0.0
  0
LINE
  5
F106
  8
0
 10
3654.9640300870451028
 20
157.0747521377925864
 30
0.0
 11
3654.9837151315450683
 21
157.0708777494079982
 31
0.0
  0
LINE
  5
F107
  8
0
 10
3654.9837151315450683
 20
157.0708777494079982
 30
0.0
 11
3654.9937689596008568
 21
157.0601221072697911
 31
0.0
  0
LINE
  5
F108
  8
0
 10
3654.9837151558599544
 20
157.0527849964458085
 30
0.0
 11
3654.9837151315450683
 21
157.0708777494079982
 31
0.0
  0
LINE
  5
F109
  8
0
 10
3654.9640301072790862
 20
157.056725961338401
 30
0.0
 11
3654.9640300870451028
 21
157.0747521377925864
 31
0.0
  0
LINE
  5
F10A
  8
0
 10
3655.0209112376442135
 20
157.0186092793288992
 30
0.0
 11
3655.0115438466450541
 21
157.0196198158573964
 31
0.0
  0
LINE
  5
F10B
  8
0
 10
3655.0115438466450541
 20
157.0196198158573964
 30
0.0
 11
3654.9910621406511382
 21
157.0225074402777068
 31
0.0
  0
LINE
  5
F10C
  8
0
 10
3654.9910621406511382
 20
157.0225074402777068
 30
0.0
 11
3654.9825103884109012
 21
157.0239270615361988
 31
0.0
  0
LINE
  5
F10D
  8
0
 10
3654.9825103884109012
 20
157.0239270615361988
 30
0.0
 11
3654.9918587942997874
 21
157.0294233760440079
 31
0.0
  0
LINE
  5
F10E
  8
0
 10
3654.9918587942997874
 20
157.0294233760440079
 30
0.0
 11
3655.0115438374000405
 21
157.0265866952381089
 31
0.0
  0
LINE
  5
F10F
  8
0
 10
3655.0115438374000405
 20
157.0265866952381089
 30
0.0
 11
3655.0209112376442135
 21
157.0186092793288992
 31
0.0
  0
LINE
  5
F110
  8
0
 10
3654.9934479995940819
 20
157.0336022226456976
 30
0.0
 11
3654.9837145972560393
 21
157.0281941683199136
 31
0.0
  0
LINE
  5
F111
  8
0
 10
3654.9837145972560393
 20
157.0281941683199136
 30
0.0
 11
3654.9640295528879506
 21
157.0319179895041088
 31
0.0
  0
LINE
  5
F112
  8
0
 10
3654.9640295528879506
 20
157.0319179895041088
 30
0.0
 11
3654.9541872020140545
 21
157.041054253667312
 31
0.0
  0
LINE
  5
F113
  8
0
 10
3654.9541872020140545
 20
157.041054253667312
 30
0.0
 11
3654.964029895576914
 21
157.0464449778984886
 31
0.0
  0
LINE
  5
F114
  8
0
 10
3654.964029895576914
 20
157.0464449778984886
 30
0.0
 11
3654.9837145780438732
 21
157.0426772010081038
 31
0.0
  0
LINE
  5
F115
  8
0
 10
3654.9837145780438732
 20
157.0426772010081038
 30
0.0
 11
3654.9934479995940819
 21
157.0336022226456976
 31
0.0
  0
LINE
  5
F116
  8
0
 10
3654.9837145972560393
 20
157.0281941683199136
 30
0.0
 11
3654.9837145780438732
 21
157.0426772010081038
 31
0.0
  0
LINE
  5
F117
  8
0
 10
3654.9640295528879506
 20
157.0319179895041088
 30
0.0
 11
3654.964029895576914
 21
157.0464449778984886
 31
0.0
  0
LINE
  5
F118
  8
0
 10
3654.9657187132020226
 20
157.0511263286340977
 30
0.0
 11
3654.955876020128926
 21
157.0453838592769102
 31
0.0
  0
LINE
  5
F119
  8
0
 10
3654.955876020128926
 20
157.0453838592769102
 30
0.0
 11
3654.9361910151919801
 21
157.0501338836475043
 31
0.0
  0
LINE
  5
F11A
  8
0
 10
3654.9361910151919801
 20
157.0501338836475043
 30
0.0
 11
3654.9263486218151229
 21
157.0606992796533063
 31
0.0
  0
LINE
  5
F11B
  8
0
 10
3654.9263486218151229
 20
157.0606992796533063
 30
0.0
 11
3654.9361913147399719
 21
157.0664784424454865
 31
0.0
  0
LINE
  5
F11C
  8
0
 10
3654.9361913147399719
 20
157.0664784424454865
 30
0.0
 11
3654.9557938098150771
 21
157.0616737147277036
 31
0.0
  0
LINE
  5
F11D
  8
0
 10
3654.9557938098150771
 20
157.0616737147277036
 30
0.0
 11
3654.9657187132020226
 21
157.0511263286340977
 31
0.0
  0
LINE
  5
F11E
  8
0
 10
3654.955876020128926
 20
157.0453838592769102
 30
0.0
 11
3654.9557938098150771
 21
157.0616737147277036
 31
0.0
  0
LINE
  5
F11F
  8
0
 10
3654.9361910151919801
 20
157.0501338836475043
 30
0.0
 11
3654.9361913147399719
 21
157.0664784424454865
 31
0.0
  0
LINE
  5
F120
  8
0
 10
3654.9657192650051911
 20
157.0805666643904033
 30
0.0
 11
3654.9558765743440745
 21
157.0730848958968977
 31
0.0
  0
LINE
  5
F121
  8
0
 10
3654.9558765743440745
 20
157.0730848958968977
 30
0.0
 11
3654.9361915250287893
 21
157.0779664167110923
 31
0.0
  0
LINE
  5
F122
  8
0
 10
3654.9361915250287893
 20
157.0779664167110923
 30
0.0
 11
3654.9263491732181137
 21
157.090440853457693
 31
0.0
  0
LINE
  5
F123
  8
0
 10
3654.9263491732181137
 20
157.090440853457693
 30
0.0
 11
3654.9361915019449043
 21
157.0980121949313002
 31
0.0
  0
LINE
  5
F124
  8
0
 10
3654.9361915019449043
 20
157.0980121949313002
 30
0.0
 11
3654.9558765479441718
 21
157.0930182116080971
 31
0.0
  0
LINE
  5
F125
  8
0
 10
3654.9558765479441718
 20
157.0930182116080971
 30
0.0
 11
3654.9657192650051911
 21
157.0805666643904033
 31
0.0
  0
LINE
  5
F126
  8
0
 10
3654.9558765743440745
 20
157.0730848958968977
 30
0.0
 11
3654.9558765479441718
 21
157.0930182116080971
 31
0.0
  0
LINE
  5
F127
  8
0
 10
3654.9361915250287893
 20
157.0779664167110923
 30
0.0
 11
3654.9361915019449043
 21
157.0980121949313002
 31
0.0
  0
LINE
  5
F128
  8
0
 10
3654.9378801289021794
 20
157.0716642631599882
 30
0.0
 11
3654.9280374392469639
 21
157.0655211584555104
 31
0.0
  0
LINE
  5
F129
  8
0
 10
3654.9280374392469639
 20
157.0655211584555104
 30
0.0
 11
3654.9083523922067798
 21
157.0713730975922999
 31
0.0
  0
LINE
  5
F12A
  8
0
 10
3654.9083523922067798
 20
157.0713730975922999
 30
0.0
 11
3654.898510037332926
 21
157.0834820757746115
 31
0.0
  0
LINE
  5
F12B
  8
0
 10
3654.898510037332926
 20
157.0834820757746115
 30
0.0
 11
3654.9083523679450991
 21
157.0896824753868941
 31
0.0
  0
LINE
  5
F12C
  8
0
 10
3654.9083523679450991
 20
157.0896824753868941
 30
0.0
 11
3654.9280374152440345
 21
157.083715725107993
 31
0.0
  0
LINE
  5
F12D
  8
0
 10
3654.9280374152440345
 20
157.083715725107993
 30
0.0
 11
3654.9378801289021794
 21
157.0716642631599882
 31
0.0
  0
LINE
  5
F12E
  8
0
 10
3654.9280374392469639
 20
157.0655211584555104
 30
0.0
 11
3654.9280374152440345
 21
157.083715725107993
 31
0.0
  0
LINE
  5
F12F
  8
0
 10
3654.9083523922067798
 20
157.0713730975922999
 30
0.0
 11
3654.9083523679450991
 21
157.0896824753868941
 31
0.0
  0
LINE
  5
F130
  8
0
 10
3654.9378795733800871
 20
157.0449734589527964
 30
0.0
 11
3654.9280368815511792
 21
157.0405243079258071
 31
0.0
  0
LINE
  5
F131
  8
0
 10
3654.9280368815511792
 20
157.0405243079258071
 30
0.0
 11
3654.9083518349211772
 21
157.0462472021235953
 31
0.0
  0
LINE
  5
F132
  8
0
 10
3654.9083518349211772
 20
157.0462472021235953
 30
0.0
 11
3654.8985094823560758
 21
157.0564900611146868
 31
0.0
  0
LINE
  5
F133
  8
0
 10
3654.8985094823560758
 20
157.0564900611146868
 30
0.0
 11
3654.9083518152438046
 21
157.0609489156842926
 31
0.0
  0
LINE
  5
F134
  8
0
 10
3654.9083518152438046
 20
157.0609489156842926
 30
0.0
 11
3654.927850273959848
 21
157.0552067593264951
 31
0.0
  0
LINE
  5
F135
  8
0
 10
3654.927850273959848
 20
157.0552067593264951
 30
0.0
 11
3654.9378795733800871
 21
157.0449734589527964
 31
0.0
  0
LINE
  5
F136
  8
0
 10
3654.9280368815511792
 20
157.0405243079258071
 30
0.0
 11
3654.927850273959848
 21
157.0552067593264951
 31
0.0
  0
LINE
  5
F137
  8
0
 10
3654.9083518349211772
 20
157.0462472021235953
 30
0.0
 11
3654.9083518152438046
 21
157.0609489156842926
 31
0.0
  0
LINE
  5
F138
  8
0
 10
3654.9100409948641754
 20
157.065521754119203
 30
0.0
 11
3654.9001983006310184
 21
157.0607046906206108
 31
0.0
  0
LINE
  5
F139
  8
0
 10
3654.9001983006310184
 20
157.0607046906206108
 30
0.0
 11
3654.8805132521461019
 21
157.0675607736737902
 31
0.0
  0
LINE
  5
F13A
  8
0
 10
3654.8805132521461019
 20
157.0675607736737902
 30
0.0
 11
3654.8706708978352253
 21
157.0793461887502076
 31
0.0
  0
LINE
  5
F13B
  8
0
 10
3654.8706708978352253
 20
157.0793461887502076
 30
0.0
 11
3654.8805132301449703
 21
157.0841859623531889
 31
0.0
  0
LINE
  5
F13C
  8
0
 10
3654.8805132301449703
 20
157.0841859623531889
 30
0.0
 11
3654.9001982787440284
 21
157.0772173238080995
 31
0.0
  0
LINE
  5
F13D
  8
0
 10
3654.9001982787440284
 20
157.0772173238080995
 30
0.0
 11
3654.9100409948641754
 21
157.065521754119203
 31
0.0
  0
LINE
  5
F13E
  8
0
 10
3654.9001983006310184
 20
157.0607046906206108
 30
0.0
 11
3654.9001982787440284
 21
157.0772173238080995
 31
0.0
  0
LINE
  5
F13F
  8
0
 10
3654.8805132521461019
 20
157.0675607736737902
 30
0.0
 11
3654.8805132301449703
 21
157.0841859623531889
 31
0.0
  0
LINE
  5
F140
  8
0
 10
3654.9100415431798865
 20
157.0954193913393908
 30
0.0
 11
3654.9001988546929169
 21
157.0888384953458967
 31
0.0
  0
LINE
  5
F141
  8
0
 10
3654.9001988546929169
 20
157.0888384953458967
 30
0.0
 11
3654.880513802637779
 21
157.0958967878029
 31
0.0
  0
LINE
  5
F142
  8
0
 10
3654.880513802637779
 20
157.0958967878029
 30
0.0
 11
3654.8756980324828874
 21
157.1025492013808105
 31
0.0
  0
LINE
  5
F143
  8
0
 10
3654.9014429860148994
 20
157.1074102208476972
 30
0.0
 11
3654.9100415431798865
 21
157.0954193913393908
 31
0.0
  0
LINE
  5
F144
  8
0
 10
3654.9001988546929169
 20
157.0888384953458967
 30
0.0
 11
3654.9001988333470763
 21
157.1071940426571985
 31
0.0
  0
LINE
  5
F145
  8
0
 10
3654.880513802637779
 20
157.0958967878029
 30
0.0
 11
3654.8805137940798886
 21
157.1035207089767027
 31
0.0
  0
LINE
  5
F146
  8
0
 10
3654.8822024091191452
 20
157.0896379389899096
 30
0.0
 11
3654.8723597158141274
 21
157.0840783291627929
 31
0.0
  0
LINE
  5
F147
  8
0
 10
3654.8723597158141274
 20
157.0840783291627929
 30
0.0
 11
3654.8526746653337796
 21
157.0921813709832122
 31
0.0
  0
LINE
  5
F148
  8
0
 10
3654.8526746653337796
 20
157.0921813709832122
 30
0.0
 11
3654.8494951317297819
 21
157.0964391527552948
 31
0.0
  0
LINE
  5
F149
  8
0
 10
3654.8494951317297819
 20
157.0964391527552948
 30
0.0
 11
3654.8497777975258032
 21
157.0971179503137023
 31
0.0
  0
LINE
  5
F14A
  8
0
 10
3654.872851724307111
 20
157.1019614478277049
 30
0.0
 11
3654.8822024091191452
 21
157.0896379389899096
 31
0.0
  0
LINE
  5
F14B
  8
0
 10
3654.8723597158141274
 20
157.0840783291627929
 30
0.0
 11
3654.8727807968589332
 21
157.1019466727009046
 31
0.0
  0
LINE
  5
F14C
  8
0
 10
3654.8526746653337796
 20
157.0921813709832122
 30
0.0
 11
3654.8526746579527753
 21
157.097776622569711
 31
0.0
  0
LINE
  5
F14D
  8
0
 10
3654.9378806763288594
 20
157.1044009910592933
 30
0.0
 11
3654.9280379891438315
 21
157.096435314008005
 31
0.0
  0
LINE
  5
F14E
  8
0
 10
3654.9280379891438315
 20
157.096435314008005
 30
0.0
 11
3654.9083529417439422
 21
157.1024917652079864
 31
0.0
  0
LINE
  5
F14F
  8
0
 10
3654.9083529417439422
 20
157.1024917652079864
 30
0.0
 11
3654.904619602395087
 21
157.1079535969344931
 31
0.0
  0
LINE
  5
F150
  8
0
 10
3654.9323701460398297
 20
157.1121794616028069
 30
0.0
 11
3654.9378806763288594
 21
157.1044009910592933
 31
0.0
  0
LINE
  5
F151
  8
0
 10
3654.9280379891438315
 20
157.096435314008005
 30
0.0
 11
3654.9280379718788936
 21
157.1115810448100945
 31
0.0
  0
LINE
  5
F152
  8
0
 10
3654.9083529417439422
 20
157.1024917652079864
 30
0.0
 11
3654.9083529337190157
 21
157.1085764700042091
 31
0.0
  0
LINE
  5
F153
  8
0
 10
3654.9652335268438037
 20
157.0271849851079935
 30
0.0
 11
3654.9558758033917911
 21
157.0361763847577095
 31
0.0
  0
LINE
  5
F154
  8
0
 10
3654.9558758033917911
 20
157.0361763847577095
 30
0.0
 11
3654.9361907578440878
 21
157.040890546707999
 31
0.0
  0
LINE
  5
F155
  8
0
 10
3654.9361907578440878
 20
157.040890546707999
 30
0.0
 11
3654.9268326721439735
 21
157.0367890566080007
 31
0.0
  0
ARC
  5
F156
  8
0
 10
3655.0305106396131123
 20
157.3697614459624958
 30
0.0
 40
0.3487402084802368
 50
252.7049227688980864
 51
259.211755528652418
  0
LINE
  5
F157
  8
0
 10
3654.9095558088338294
 20
157.0413445179507903
 30
0.0
 11
3654.9001980839238968
 21
157.0513791355733133
 31
0.0
  0
LINE
  5
F158
  8
0
 10
3654.9001980839238968
 20
157.0513791355733133
 30
0.0
 11
3654.8805130356017798
 21
157.058180172817913
 31
0.0
  0
LINE
  5
F159
  8
0
 10
3654.8805130356017798
 20
157.058180172817913
 30
0.0
 11
3654.8711549486438344
 21
157.0550541914080043
 31
0.0
  0
ARC
  5
F15A
  8
0
 10
3655.0095685762480571
 20
157.3821160836976958
 30
0.0
 40
0.3551447784980088
 50
247.0617648939133915
 51
253.6436068931004115
  0
LINE
  5
F15B
  8
0
 10
3654.8823468022119414
 20
157.0619732301985039
 30
0.0
 11
3654.8723591582129302
 21
157.0586625149134932
 31
0.0
  0
LINE
  5
F15C
  8
0
 10
3654.8723591582129302
 20
157.0586625149134932
 30
0.0
 11
3654.8528190561851261
 21
157.0665120692144967
 31
0.0
  0
LINE
  5
F15D
  8
0
 10
3654.8528190561851261
 20
157.0665120692144967
 30
0.0
 11
3654.8428317544080528
 21
157.0780730482250078
 31
0.0
  0
LINE
  5
F15E
  8
0
 10
3654.8428317544080528
 20
157.0780730482250078
 30
0.0
 11
3654.853122938866818
 21
157.0813482219867865
 31
0.0
  0
LINE
  5
F15F
  8
0
 10
3654.853122938866818
 20
157.0813482219867865
 30
0.0
 11
3654.8725040860908848
 21
157.0736687998872867
 31
0.0
  0
LINE
  5
F160
  8
0
 10
3654.8725040860908848
 20
157.0736687998872867
 30
0.0
 11
3654.8823468022119414
 21
157.0619732301985039
 31
0.0
  0
LINE
  5
F161
  8
0
 10
3654.8723591582129302
 20
157.0586625149134932
 30
0.0
 11
3654.8725040860908848
 21
157.0736687998872867
 31
0.0
  0
LINE
  5
F162
  8
0
 10
3654.8528190561851261
 20
157.0665120692144967
 30
0.0
 11
3654.853122938866818
 21
157.0813482219867865
 31
0.0
  0
LINE
  5
F163
  8
0
 10
3654.854508213437839
 20
157.0858487516593129
 30
0.0
 11
3654.8446655204779745
 21
157.0822361384743999
 31
0.0
  0
LINE
  5
F164
  8
0
 10
3654.8446655204779745
 20
157.0822361384743999
 30
0.0
 11
3654.827725060110879
 21
157.0899862539097001
 31
0.0
  0
LINE
  5
F165
  8
0
 10
3654.827725060110879
 20
157.0899862539097001
 30
0.0
 11
3654.8272631157487922
 21
157.0903417672012097
 31
0.0
  0
LINE
  5
F166
  8
0
 10
3654.8465878254878589
 20
157.0963379641912923
 30
0.0
 11
3654.854508213437839
 21
157.0858487516593129
 31
0.0
  0
LINE
  5
F167
  8
0
 10
3654.8446655204779745
 20
157.0822361384743999
 30
0.0
 11
3654.8446655038969766
 21
157.0958399752973094
 31
0.0
  0
LINE
  5
F168
  8
0
 10
3654.827725060110879
 20
157.0899862539097001
 30
0.0
 11
3654.8276322448909923
 21
157.0904775077983118
 31
0.0
  0
LINE
  5
F169
  8
0
 10
3654.8543627099438709
 20
157.0615857645080098
 30
0.0
 11
3654.8414505208111223
 21
157.0668359431826957
 31
0.0
  0
LINE
  5
F16A
  8
0
 10
3654.8368817925629628
 20
157.0628700650663063
 30
0.0
 11
3654.824834960843873
 21
157.0685029355063023
 31
0.0
  0
LINE
  5
F16B
  8
0
 10
3654.824834960843873
 20
157.0685029355063023
 30
0.0
 11
3654.8145145079661233
 21
157.0796003644825873
 31
0.0
  0
LINE
  5
F16C
  8
0
 10
3654.8145145079661233
 20
157.0796003644825873
 30
0.0
 11
3654.8248078744568375
 21
157.0818040263002047
 31
0.0
  0
LINE
  5
F16D
  8
0
 10
3654.8248078744568375
 20
157.0818040263002047
 30
0.0
 11
3654.8441640766482124
 21
157.0728391638753862
 31
0.0
  0
LINE
  5
F16E
  8
0
 10
3654.8441640766482124
 20
157.0728391638753862
 30
0.0
 11
3654.8543627099438709
 21
157.0615857645080098
 31
0.0
  0
LINE
  5
F16F
  8
0
 10
3654.8414505208111223
 20
157.0668359431826957
 30
0.0
 11
3654.8441640766482124
 21
157.0728391638753862
 31
0.0
  0
LINE
  5
F170
  8
0
 10
3654.824834960843873
 20
157.0685029355063023
 30
0.0
 11
3654.8248078744568375
 21
157.0818040263002047
 31
0.0
  0
LINE
  5
F171
  8
0
 10
3654.8368817925629628
 20
157.0628700650663063
 30
0.0
 11
3654.8414505208111223
 21
157.0668359431826957
 31
0.0
  0
ARC
  5
F172
  8
0
 10
3655.0755797790961878
 20
158.0135032366430039
 30
0.0
 40
1.0403966301012031
 50
257.9244921932120178
 51
270.5278538394949237
  0
ARC
  5
F173
  8
0
 10
3654.8881751073918167
 20
157.1724935559936966
 30
0.0
 40
0.1789407248075816
 50
231.4481794782830093
 51
260.2683962849840213
  0
ARC
  5
F174
  8
0
 10
3654.7916671824559671
 20
157.0474302628201997
 30
0.0
 40
0.0211344226546186
 50
132.9191668307805969
 51
224.7401799966563942
  0
ARC
  5
F175
  8
0
 10
3654.8939391216881631
 20
156.9095946918934033
 30
0.0
 40
0.1926530430604032
 50
99.8104965223793528
 51
127.2694425549010049
  0
ARC
  5
F176
  8
0
 10
3655.0472284146590027
 20
156.2646949869055959
 30
0.0
 40
0.8552323407841708
 50
93.6272381541408834
 51
102.5692678876617947
  0
ARC
  5
F177
  8
0
 10
3655.0847590589410174
 20
155.8243534511045141
 30
0.0
 40
1.2971016498522261
 50
89.9820865285122267
 51
94.0511740480102247
  0
ARC
  5
F178
  8
0
 10
3655.1321931493262127
 20
160.0342304093209975
 30
0.0
 40
3.0658850496947139
 50
267.6403220509039897
 51
269.1210879642629266
  0
ARC
  5
F179
  8
0
 10
3655.0713508427938905
 20
158.1236873484446903
 30
0.0
 40
1.154595313513886
 50
261.3227812359260724
 51
266.7534472730719131
  0
ARC
  5
F17A
  8
0
 10
3654.9720482594339046
 20
157.4967128203516893
 30
0.0
 40
0.5198279048003794
 50
250.8968577516380947
 51
261.71690134943168
  0
ARC
  5
F17B
  8
0
 10
3654.8363357216458098
 20
157.1161437729934107
 30
0.0
 40
0.1158606066960434
 50
228.0391073223167098
 51
252.7220828697452077
  0
ARC
  5
F17C
  8
0
 10
3654.7748805364881264
 20
157.0475004985435987
 30
0.0
 40
0.0237278392109242
 50
189.5025132494907041
 51
227.5601998373093124
  0
ARC
  5
F17D
  8
0
 10
3654.7776848046510167
 20
157.0469177552512008
 30
0.0
 40
0.0264178113244191
 50
120.4500972578234013
 51
187.2513243316863907
  0
ARC
  5
F17E
  8
0
 10
3654.8880348451812097
 20
156.8785375445391992
 30
0.0
 40
0.2277083658775007
 50
101.0750631847113965
 51
122.9158535612904046
  0
ARC
  5
F17F
  8
0
 10
3655.038477298208818
 20
156.2559004949069958
 30
0.0
 40
0.8681016878114101
 50
94.3060202703673411
 51
102.9257486097000935
  0
ARC
  5
F180
  8
0
 10
3655.0840913151851055
 20
155.7695838657679985
 30
0.0
 40
1.3565000906275
 50
89.9519463098984744
 51
94.684935575993066
  0
ARC
  5
F181
  8
0
 10
3654.8193523390091286
 20
157.103220618007299
 30
0.0
 40
0.0949792144210657
 50
215.2185199842350016
 51
230.4456452733145113
  0
ARC
  5
F182
  8
0
 10
3654.7902437930670203
 20
157.082672703471502
 30
0.0
 40
0.0593488307762752
 50
180.2999229410239082
 51
215.218519984233609
  0
LINE
  5
F183
  8
0
 10
3654.7308957754112271
 20
157.0823620349592034
 30
0.0
 11
3654.7308956198448868
 21
157.1998244119876915
 31
0.0
  0
ARC
  5
F184
  8
0
 10
3654.759595224964869
 20
157.1976509769158952
 30
0.0
 40
0.0287817851093813
 50
129.411208375832814
 51
175.669229235968686
  0
ARC
  5
F185
  8
0
 10
3654.8876085565789253
 20
156.9991477926407129
 30
0.0
 40
0.2648130700366533
 50
111.0039425821705947
 51
123.5327587544290964
  0
ARC
  5
F186
  8
0
 10
3655.0255320756459696
 20
156.7330107156901988
 30
0.0
 40
0.0439522006741839
 50
238.3859595311951978
 51
260.3202585222405787
  0
ARC
  5
F187
  8
0
 10
3655.0044858050810035
 20
156.6949256085939908
 30
0.0
 40
0.0020982474267462
 50
100.9725542897832042
 51
161.7964704014796951
  0
ARC
  5
F188
  8
0
 10
3655.0149932719309618
 20
156.6609795458670078
 30
0.0
 40
0.0376216396056522
 50
94.2329681161631214
 51
106.8524965105285958
  0
ARC
  5
F189
  8
0
 10
3655.0727368135521829
 20
155.5294338400350114
 30
0.0
 40
1.170630192290504
 50
89.3917183281759407
 51
92.9634586268789747
  0
ARC
  5
F18A
  8
0
 10
3655.0753636121071395
 20
156.9924934072377027
 30
0.0
 40
0.3081682985290647
 50
259.2990290091075281
 51
266.6674594593471284
  0
ARC
  5
F18B
  8
0
 10
3655.08609834891422
 20
157.1768456653128112
 30
0.0
 40
0.4928328312138972
 50
266.6674594593471284
 51
269.8914437138146241
  0
ARC
  5
F18C
  8
0
 10
3654.7891915938689635
 20
157.2600014468881113
 30
0.0
 40
0.091409197919339
 50
215.2670423810720024
 51
230.3759613756593012
  0
ARC
  5
F18D
  8
0
 10
3654.7339705221747863
 20
157.2190789618871918
 30
0.0
 40
0.0227460830725246
 50
155.7552404681756002
 51
211.4152499310933138
  0
ARC
  5
F18E
  8
0
 10
3654.7863490888389606
 20
157.3783165720946045
 30
0.0
 40
0.2323533591820192
 50
232.8158382615852133
 51
256.1925457453767763
  0
ARC
  5
F18F
  8
0
 10
3654.6660887038929104
 20
157.2191522997115101
 30
0.0
 40
0.0328670665929189
 50
212.5235931963499922
 51
232.1456464562224937
  0
ARC
  5
F190
  8
0
 10
3654.7884843104648098
 20
157.363884852249214
 30
0.0
 40
0.2905166141652955
 50
233.5724579580769955
 51
258.5879915231603832
  0
ARC
  5
F191
  8
0
 10
3654.6327316321571743
 20
157.1573931593252098
 30
0.0
 40
0.0319992694738154
 50
141.5224930743586071
 51
238.4197891890098902
  0
ARC
  5
F192
  8
0
 10
3654.718103458906171
 20
157.0686901763594108
 30
0.0
 40
0.1548869117049131
 50
104.3198924260441061
 51
135.4732878631789958
  0
ARC
  5
F193
  8
0
 10
3654.9699741036811247
 20
156.2765256901290911
 30
0.0
 40
0.9859100686501188
 50
95.6283609673130144
 51
107.1171682731764037
  0
ARC
  5
F194
  8
0
 10
3655.0835593497458831
 20
155.3481734178598117
 30
0.0
 40
1.9210525144809709
 50
89.9521231842259255
 51
96.2842022288523935
  0
ARC
  5
F195
  8
0
 10
3656.5313415117871045
 20
158.9013108402959062
 30
0.0
 40
2.6095974334783811
 50
210.3502852320426939
 51
222.4596748699295006
  0
ARC
  5
F196
  8
0
 10
3655.3509768540789082
 20
157.103220618007299
 30
0.0
 40
0.0949792144210657
 50
309.554354726685574
 51
324.7814800157651121
  0
ARC
  5
F197
  8
0
 10
3655.380085400021926
 20
157.082672703471502
 30
0.0
 40
0.0593488307762791
 50
324.7814800157677269
 51
359.70007705884899
  0
LINE
  5
F198
  8
0
 10
3655.4394334176768098
 20
157.0823620349590044
 30
0.0
 11
3655.43943357324315
 21
157.1998244119876915
 31
0.0
  0
ARC
  5
F199
  8
0
 10
3655.4107339681231679
 20
157.1976509769158952
 30
0.0
 40
0.0287817851093813
 50
4.3307707640312598
 51
50.5887916241671292
  0
ARC
  5
F19A
  8
0
 10
3655.282720636510021
 20
156.9991477926407129
 30
0.0
 40
0.2648130700366533
 50
56.4672412455708894
 51
68.9833030519557724
  0
ARC
  5
F19B
  8
0
 10
3655.1447971174420672
 20
156.7330107156901988
 30
0.0
 40
0.0439522006741839
 50
279.6797414777594213
 51
301.6140404688047738
  0
ARC
  5
F19C
  8
0
 10
3655.1658433880079428
 20
156.6949256085939908
 30
0.0
 40
0.0020982474267462
 50
18.2035295985202517
 51
79.0274457102167673
  0
ARC
  5
F19D
  8
0
 10
3655.1553359211579846
 20
156.6609795458670078
 30
0.0
 40
0.0376216396056522
 50
73.1475034894713474
 51
85.7670318838368644
  0
ARC
  5
F19E
  8
0
 10
3655.0975923795372182
 20
155.5294338400350114
 30
0.0
 40
1.170630192290504
 50
87.0365413731210253
 51
90.6082816718240736
  0
ARC
  5
F19F
  8
0
 10
3655.0949655809818069
 20
156.9924934072377027
 30
0.0
 40
0.3081682985290647
 50
273.3325405406528716
 51
280.7009709908924719
  0
ARC
  5
F1A0
  8
0
 10
3655.0842308441751811
 20
157.1768456653128112
 30
0.0
 40
0.4928328312138972
 50
270.1085562861853191
 51
273.3325405406528716
  0
ARC
  5
F1A1
  8
0
 10
3655.3811375992199828
 20
157.2600014468881113
 30
0.0
 40
0.091409197919339
 50
309.6240386243405851
 51
324.732957618928026
  0
ARC
  5
F1A2
  8
0
 10
3655.43635867091416
 20
157.2190789618871918
 30
0.0
 40
0.0227460830725246
 50
328.5847500689067147
 51
24.2235281916521998
  0
ARC
  5
F1A3
  8
0
 10
3655.3839801042490762
 20
157.3783165720946045
 30
0.0
 40
0.2323533591820192
 50
283.8074542546232237
 51
307.1841617384147867
  0
ARC
  5
F1A4
  8
0
 10
3655.5042404891951264
 20
157.2191522997115101
 30
0.0
 40
0.0328670665929189
 50
307.8543535437773926
 51
327.4764068036499793
  0
ARC
  5
F1A5
  8
0
 10
3655.3818448826241365
 20
157.363884852249214
 30
0.0
 40
0.2905166141652955
 50
281.4120084768396168
 51
306.4275420419228908
  0
ARC
  5
F1A6
  8
0
 10
3655.5375975609322268
 20
157.1573931593252098
 30
0.0
 40
0.0319992694738154
 50
301.5802108109900814
 51
38.4775069256414284
  0
ARC
  5
F1A7
  8
0
 10
3655.4522257341818658
 20
157.0686901763594108
 30
0.0
 40
0.1548869117049131
 50
44.5267121368209828
 51
75.6801075739558229
  0
ARC
  5
F1A8
  8
0
 10
3655.1999126434930076
 20
156.2743260069240989
 30
0.0
 40
0.9881425657604612
 50
72.8958534919898966
 51
84.3586172675268671
  0
ARC
  5
F1A9
  8
0
 10
3655.0867698433421538
 20
155.3481734178598117
 30
0.0
 40
1.92105251448097
 50
83.7157977711476207
 51
90.0478768157740745
  0
ARC
  5
F1AA
  8
0
 10
3653.6389876813018418
 20
158.9013108402959062
 30
0.0
 40
2.6095974334783811
 50
317.5403251300705278
 51
329.6497147679572208
  0
ARC
  5
F1AB
  8
0
 10
3654.9672583533370016
 20
157.6912675404381048
 30
0.0
 40
1.0773647176005241
 50
285.2602126106302762
 51
308.8307437151312911
  0
ARC
  5
F1AC
  8
0
 10
3654.7657335909798348
 20
157.9413670435473875
 30
0.0
 40
1.39855308751645
 50
308.8377186388618156
 51
345.1409798309122152
  0
LINE
  5
F1AD
  8
0
 10
3656.1175187023941362
 20
157.5827199312508924
 30
0.0
 11
3656.1147033648940123
 21
157.8143310623507887
 31
0.0
  0
ARC
  5
F1AE
  8
0
 10
3656.0910615077477814
 20
157.8140829540195966
 30
0.0
 40
0.023643158991038
 50
0.6012657261834073
 51
86.3165755682811806
  0
LINE
  5
F1AF
  8
0
 10
3654.0528033851901455
 20
157.582719925250899
 30
0.0
 11
3656.1175187008020657
 21
157.582719925250899
 31
0.0
  0
LINE
  5
F1B0
  8
0
 10
3654.0777416563500992
 20
157.8376772720509109
 30
0.0
 11
3656.0925804296412025
 21
157.8376772720509109
 31
0.0
  0
ARC
  5
F1B1
  8
0
 10
3653.4631120892750005
 20
156.0603436676859985
 30
0.0
 40
0.314958114235841
 50
179.9994752530969038
 51
270.0001220415337002
  0
ARC
  5
F1B2
  8
0
 10
3653.4631170740949528
 20
158.5800287535975883
 30
0.0
 40
0.3149630990547862
 50
90.000180866715084
 51
179.9994837221505009
  0
LINE
  5
F1B3
  8
0
 10
3653.1481539750520824
 20
156.0603465522492002
 30
0.0
 11
3653.1481539750520824
 21
158.5800315916509078
 31
0.0
  0
ARC
  5
F1B4
  8
0
 10
3660.7072116073131838
 20
156.0603436676859985
 30
0.0
 40
0.3149581142358428
 50
269.9998779584662998
 51
0.0005247469030832
  0
ARC
  5
F1B5
  8
0
 10
3660.7089931449199867
 20
158.5818152864816
 30
0.0
 40
0.3131816560854659
 50
0.3263241517270649
 51
90.3266595628615363
  0
LINE
  5
F1B6
  8
0
 10
3661.0221697215361019
 20
156.0603465522492002
 30
0.0
 11
3661.0221697215361019
 21
158.5835989813122922
 31
0.0
  0
LINE
  5
F1B7
  8
0
 10
3653.4631127601451226
 20
155.7453855534508875
 30
0.0
 11
3658.1999133155341042
 21
155.7453855534508875
 31
0.0
  0
LINE
  5
F1B8
  8
0
 10
3659.9797464976231822
 20
155.7453855534508875
 30
0.0
 11
3660.7072116077079045
 21
155.7453855534508875
 31
0.0
  0
LINE
  5
F1B9
  8
0
 10
3653.4631160798439851
 20
158.8949918526508895
 30
0.0
 11
3660.7072076167441992
 21
158.8949918526508895
 31
0.0
  0
LINE
  5
F1BB
  8
0
 10
3655.0932573451441385
 20
156.9761814419080963
 30
0.0
 11
3655.0997385166720051
 21
156.9753310586928876
 31
0.0
  0
LINE
  5
F1BC
  8
0
 10
3655.0997385166720051
 20
156.9753310586928876
 30
0.0
 11
3655.1030999268418782
 21
156.9750027850519132
 31
0.0
  0
LINE
  5
F1BD
  8
0
 10
3655.1030999268418782
 20
156.9750027850519132
 30
0.0
 11
3655.1227850847440095
 21
156.975919304508011
 31
0.0
  0
LINE
  5
F1BE
  8
0
 10
3655.1227850847440095
 20
156.975919304508011
 30
0.0
 11
3655.1326274262460174
 21
156.9780067964167074
 31
0.0
  0
LINE
  5
F1BF
  8
0
 10
3655.1326274262460174
 20
156.9780067964167074
 30
0.0
 11
3655.1227883624160313
 21
156.9773891779684902
 31
0.0
  0
LINE
  5
F1C0
  8
0
 10
3655.1227883624160313
 20
156.9773891779684902
 30
0.0
 11
3655.1031000461412077
 21
156.9764768453565864
 31
0.0
  0
LINE
  5
F1C1
  8
0
 10
3655.1031000461412077
 20
156.9764768453565864
 30
0.0
 11
3655.0932573451441385
 21
156.9761814419080963
 31
0.0
  0
LINE
  5
F1C2
  8
0
 10
3655.1210964895099096
 20
156.9751944694666008
 30
0.0
 11
3655.1309391894969849
 21
156.9751944567971975
 31
0.0
  0
LINE
  5
F1C3
  8
0
 10
3655.1309391894969849
 20
156.9751944567971975
 30
0.0
 11
3655.1506242314439987
 21
156.9771658537478913
 31
0.0
  0
LINE
  5
F1C4
  8
0
 10
3655.1506242314439987
 20
156.9771658537478913
 30
0.0
 11
3655.1604665724980805
 21
156.9788874014290059
 31
0.0
  0
LINE
  5
F1C5
  8
0
 10
3655.1604665724980805
 20
156.9788874014290059
 30
0.0
 11
3655.1506242336890864
 21
156.9788874142637098
 31
0.0
  0
LINE
  5
F1C6
  8
0
 10
3655.1506242336890864
 20
156.9788874142637098
 30
0.0
 11
3655.1309391917448011
 21
156.9769402290079938
 31
0.0
  0
LINE
  5
F1C7
  8
0
 10
3655.1309391917448011
 20
156.9769402290079938
 30
0.0
 11
3655.1210964895099096
 21
156.9751944694666008
 31
0.0
  0
LINE
  5
F1C8
  8
0
 10
3655.1489350489118806
 20
156.9795234179605927
 30
0.0
 11
3655.1587777491308771
 21
156.9792835726387921
 31
0.0
  0
LINE
  5
F1C9
  8
0
 10
3655.1587777491308771
 20
156.9792835726387921
 30
0.0
 11
3655.1784627922038453
 21
156.9820586677753056
 31
0.0
  0
LINE
  5
F1CA
  8
0
 10
3655.1784627922038453
 20
156.9820586677753056
 30
0.0
 11
3655.1880628212938973
 21
156.9850476360579989
 31
0.0
  0
LINE
  5
F1CB
  8
0
 10
3655.1880628212938973
 20
156.9850476360579989
 30
0.0
 11
3655.1489350489118806
 21
156.9795234179605927
 31
0.0
  0
LINE
  5
F1CC
  8
0
 10
3655.1767741961289175
 20
156.9811942261449076
 30
0.0
 11
3655.1866168898409342
 21
156.9822912270718973
 31
0.0
  0
LINE
  5
F1CD
  8
0
 10
3655.1866168898409342
 20
156.9822912270718973
 30
0.0
 11
3655.2063019425249877
 21
156.9860590052917075
 31
0.0
  0
LINE
  5
F1CE
  8
0
 10
3655.2063019425249877
 20
156.9860590052917075
 30
0.0
 11
3655.2161442848259867
 21
156.9886855662587948
 31
0.0
  0
LINE
  5
F1CF
  8
0
 10
3655.2161442848259867
 20
156.9886855662587948
 30
0.0
 11
3655.2063015826961418
 21
156.987566587198188
 31
0.0
  0
LINE
  5
F1D0
  8
0
 10
3655.2063015826961418
 20
156.987566587198188
 30
0.0
 11
3655.1866169002450988
 21
156.9838427661080118
 31
0.0
  0
LINE
  5
F1D1
  8
0
 10
3655.1866169002450988
 20
156.9838427661080118
 30
0.0
 11
3655.1767741961289175
 21
156.9811942261449076
 31
0.0
  0
LINE
  5
F1D2
  8
0
 10
3655.2046127595440339
 20
156.9881257424079877
 30
0.0
 11
3655.2144554611450076
 21
156.988882584007996
 31
0.0
  0
LINE
  5
F1D3
  8
0
 10
3655.2144554611450076
 20
156.988882584007996
 30
0.0
 11
3655.2341405067440974
 21
156.9935967460079951
 31
0.0
  0
LINE
  5
F1D4
  8
0
 10
3655.2341405067440974
 20
156.9935967460079951
 30
0.0
 11
3655.2439828507440325
 21
156.9975125403080085
 31
0.0
  0
LINE
  5
F1D5
  8
0
 10
3655.2439828507440325
 20
156.9975125403080085
 30
0.0
 11
3655.2046127595440339
 21
156.9881257424079877
 31
0.0
  0
LINE
  5
F1D6
  8
0
 10
3655.2324519108578897
 20
156.9926047736888961
 30
0.0
 11
3655.2422946139449778
 21
156.9947692498080016
 31
0.0
  0
LINE
  5
F1D7
  8
0
 10
3655.2422946139449778
 20
156.9947692498080016
 30
0.0
 11
3655.2619796610110825
 21
157.0005631196748084
 31
0.0
  0
LINE
  5
F1D8
  8
0
 10
3655.2619796610110825
 20
157.0005631196748084
 30
0.0
 11
3655.2718220038000254
 21
157.0041213734189114
 31
0.0
  0
LINE
  5
F1D9
  8
0
 10
3655.2718220038000254
 20
157.0041213734189114
 30
0.0
 11
3655.2619796627441247
 21
157.0018958000079863
 31
0.0
  0
LINE
  5
F1DA
  8
0
 10
3655.2619796627441247
 20
157.0018958000079863
 30
0.0
 11
3655.2422946158440027
 21
156.996172905608006
 31
0.0
  0
LINE
  5
F1DB
  8
0
 10
3655.2422946158440027
 20
156.996172905608006
 30
0.0
 11
3655.2324519108578897
 21
156.9926047736888961
 31
0.0
  0
LINE
  5
F1DC
  8
0
 10
3655.2602904775440038
 20
157.0022387722079884
 30
0.0
 11
3655.2994182605439164
 21
157.0157212617579887
 31
0.0
  0
LINE
  5
F1DD
  8
0
 10
3655.2994182605439164
 20
157.0157212617579887
 30
0.0
 11
3655.2898182290150544
 21
157.0108863720344914
 31
0.0
  0
LINE
  5
F1DE
  8
0
 10
3655.2898182290150544
 20
157.0108863720344914
 30
0.0
 11
3655.2701331805901646
 21
157.0040853348018004
 31
0.0
  0
LINE
  5
F1DF
  8
0
 10
3655.2701331805901646
 20
157.0040853348018004
 30
0.0
 11
3655.2602904775440038
 21
157.0022387722079884
 31
0.0
  0
LINE
  5
F1E0
  8
0
 10
3655.2881296326017946
 20
157.0097767711050096
 30
0.0
 11
3655.2979723376452057
 21
157.0131378047080091
 31
0.0
  0
LINE
  5
F1E1
  8
0
 10
3655.2979723376452057
 20
157.0131378047080091
 30
0.0
 11
3655.3178715051440122
 21
157.0212457778580131
 31
0.0
  0
LINE
  5
F1E2
  8
0
 10
3655.3178715051440122
 20
157.0212457778580131
 30
0.0
 11
3655.3274997322459967
 21
157.0257043607107903
 31
0.0
  0
LINE
  5
F1E3
  8
0
 10
3655.3274997322459967
 20
157.0257043607107903
 30
0.0
 11
3655.3176573891441876
 21
157.0223092466079891
 31
0.0
  0
LINE
  5
F1E4
  8
0
 10
3655.3176573891441876
 20
157.0223092466079891
 30
0.0
 11
3655.297972339144053
 21
157.0143111126079987
 31
0.0
  0
LINE
  5
F1E5
  8
0
 10
3655.297972339144053
 20
157.0143111126079987
 30
0.0
 11
3655.288129632611799
 21
157.0097767710817891
 31
0.0
  0
LINE
  5
F1E6
  8
0
 10
3655.3159682034229263
 20
157.0223092488884049
 30
0.0
 11
3655.325810906947936
 21
157.0253878937932086
 31
0.0
  0
LINE
  5
F1E7
  8
0
 10
3655.325810906947936
 20
157.0253878937932086
 30
0.0
 11
3655.345495959506934
 21
157.0345169825203868
 31
0.0
  0
LINE
  5
F1E8
  8
0
 10
3655.345495959506934
 20
157.0345169825203868
 30
0.0
 11
3655.3553383061598652
 21
157.0404760041070062
 31
0.0
  0
LINE
  5
F1E9
  8
0
 10
3655.3553383061598652
 20
157.0404760041070062
 30
0.0
 11
3655.345495601345192
 21
157.0372437050079952
 31
0.0
  0
LINE
  5
F1EA
  8
0
 10
3655.345495601345192
 20
157.0372437050079952
 30
0.0
 11
3655.3337890333450559
 21
157.0317654503080007
 31
0.0
  0
LINE
  5
F1EB
  8
0
 10
3655.3337890333450559
 20
157.0317654503080007
 30
0.0
 11
3655.3288803754521723
 21
157.0279541764909084
 31
0.0
  0
LINE
  5
F1EC
  8
0
 10
3655.3288803754521723
 20
157.0279541764909084
 30
0.0
 11
3655.3159682034438447
 21
157.0223092489079875
 31
0.0
  0
LINE
  5
F1ED
  8
0
 10
3655.0949465274438808
 20
156.9736163225697112
 30
0.0
 11
3655.1047888672492263
 21
156.9744326545207116
 31
0.0
  0
LINE
  5
F1EE
  8
0
 10
3655.1047888672492263
 20
156.9744326545207116
 30
0.0
 11
3655.0949716512500345
 21
156.9751046669177867
 31
0.0
  0
LINE
  5
F1EF
  8
0
 10
3655.0971934387189322
 20
156.9738026832829121
 30
0.0
 11
3655.1276500018429942
 21
156.975194461031009
 31
0.0
  0
LINE
  5
F1F0
  8
0
 10
3655.1532300548387866
 20
156.9776216446211947
 30
0.0
 11
3655.1828558022421021
 21
156.9818720413587982
 31
0.0
  0
ARC
  5
F1F1
  8
0
 10
3655.0855458896940036
 20
157.565328141580494
 30
0.0
 40
0.5916033071777747
 50
281.9902101458694119
 51
285.1768977898183266
  0
ARC
  5
F1F2
  8
0
 10
3655.0863191297808044
 20
157.5627134692520883
 30
0.0
 40
0.5888757290008724
 50
287.5378389982458884
 51
290.9396789320023231
  0
ARC
  5
F1F3
  8
0
 10
3655.2043694799749574
 20
157.316752768649593
 30
0.0
 40
0.3162898923954586
 50
291.810910286445619
 51
306.6235719216717825
  0
ARC
  5
F1F4
  8
0
 10
3655.0851518224130814
 20
157.5832901771887009
 30
0.0
 40
0.6031924506354959
 50
270.0012133835855934
 51
295.1387099651428798
  0
LINE
  5
F1F5
  8
0
 10
3655.3413946967962147
 20
157.0372309113288054
 30
0.0
 11
3655.341900047244053
 21
157.0383941665079988
 31
0.0
  0
LINE
  5
F1F6
  8
0
 10
3655.341900047244053
 20
157.0383941665079988
 30
0.0
 11
3655.3454953761402066
 21
157.0401023579250079
 31
0.0
  0
LINE
  5
F1F7
  8
0
 10
3655.3454953761402066
 20
157.0401023579250079
 30
0.0
 11
3655.3553372157430204
 21
157.047789009148488
 31
0.0
  0
LINE
  5
F1F8
  8
0
 10
3655.3553372157430204
 20
157.047789009148488
 30
0.0
 11
3655.3454953844448028
 21
157.0463757858080101
 31
0.0
  0
LINE
  5
F1F9
  8
0
 10
3655.3454953844448028
 20
157.0463757858080101
 30
0.0
 11
3655.3434772726168376
 21
157.0454167540048047
 31
0.0
  0
LINE
  5
F1FA
  8
0
 10
3655.3434772726168376
 20
157.0454167540048047
 30
0.0
 11
3655.3434770502440188
 21
157.0504916407080032
 31
0.0
  0
LINE
  5
F1FB
  8
0
 10
3655.3434770502440188
 20
157.0504916407080032
 30
0.0
 11
3655.3454948003809477
 21
157.0514506724796036
 31
0.0
  0
LINE
  5
F1FC
  8
0
 10
3655.3454948003809477
 20
157.0514506724796036
 30
0.0
 11
3655.3553371516682091
 21
157.0608813216935005
 31
0.0
  0
LINE
  5
F1FD
  8
0
 10
3655.3553371516682091
 20
157.0608813216935005
 30
0.0
 11
3655.3454948133448852
 21
157.0612118150079937
 31
0.0
  0
LINE
  5
F1FE
  8
0
 10
3655.3454948133448852
 20
157.0612118150079937
 30
0.0
 11
3655.3418991226708386
 21
157.0595036236209125
 31
0.0
  0
LINE
  5
F1FF
  8
0
 10
3655.3418991226708386
 20
157.0595036236209125
 30
0.0
 11
3655.3413936426500186
 21
157.0613005765063974
 31
0.0
  0
LINE
  5
F200
  8
0
 10
3655.3413946968698838
 20
157.0372309113635936
 30
0.0
 11
3655.324903010844082
 21
157.0470972438812112
 31
0.0
  0
LINE
  5
F201
  8
0
 10
3655.324903010844082
 20
157.0470972438812112
 30
0.0
 11
3655.3200811748820342
 21
157.0517781247625066
 31
0.0
  0
LINE
  5
F202
  8
0
 10
3655.341900047244053
 20
157.0383941665079988
 30
0.0
 11
3655.3258103473440315
 21
157.0480577385073104
 31
0.0
  0
LINE
  5
F203
  8
0
 10
3655.3258103473440315
 20
157.0480577385073104
 30
0.0
 11
3655.3214125784411408
 21
157.0523425904007127
 31
0.0
  0
ARC
  5
F204
  8
0
 10
3655.0855796980408741
 20
157.6061071582660134
 30
0.0
 40
0.6018762212690315
 50
281.5191197936129015
 51
295.1524039659900041
  0
ARC
  5
F205
  8
0
 10
3655.0850009503678848
 20
157.608946943004895
 30
0.0
 40
0.6047743803800572
 50
270.010255073910912
 51
281.5191197936129015
  0
LINE
  5
F206
  8
0
 10
3655.2907257852580187
 20
157.040271432433002
 30
0.0
 11
3655.2907257910051158
 21
157.0353601826087981
 31
0.0
  0
LINE
  5
F207
  8
0
 10
3655.2907257910051158
 20
157.0353601826087981
 30
0.0
 11
3655.3249029952439741
 21
157.0353602226080056
 31
0.0
  0
LINE
  5
F208
  8
0
 10
3655.3249029952439741
 20
157.0353602226080056
 30
0.0
 11
3655.324903010844082
 21
157.0470972438812112
 31
0.0
  0
LINE
  5
F209
  8
0
 10
3655.317656815645023
 20
157.0353602141275076
 30
0.0
 11
3655.3176560163610702
 21
157.0507734133844053
 31
0.0
  0
LINE
  5
F20A
  8
0
 10
3655.2979717762441396
 20
157.0353601910080101
 30
0.0
 11
3655.2979718429342029
 21
157.042951262872009
 31
0.0
  0
LINE
  5
F20B
  8
0
 10
3655.3434772725399853
 20
157.0454167539685102
 30
0.0
 11
3655.3276075464677888
 21
157.0550377376706024
 31
0.0
  0
LINE
  5
F20C
  8
0
 10
3655.3434770502440188
 20
157.0504916407080032
 30
0.0
 11
3655.3325228496009913
 21
157.0572227755160952
 31
0.0
  0
LINE
  5
F20D
  8
0
 10
3655.0949465274438808
 20
156.9736163225697112
 30
0.0
 11
3655.0949716512500345
 21
156.9751046669177867
 31
0.0
  0
LINE
  5
F20E
  8
0
 10
3655.1030999268418782
 20
156.9750027850519132
 30
0.0
 11
3655.1030317672962155
 21
156.9764736813980051
 31
0.0
  0
LINE
  5
F20F
  8
0
 10
3655.1227850847440095
 20
156.975919304508011
 30
0.0
 11
3655.1227883624160313
 21
156.9773891779684902
 31
0.0
  0
LINE
  5
F210
  8
0
 10
3655.1309391894969849
 20
156.9751944567971975
 30
0.0
 11
3655.1309391917448011
 21
156.9769402290079938
 31
0.0
  0
LINE
  5
F211
  8
0
 10
3655.1506242314439987
 20
156.9771658537478913
 30
0.0
 11
3655.1506242336890864
 21
156.9788874142637098
 31
0.0
  0
LINE
  5
F212
  8
0
 10
3655.1587777491308771
 20
156.9792835726387921
 30
0.0
 11
3655.1585521889078336
 21
156.9808812049128051
 31
0.0
  0
LINE
  5
F213
  8
0
 10
3655.1784627922038453
 20
156.9820586677753056
 30
0.0
 11
3655.1782366617621847
 21
156.9836603388772005
 31
0.0
  0
LINE
  5
F214
  8
0
 10
3655.1866168898409342
 20
156.9822912270718973
 30
0.0
 11
3655.1866169002450988
 21
156.9838427661080118
 31
0.0
  0
LINE
  5
F215
  8
0
 10
3655.2063019425249877
 20
156.9860590052917075
 30
0.0
 11
3655.2063015826961418
 21
156.987566587198188
 31
0.0
  0
LINE
  5
F216
  8
0
 10
3655.2144554611450076
 20
156.988882584007996
 30
0.0
 11
3655.2140967794871358
 21
156.9903869659856923
 31
0.0
  0
LINE
  5
F217
  8
0
 10
3655.2341405067440974
 20
156.9935967460079951
 30
0.0
 11
3655.2337865092308675
 21
156.9950814817511002
 31
0.0
  0
LINE
  5
F218
  8
0
 10
3655.2422946139449778
 20
156.9947692498080016
 30
0.0
 11
3655.2422946158440027
 21
156.996172905608006
 31
0.0
  0
LINE
  5
F219
  8
0
 10
3655.2619796610110825
 20
157.0005631196748084
 30
0.0
 11
3655.2619796627441247
 21
157.0018958000079863
 31
0.0
  0
LINE
  5
F21A
  8
0
 10
3655.2701331805901646
 20
157.0040853348018004
 30
0.0
 11
3655.2696573134171558
 21
157.0054663577516862
 31
0.0
  0
LINE
  5
F21B
  8
0
 10
3655.2898182290150544
 20
157.0108863720344914
 30
0.0
 11
3655.2893479197118722
 21
157.0122512653863112
 31
0.0
  0
LINE
  5
F21C
  8
0
 10
3655.2979723376452057
 20
157.0131378047080091
 30
0.0
 11
3655.297972339144053
 21
157.0143111126079987
 31
0.0
  0
LINE
  5
F21D
  8
0
 10
3655.3178715051440122
 20
157.0212457778580131
 30
0.0
 11
3655.3176573891441876
 21
157.0223092466079891
 31
0.0
  0
LINE
  5
F21E
  8
0
 10
3655.325810906947936
 20
157.0253878937932086
 30
0.0
 11
3655.3257886220148976
 21
157.0266025275008133
 31
0.0
  0
LINE
  5
F21F
  8
0
 10
3655.345495959506934
 20
157.0345169825203868
 30
0.0
 11
3655.345495601345192
 21
157.0372437050079952
 31
0.0
  0
LINE
  5
F220
  8
0
 10
3655.3454953761402066
 20
157.0401023579250079
 30
0.0
 11
3655.3454953844448028
 21
157.0463757858080101
 31
0.0
  0
LINE
  5
F221
  8
0
 10
3655.3454948003809477
 20
157.0514506724796036
 30
0.0
 11
3655.3454948133448852
 21
157.0612118150079937
 31
0.0
  0
LINE
  5
F222
  8
0
 10
3655.3438067781639802
 20
157.0377568951655007
 30
0.0
 11
3655.3536491263289463
 21
157.0450732569119907
 31
0.0
  0
LINE
  5
F223
  8
0
 10
3655.3536491263289463
 20
157.0450732569119907
 30
0.0
 11
3655.3733341796119021
 21
157.0553309671896045
 31
0.0
  0
LINE
  5
F224
  8
0
 10
3655.3733341796119021
 20
157.0553309671896045
 30
0.0
 11
3655.3831768841801022
 21
157.0583481627297999
 31
0.0
  0
LINE
  5
F225
  8
0
 10
3655.3831768841801022
 20
157.0583481627297999
 30
0.0
 11
3655.3733345355440179
 21
157.0509165211207119
 31
0.0
  0
LINE
  5
F226
  8
0
 10
3655.3733345355440179
 20
157.0509165211207119
 30
0.0
 11
3655.3536494824870715
 21
157.0405858119706863
 31
0.0
  0
LINE
  5
F227
  8
0
 10
3655.3536494824870715
 20
157.0405858119706863
 30
0.0
 11
3655.3438067781880818
 21
157.0377568951828096
 31
0.0
  0
LINE
  5
F228
  8
0
 10
3655.3733345355440179
 20
157.0509165211207119
 30
0.0
 11
3655.3733341796119021
 21
157.0553309671896045
 31
0.0
  0
LINE
  5
F229
  8
0
 10
3655.3536494824870715
 20
157.0405858119706863
 30
0.0
 11
3655.3536491263289463
 21
157.0450732569119907
 31
0.0
  0
LINE
  5
F22A
  8
0
 10
3655.3438062009249734
 20
157.0480033463400105
 30
0.0
 11
3655.3536489135440206
 21
157.0570533270081057
 31
0.0
  0
LINE
  5
F22B
  8
0
 10
3655.3536489135440206
 20
157.0570533270081057
 30
0.0
 11
3655.3733339664440791
 21
157.067288253708
 31
0.0
  0
LINE
  5
F22C
  8
0
 10
3655.3733339664440791
 20
157.067288253708
 30
0.0
 11
3655.3831763069410954
 21
157.068594613904196
 31
0.0
  0
LINE
  5
F22D
  8
0
 10
3655.3831763069410954
 20
157.068594613904196
 30
0.0
 11
3655.3733339558439184
 21
157.0592709686376054
 31
0.0
  0
LINE
  5
F22E
  8
0
 10
3655.3733339558439184
 20
157.0592709686376054
 30
0.0
 11
3655.3534503626460719
 21
157.0489369488788896
 31
0.0
  0
LINE
  5
F22F
  8
0
 10
3655.3534503626460719
 20
157.0489369488788896
 30
0.0
 11
3655.343806200949075
 21
157.0480033463572056
 31
0.0
  0
LINE
  5
F230
  8
0
 10
3655.3733339558439184
 20
157.0592709686376054
 30
0.0
 11
3655.3733339664440791
 21
157.067288253708
 31
0.0
  0
LINE
  5
F231
  8
0
 10
3655.3534503626460719
 20
157.0489369488788896
 30
0.0
 11
3655.3536489135440206
 21
157.0570533270081057
 31
0.0
  0
LINE
  5
F232
  8
0
 10
3655.3438056312570552
 20
157.0639412388622134
 30
0.0
 11
3655.3536483462439719
 21
157.0747874409080964
 31
0.0
  0
LINE
  5
F233
  8
0
 10
3655.3536483462439719
 20
157.0747874409080964
 30
0.0
 11
3655.365168170385914
 21
157.0805731821799895
 31
0.0
  0
LINE
  5
F234
  8
0
 10
3655.3748434355870813
 20
157.0751909783274129
 30
0.0
 11
3655.373333383976842
 21
157.0734980259985889
 31
0.0
  0
LINE
  5
F235
  8
0
 10
3655.373333383976842
 20
157.0734980259985889
 30
0.0
 11
3655.3535264698671199
 21
157.0632444711073106
 31
0.0
  0
LINE
  5
F236
  8
0
 10
3655.3535264698671199
 20
157.0632444711073106
 30
0.0
 11
3655.3438056312811568
 21
157.0639412388794938
 31
0.0
  0
LINE
  5
F237
  8
0
 10
3655.373333383976842
 20
157.0734980259985889
 30
0.0
 11
3655.3733333028358174
 21
157.0760795406906141
 31
0.0
  0
LINE
  5
F238
  8
0
 10
3655.3535264698671199
 20
157.0632444711073106
 30
0.0
 11
3655.3536483462439719
 21
157.0747874409080964
 31
0.0
  0
LINE
  5
F239
  8
0
 10
3655.0949442296077905
 20
157.0196180407068027
 30
0.0
 11
3655.1047865735072264
 21
157.0268013419141084
 31
0.0
  0
LINE
  5
F23A
  8
0
 10
3655.1047865735072264
 20
157.0268013419141084
 30
0.0
 11
3655.0949442443438784
 21
157.0340020672664991
 31
0.0
  0
LINE
  5
F23B
  8
0
 10
3655.0949442296077905
 20
157.0196180407068027
 30
0.0
 11
3655.0949442443438784
 21
157.0340020672664991
 31
0.0
  0
LINE
  5
F23C
  8
0
 10
3655.094943666943891
 20
157.0441666187080045
 30
0.0
 11
3655.1047860175508504
 21
157.0530428458779966
 31
0.0
  0
LINE
  5
F23D
  8
0
 10
3655.1047860175508504
 20
157.0530428458779966
 30
0.0
 11
3655.0949436905430048
 21
157.0619621562904058
 31
0.0
  0
LINE
  5
F23E
  8
0
 10
3655.094943666943891
 20
157.0441666187080045
 30
0.0
 11
3655.0949436905430048
 21
157.0619621562904058
 31
0.0
  0
LINE
  5
F23F
  8
0
 10
3655.0932550680599888
 20
157.0389543043019955
 30
0.0
 11
3655.1031089416101167
 21
157.0314022061166952
 31
0.0
  0
LINE
  5
F240
  8
0
 10
3655.1031089416101167
 20
157.0314022061166952
 30
0.0
 11
3655.1227827963439267
 21
157.0323249741080076
 31
0.0
  0
LINE
  5
F241
  8
0
 10
3655.1227827963439267
 20
157.0323249741080076
 30
0.0
 11
3655.1326251463879089
 21
157.0408138217914029
 31
0.0
  0
LINE
  5
F242
  8
0
 10
3655.1326251463879089
 20
157.0408138217914029
 30
0.0
 11
3655.1226392137691619
 21
157.0483917138163861
 31
0.0
  0
LINE
  5
F243
  8
0
 10
3655.1226392137691619
 20
157.0483917138163861
 30
0.0
 11
3655.1030974152417912
 21
157.047464375692897
 31
0.0
  0
LINE
  5
F244
  8
0
 10
3655.1030974152417912
 20
157.047464375692897
 30
0.0
 11
3655.0932550680599888
 21
157.0389543043019955
 31
0.0
  0
LINE
  5
F245
  8
0
 10
3655.1031089416101167
 20
157.0314022061166952
 30
0.0
 11
3655.1030974152417912
 21
157.047464375692897
 31
0.0
  0
LINE
  5
F246
  8
0
 10
3655.1227827963439267
 20
157.0323249741080076
 30
0.0
 11
3655.1226392137691619
 21
157.0483917138163861
 31
0.0
  0
LINE
  5
F247
  8
0
 10
3655.0932556276661671
 20
157.015457955443992
 30
0.0
 11
3655.1031037694451697
 21
157.0152859211106886
 31
0.0
  0
LINE
  5
F248
  8
0
 10
3655.1031037694451697
 20
157.0152859211106886
 30
0.0
 11
3655.1227831743071874
 21
157.0162707148261916
 31
0.0
  0
LINE
  5
F249
  8
0
 10
3655.1227831743071874
 20
157.0162707148261916
 30
0.0
 11
3655.1326257060209173
 21
157.0172833121073097
 31
0.0
  0
LINE
  5
F24A
  8
0
 10
3655.1326257060209173
 20
157.0172833121073097
 30
0.0
 11
3655.1227830134221222
 21
157.0232131053327009
 31
0.0
  0
LINE
  5
F24B
  8
0
 10
3655.1227830134221222
 20
157.0232131053327009
 30
0.0
 11
3655.1031092234361495
 21
157.0222969284361056
 31
0.0
  0
LINE
  5
F24C
  8
0
 10
3655.1031092234361495
 20
157.0222969284361056
 30
0.0
 11
3655.0932556276661671
 21
157.015457955443992
 31
0.0
  0
LINE
  5
F24D
  8
0
 10
3655.0949431210437979
 20
157.0743726027804996
 30
0.0
 11
3655.1047854691009888
 21
157.0850905711006078
 31
0.0
  0
LINE
  5
F24E
  8
0
 10
3655.1047854691009888
 20
157.0850905711006078
 30
0.0
 11
3655.0949431446429116
 21
157.0958936390026111
 31
0.0
  0
LINE
  5
F24F
  8
0
 10
3655.0949431210437979
 20
157.0743726027804996
 30
0.0
 11
3655.0949431446429116
 21
157.0958936390026111
 31
0.0
  0
LINE
  5
F250
  8
0
 10
3655.093254515758872
 20
157.0680272320672941
 30
0.0
 11
3655.1030972011440099
 21
157.0587294089511943
 31
0.0
  0
LINE
  5
F251
  8
0
 10
3655.1030972011440099
 20
157.0587294089511943
 30
0.0
 11
3655.1227822418118194
 21
157.059676576419605
 31
0.0
  0
LINE
  5
F252
  8
0
 10
3655.1227822418118194
 20
157.059676576419605
 30
0.0
 11
3655.1326245941359048
 21
157.0699417893279133
 31
0.0
  0
LINE
  5
F253
  8
0
 10
3655.1326245941359048
 20
157.0699417893279133
 30
0.0
 11
3655.1225134725978023
 21
157.0792930803208947
 31
0.0
  0
LINE
  5
F254
  8
0
 10
3655.1225134725978023
 20
157.0792930803208947
 30
0.0
 11
3655.1030972271441897
 21
157.0783431775080032
 31
0.0
  0
LINE
  5
F255
  8
0
 10
3655.1030972271441897
 20
157.0783431775080032
 30
0.0
 11
3655.093254515758872
 21
157.0680272320672941
 31
0.0
  0
LINE
  5
F256
  8
0
 10
3655.1030972011440099
 20
157.0587294089511943
 30
0.0
 11
3655.1030972271441897
 21
157.0783431775080032
 31
0.0
  0
LINE
  5
F257
  8
0
 10
3655.1227822418118194
 20
157.059676576419605
 30
0.0
 11
3655.1225134725978023
 21
157.0792930803208947
 31
0.0
  0
LINE
  5
F258
  8
0
 10
3655.0949425736707781
 20
157.1108012476115903
 30
0.0
 11
3655.1030951060279222
 21
157.1213367067443016
 31
0.0
  0
LINE
  5
F259
  8
0
 10
3655.0949425736707781
 20
157.1108012476115903
 30
0.0
 11
3655.0949425877161048
 21
157.1214212392958132
 31
0.0
  0
LINE
  5
F25A
  8
0
 10
3655.0932539715208804
 20
157.1031909113744121
 30
0.0
 11
3655.1030966543439717
 21
157.0919662710147975
 31
0.0
  0
LINE
  5
F25B
  8
0
 10
3655.1030966543439717
 20
157.0919662710147975
 30
0.0
 11
3655.1227816950449778
 21
157.0929497147079985
 31
0.0
  0
LINE
  5
F25C
  8
0
 10
3655.1227816950449778
 20
157.0929497147079985
 30
0.0
 11
3655.1326240500688982
 21
157.105187082360402
 31
0.0
  0
LINE
  5
F25D
  8
0
 10
3655.1326240500688982
 20
157.105187082360402
 30
0.0
 11
3655.1227817262451936
 21
157.116541956708005
 31
0.0
  0
LINE
  5
F25E
  8
0
 10
3655.1227817262451936
 20
157.116541956708005
 30
0.0
 11
3655.1030966855441875
 21
157.115528560508011
 31
0.0
  0
LINE
  5
F25F
  8
0
 10
3655.1030966855441875
 20
157.115528560508011
 30
0.0
 11
3655.0932539715208804
 21
157.1031909113744121
 31
0.0
  0
LINE
  5
F260
  8
0
 10
3655.1030966543439717
 20
157.0919662710147975
 30
0.0
 11
3655.1030966855441875
 21
157.115528560508011
 31
0.0
  0
LINE
  5
F261
  8
0
 10
3655.1227816950449778
 20
157.0929497147079985
 30
0.0
 11
3655.1227817262451936
 21
157.116541956708005
 31
0.0
  0
LINE
  5
F262
  8
0
 10
3655.1239872596311216
 20
157.1208860633124971
 30
0.0
 11
3655.1309352360271987
 21
157.1126439201279936
 31
0.0
  0
LINE
  5
F263
  8
0
 10
3655.1309352360271987
 20
157.1126439201279936
 30
0.0
 11
3655.1506202780751664
 21
157.1146670913894923
 31
0.0
  0
LINE
  5
F264
  8
0
 10
3655.1506202780751664
 20
157.1146670913894923
 30
0.0
 11
3655.1545265931090398
 21
157.1196208740009865
 31
0.0
  0
LINE
  5
F265
  8
0
 10
3655.1309352360271987
 20
157.1126439201279936
 30
0.0
 11
3655.1309352466478231
 21
157.1206615536083859
 31
0.0
  0
LINE
  5
F266
  8
0
 10
3655.1506202780751664
 20
157.1146670913894923
 30
0.0
 11
3655.1505479662992002
 21
157.1198265582659133
 31
0.0
  0
LINE
  5
F267
  8
0
 10
3655.1210930908000591
 20
157.085898490196314
 30
0.0
 11
3655.1309357784771237
 21
157.0761353580903119
 31
0.0
  0
LINE
  5
F268
  8
0
 10
3655.1309357784771237
 20
157.0761353580903119
 30
0.0
 11
3655.1506208204341419
 21
157.0780698513372897
 31
0.0
  0
LINE
  5
F269
  8
0
 10
3655.1506208204341419
 20
157.0780698513372897
 30
0.0
 11
3655.1604631747200074
 21
157.089816864722394
 31
0.0
  0
LINE
  5
F26A
  8
0
 10
3655.1604631747200074
 20
157.089816864722394
 30
0.0
 11
3655.1506208490441168
 21
157.0996868892081011
 31
0.0
  0
LINE
  5
F26B
  8
0
 10
3655.1506208490441168
 20
157.0996868892081011
 30
0.0
 11
3655.1309358070438975
 21
157.0977020584080037
 31
0.0
  0
LINE
  5
F26C
  8
0
 10
3655.1309358070438975
 20
157.0977020584080037
 30
0.0
 11
3655.1210930908000591
 21
157.085898490196314
 31
0.0
  0
LINE
  5
F26D
  8
0
 10
3655.1309357784771237
 20
157.0761353580903119
 30
0.0
 11
3655.1309358070438975
 21
157.0977020584080037
 31
0.0
  0
LINE
  5
F26E
  8
0
 10
3655.1506208204341419
 20
157.0780698513372897
 30
0.0
 11
3655.1506208490441168
 21
157.0996868892081011
 31
0.0
  0
LINE
  5
F26F
  8
0
 10
3655.1210936391530595
 20
157.0538228920065933
 30
0.0
 11
3655.130936329144788
 21
157.045874584859888
 31
0.0
  0
LINE
  5
F270
  8
0
 10
3655.130936329144788
 20
157.045874584859888
 30
0.0
 11
3655.1506213751031282
 21
157.0477488545421068
 31
0.0
  0
LINE
  5
F271
  8
0
 10
3655.1506213751031282
 20
157.0477488545421068
 30
0.0
 11
3655.1604637228260799
 21
157.0576049313594069
 31
0.0
  0
LINE
  5
F272
  8
0
 10
3655.1604637228260799
 20
157.0576049313594069
 30
0.0
 11
3655.1506213946440766
 21
157.0656090901873938
 31
0.0
  0
LINE
  5
F273
  8
0
 10
3655.1506213946440766
 20
157.0656090901873938
 30
0.0
 11
3655.1309363527439018
 21
157.063701187407986
 31
0.0
  0
LINE
  5
F274
  8
0
 10
3655.1309363527439018
 20
157.063701187407986
 30
0.0
 11
3655.1210936391530595
 21
157.0538228920065933
 31
0.0
  0
LINE
  5
F275
  8
0
 10
3655.130936329144788
 20
157.045874584859888
 30
0.0
 11
3655.1309363527439018
 21
157.063701187407986
 31
0.0
  0
LINE
  5
F276
  8
0
 10
3655.1506213751031282
 20
157.0477488545421068
 30
0.0
 11
3655.1506213946440766
 21
157.0656090901873938
 31
0.0
  0
LINE
  5
F277
  8
0
 10
3655.1210941979961717
 20
157.027563154927293
 30
0.0
 11
3655.1309368874440224
 21
157.0212916313080029
 31
0.0
  0
LINE
  5
F278
  8
0
 10
3655.1309368874440224
 20
157.0212916313080029
 30
0.0
 11
3655.15062192916821
 21
157.0231276484626903
 31
0.0
  0
LINE
  5
F279
  8
0
 10
3655.15062192916821
 20
157.0231276484626903
 30
0.0
 11
3655.160464278822019
 21
157.0312560889524036
 31
0.0
  0
LINE
  5
F27A
  8
0
 10
3655.160464278822019
 20
157.0312560889524036
 30
0.0
 11
3655.1506219483439963
 21
157.037551582684813
 31
0.0
  0
LINE
  5
F27B
  8
0
 10
3655.1506219483439963
 20
157.037551582684813
 30
0.0
 11
3655.1309369064438215
 21
157.0356947464080974
 31
0.0
  0
LINE
  5
F27C
  8
0
 10
3655.1309369064438215
 20
157.0356947464080974
 30
0.0
 11
3655.1210941979961717
 21
157.027563154927293
 31
0.0
  0
LINE
  5
F27D
  8
0
 10
3655.1309368874440224
 20
157.0212916313080029
 30
0.0
 11
3655.1309369064438215
 21
157.0356947464080974
 31
0.0
  0
LINE
  5
F27E
  8
0
 10
3655.15062192916821
 20
157.0231276484626903
 30
0.0
 11
3655.1506219483439963
 21
157.037551582684813
 31
0.0
  0
LINE
  5
F27F
  8
0
 10
3655.1489327689669153
 20
157.042358999447913
 30
0.0
 11
3655.158775460743982
 21
157.0357136249064922
 31
0.0
  0
LINE
  5
F280
  8
0
 10
3655.158775460743982
 20
157.0357136249064922
 30
0.0
 11
3655.1784605038437803
 21
157.0385090561067898
 31
0.0
  0
LINE
  5
F281
  8
0
 10
3655.1784605038437803
 20
157.0385090561067898
 30
0.0
 11
3655.1883028551937969
 21
157.0479909661762008
 31
0.0
  0
LINE
  5
F282
  8
0
 10
3655.1883028551937969
 20
157.0479909661762008
 30
0.0
 11
3655.1784605252441906
 21
157.0546760083138906
 31
0.0
  0
LINE
  5
F283
  8
0
 10
3655.1784605252441906
 20
157.0546760083138906
 30
0.0
 11
3655.1587754821439376
 21
157.0518393275079916
 31
0.0
  0
LINE
  5
F284
  8
0
 10
3655.1587754821439376
 20
157.0518393275079916
 30
0.0
 11
3655.1489327689669153
 21
157.042358999447913
 31
0.0
  0
LINE
  5
F285
  8
0
 10
3655.158775460743982
 20
157.0357136249064922
 30
0.0
 11
3655.1587754821439376
 21
157.0518393275079916
 31
0.0
  0
LINE
  5
F286
  8
0
 10
3655.1784605038437803
 20
157.0385090561067898
 30
0.0
 11
3655.1784605252441906
 21
157.0546760083138906
 31
0.0
  0
LINE
  5
F287
  8
0
 10
3655.148932219749895
 20
157.0715329946202132
 30
0.0
 11
3655.1587749062127841
 21
157.0631542640718123
 31
0.0
  0
LINE
  5
F288
  8
0
 10
3655.1587749062127841
 20
157.0631542640718123
 30
0.0
 11
3655.1784599494931172
 21
157.0660239980850008
 31
0.0
  0
LINE
  5
F289
  8
0
 10
3655.1784599494931172
 20
157.0660239980850008
 30
0.0
 11
3655.1883023032441997
 21
157.0773350313826029
 31
0.0
  0
LINE
  5
F28A
  8
0
 10
3655.1883023032441997
 20
157.0773350313826029
 30
0.0
 11
3655.1784596138409142
 21
157.0857979453348037
 31
0.0
  0
LINE
  5
F28B
  8
0
 10
3655.1784596138409142
 20
157.0857979453348037
 30
0.0
 11
3655.1587749324439756
 21
157.0828646649081008
 31
0.0
  0
LINE
  5
F28C
  8
0
 10
3655.1587749324439756
 20
157.0828646649081008
 30
0.0
 11
3655.148932219749895
 21
157.0715329946202132
 31
0.0
  0
LINE
  5
F28D
  8
0
 10
3655.1587749062127841
 20
157.0631542640718123
 30
0.0
 11
3655.1587749324439756
 21
157.0828646649081008
 31
0.0
  0
LINE
  5
F28E
  8
0
 10
3655.1784599494931172
 20
157.0660239980850008
 30
0.0
 11
3655.1784596138409142
 21
157.0857979453348037
 31
0.0
  0
LINE
  5
F28F
  8
0
 10
3655.1489316728097947
 20
157.1068465913438956
 30
0.0
 11
3655.1587743596519431
 21
157.0965617481747074
 31
0.0
  0
LINE
  5
F290
  8
0
 10
3655.1587743596519431
 20
157.0965617481747074
 30
0.0
 11
3655.1784594076229951
 21
157.099663336249904
 31
0.0
  0
LINE
  5
F291
  8
0
 10
3655.1784594076229951
 20
157.099663336249904
 30
0.0
 11
3655.1883017595660021
 21
157.1129013633425018
 31
0.0
  0
LINE
  5
F292
  8
0
 10
3655.1883017595660021
 20
157.1129013633425018
 30
0.0
 11
3655.1835314208601631
 21
157.1177896441263897
 31
0.0
  0
LINE
  5
F293
  8
0
 10
3655.1582128458931038
 20
157.1194193669867047
 30
0.0
 11
3655.1489316728097947
 21
157.1068465913438956
 31
0.0
  0
LINE
  5
F294
  8
0
 10
3655.1587743596519431
 20
157.0965617481747074
 30
0.0
 11
3655.1589445109229928
 21
157.1193781191637981
 31
0.0
  0
LINE
  5
F295
  8
0
 10
3655.1784594076229951
 20
157.099663336249904
 30
0.0
 11
3655.1784821479218408
 21
157.1181323077653929
 31
0.0
  0
LINE
  5
F296
  8
0
 10
3655.1767707985968627
 20
157.0922661761389065
 30
0.0
 11
3655.1866134874571799
 21
157.0834117597713089
 31
0.0
  0
LINE
  5
F297
  8
0
 10
3655.1866134874571799
 20
157.0834117597713089
 30
0.0
 11
3655.2062985359889353
 21
157.0873414700612898
 31
0.0
  0
LINE
  5
F298
  8
0
 10
3655.2062985359889353
 20
157.0873414700612898
 30
0.0
 11
3655.2161408878710063
 21
157.1002292936952074
 31
0.0
  0
LINE
  5
F299
  8
0
 10
3655.2161408878710063
 20
157.1002292936952074
 30
0.0
 11
3655.2062985609441057
 21
157.1092047790270101
 31
0.0
  0
LINE
  5
F29A
  8
0
 10
3655.2062985609441057
 20
157.1092047790270101
 30
0.0
 11
3655.1866135162440514
 21
157.1051697889080003
 31
0.0
  0
LINE
  5
F29B
  8
0
 10
3655.1866135162440514
 20
157.1051697889080003
 30
0.0
 11
3655.1767707985968627
 21
157.0922661761389065
 31
0.0
  0
LINE
  5
F29C
  8
0
 10
3655.1866134874571799
 20
157.0834117597713089
 30
0.0
 11
3655.1866135162440514
 21
157.1051697889080003
 31
0.0
  0
LINE
  5
F29D
  8
0
 10
3655.2062985359889353
 20
157.0873414700612898
 30
0.0
 11
3655.2062985609441057
 21
157.1092047790270101
 31
0.0
  0
LINE
  5
F29E
  8
0
 10
3655.1765602334880896
 20
157.0601221072697911
 30
0.0
 11
3655.1866140372289919
 21
157.0527849964458085
 31
0.0
  0
LINE
  5
F29F
  8
0
 10
3655.1866140372289919
 20
157.0527849964458085
 30
0.0
 11
3655.2062990858089506
 21
157.056725961338401
 31
0.0
  0
LINE
  5
F2A0
  8
0
 10
3655.2062990858089506
 20
157.056725961338401
 30
0.0
 11
3655.2161414355059605
 21
157.0676455458612963
 31
0.0
  0
LINE
  5
F2A1
  8
0
 10
3655.2161414355059605
 20
157.0676455458612963
 30
0.0
 11
3655.2062991060438435
 21
157.0747521377925864
 31
0.0
  0
LINE
  5
F2A2
  8
0
 10
3655.2062991060438435
 20
157.0747521377925864
 30
0.0
 11
3655.1866140615447875
 21
157.0708777494079982
 31
0.0
  0
LINE
  5
F2A3
  8
0
 10
3655.1866140615447875
 20
157.0708777494079982
 30
0.0
 11
3655.1765602334880896
 21
157.0601221072697911
 31
0.0
  0
LINE
  5
F2A4
  8
0
 10
3655.1866140372289919
 20
157.0527849964458085
 30
0.0
 11
3655.1866140615447875
 21
157.0708777494079982
 31
0.0
  0
LINE
  5
F2A5
  8
0
 10
3655.2062990858089506
 20
157.056725961338401
 30
0.0
 11
3655.2062991060438435
 21
157.0747521377925864
 31
0.0
  0
LINE
  5
F2A6
  8
0
 10
3655.1494179554451875
 20
157.0186092793288992
 30
0.0
 11
3655.1587853464438922
 21
157.0196198158573964
 31
0.0
  0
LINE
  5
F2A7
  8
0
 10
3655.1587853464438922
 20
157.0196198158573964
 30
0.0
 11
3655.1792670524368987
 21
157.0225074402777068
 31
0.0
  0
LINE
  5
F2A8
  8
0
 10
3655.1792670524368987
 20
157.0225074402777068
 30
0.0
 11
3655.1878188046780451
 21
157.0239270615361988
 31
0.0
  0
LINE
  5
F2A9
  8
0
 10
3655.1878188046780451
 20
157.0239270615361988
 30
0.0
 11
3655.1784703987891589
 21
157.0294233760440079
 31
0.0
  0
LINE
  5
F2AA
  8
0
 10
3655.1784703987891589
 20
157.0294233760440079
 30
0.0
 11
3655.1587853556889058
 21
157.0265866952381089
 31
0.0
  0
LINE
  5
F2AB
  8
0
 10
3655.1587853556889058
 20
157.0265866952381089
 30
0.0
 11
3655.1494179554451875
 21
157.0186092793288992
 31
0.0
  0
LINE
  5
F2AC
  8
0
 10
3655.1768811934939549
 20
157.0336022226456976
 30
0.0
 11
3655.1866145958319976
 21
157.0281941683199136
 31
0.0
  0
LINE
  5
F2AD
  8
0
 10
3655.1866145958319976
 20
157.0281941683199136
 30
0.0
 11
3655.2062996402000863
 21
157.0319179895041088
 31
0.0
  0
LINE
  5
F2AE
  8
0
 10
3655.2062996402000863
 20
157.0319179895041088
 30
0.0
 11
3655.2161419910748918
 21
157.041054253667312
 31
0.0
  0
LINE
  5
F2AF
  8
0
 10
3655.2161419910748918
 20
157.041054253667312
 30
0.0
 11
3655.2062992975111229
 21
157.0464449778984886
 31
0.0
  0
LINE
  5
F2B0
  8
0
 10
3655.2062992975111229
 20
157.0464449778984886
 30
0.0
 11
3655.1866146150450732
 21
157.0426772010081038
 31
0.0
  0
LINE
  5
F2B1
  8
0
 10
3655.1866146150450732
 20
157.0426772010081038
 30
0.0
 11
3655.1768811934939549
 21
157.0336022226456976
 31
0.0
  0
LINE
  5
F2B2
  8
0
 10
3655.1866145958319976
 20
157.0281941683199136
 30
0.0
 11
3655.1866146150450732
 21
157.0426772010081038
 31
0.0
  0
LINE
  5
F2B3
  8
0
 10
3655.2062996402000863
 20
157.0319179895041088
 30
0.0
 11
3655.2062992975111229
 21
157.0464449778984886
 31
0.0
  0
LINE
  5
F2B4
  8
0
 10
3655.2046104798878332
 20
157.0511263286340977
 30
0.0
 11
3655.2144531729600203
 21
157.0453838592769102
 31
0.0
  0
LINE
  5
F2B5
  8
0
 10
3655.2144531729600203
 20
157.0453838592769102
 30
0.0
 11
3655.2341381778960567
 21
157.0501338836475043
 31
0.0
  0
LINE
  5
F2B6
  8
0
 10
3655.2341381778960567
 20
157.0501338836475043
 30
0.0
 11
3655.2439805712729139
 21
157.0606992796533063
 31
0.0
  0
LINE
  5
F2B7
  8
0
 10
3655.2439805712729139
 20
157.0606992796533063
 30
0.0
 11
3655.2341378783489745
 21
157.0664784424454865
 31
0.0
  0
LINE
  5
F2B8
  8
0
 10
3655.2341378783489745
 20
157.0664784424454865
 30
0.0
 11
3655.2145353832738692
 21
157.0616737147277036
 31
0.0
  0
LINE
  5
F2B9
  8
0
 10
3655.2145353832738692
 20
157.0616737147277036
 30
0.0
 11
3655.2046104798878332
 21
157.0511263286340977
 31
0.0
  0
LINE
  5
F2BA
  8
0
 10
3655.2144531729600203
 20
157.0453838592769102
 30
0.0
 11
3655.2145353832738692
 21
157.0616737147277036
 31
0.0
  0
LINE
  5
F2BB
  8
0
 10
3655.2341381778960567
 20
157.0501338836475043
 30
0.0
 11
3655.2341378783489745
 21
157.0664784424454865
 31
0.0
  0
LINE
  5
F2BC
  8
0
 10
3655.20460992808421
 20
157.0805666643904033
 30
0.0
 11
3655.2144526187439624
 21
157.0730848958968977
 31
0.0
  0
LINE
  5
F2BD
  8
0
 10
3655.2144526187439624
 20
157.0730848958968977
 30
0.0
 11
3655.234137668060157
 21
157.0779664167110923
 31
0.0
  0
LINE
  5
F2BE
  8
0
 10
3655.234137668060157
 20
157.0779664167110923
 30
0.0
 11
3655.2439800198699231
 21
157.090440853457693
 31
0.0
  0
LINE
  5
F2BF
  8
0
 10
3655.2439800198699231
 20
157.090440853457693
 30
0.0
 11
3655.234137691144042
 21
157.0980121949313002
 31
0.0
  0
LINE
  5
F2C0
  8
0
 10
3655.234137691144042
 20
157.0980121949313002
 30
0.0
 11
3655.2144526451438651
 21
157.0930182116080971
 31
0.0
  0
LINE
  5
F2C1
  8
0
 10
3655.2144526451438651
 20
157.0930182116080971
 30
0.0
 11
3655.20460992808421
 21
157.0805666643904033
 31
0.0
  0
LINE
  5
F2C2
  8
0
 10
3655.2144526187439624
 20
157.0730848958968977
 30
0.0
 11
3655.2144526451438651
 21
157.0930182116080971
 31
0.0
  0
LINE
  5
F2C3
  8
0
 10
3655.234137668060157
 20
157.0779664167110923
 30
0.0
 11
3655.234137691144042
 21
157.0980121949313002
 31
0.0
  0
LINE
  5
F2C4
  8
0
 10
3655.2324490641858574
 20
157.0716642631599882
 30
0.0
 11
3655.2422917538419824
 21
157.0655211584555104
 31
0.0
  0
LINE
  5
F2C5
  8
0
 10
3655.2422917538419824
 20
157.0655211584555104
 30
0.0
 11
3655.2619768008808023
 21
157.0713730975922999
 31
0.0
  0
LINE
  5
F2C6
  8
0
 10
3655.2619768008808023
 20
157.0713730975922999
 30
0.0
 11
3655.2718191557560203
 21
157.0834820757746115
 31
0.0
  0
LINE
  5
F2C7
  8
0
 10
3655.2718191557560203
 20
157.0834820757746115
 30
0.0
 11
3655.2619768251438472
 21
157.0896824753868941
 31
0.0
  0
LINE
  5
F2C8
  8
0
 10
3655.2619768251438472
 20
157.0896824753868941
 30
0.0
 11
3655.2422917778440024
 21
157.083715725107993
 31
0.0
  0
LINE
  5
F2C9
  8
0
 10
3655.2422917778440024
 20
157.083715725107993
 30
0.0
 11
3655.2324490641858574
 21
157.0716642631599882
 31
0.0
  0
LINE
  5
F2CA
  8
0
 10
3655.2422917538419824
 20
157.0655211584555104
 30
0.0
 11
3655.2422917778440024
 21
157.083715725107993
 31
0.0
  0
LINE
  5
F2CB
  8
0
 10
3655.2619768008808023
 20
157.0713730975922999
 30
0.0
 11
3655.2619768251438472
 21
157.0896824753868941
 31
0.0
  0
LINE
  5
F2CC
  8
0
 10
3655.2324496197079498
 20
157.0449734589527964
 30
0.0
 11
3655.2422923115368576
 21
157.0405243079258071
 31
0.0
  0
LINE
  5
F2CD
  8
0
 10
3655.2422923115368576
 20
157.0405243079258071
 30
0.0
 11
3655.2619773581682239
 21
157.0462472021235953
 31
0.0
  0
LINE
  5
F2CE
  8
0
 10
3655.2619773581682239
 20
157.0462472021235953
 30
0.0
 11
3655.2718197107328706
 21
157.0564900611146868
 31
0.0
  0
LINE
  5
F2CF
  8
0
 10
3655.2718197107328706
 20
157.0564900611146868
 30
0.0
 11
3655.2619773778437775
 21
157.0609489156842926
 31
0.0
  0
LINE
  5
F2D0
  8
0
 10
3655.2619773778437775
 20
157.0609489156842926
 30
0.0
 11
3655.2424789191290984
 21
157.0552067593264951
 31
0.0
  0
LINE
  5
F2D1
  8
0
 10
3655.2424789191290984
 20
157.0552067593264951
 30
0.0
 11
3655.2324496197079498
 21
157.0449734589527964
 31
0.0
  0
LINE
  5
F2D2
  8
0
 10
3655.2422923115368576
 20
157.0405243079258071
 30
0.0
 11
3655.2424789191290984
 21
157.0552067593264951
 31
0.0
  0
LINE
  5
F2D3
  8
0
 10
3655.2619773581682239
 20
157.0462472021235953
 30
0.0
 11
3655.2619773778437775
 21
157.0609489156842926
 31
0.0
  0
LINE
  5
F2D4
  8
0
 10
3655.2602881982252256
 20
157.065521754119203
 30
0.0
 11
3655.270130892457928
 21
157.0607046906206108
 31
0.0
  0
LINE
  5
F2D5
  8
0
 10
3655.270130892457928
 20
157.0607046906206108
 30
0.0
 11
3655.2898159409428445
 21
157.0675607736737902
 31
0.0
  0
LINE
  5
F2D6
  8
0
 10
3655.2898159409428445
 20
157.0675607736737902
 30
0.0
 11
3655.2996582952528115
 21
157.0793461887502076
 31
0.0
  0
LINE
  5
F2D7
  8
0
 10
3655.2996582952528115
 20
157.0793461887502076
 30
0.0
 11
3655.289815962943976
 21
157.0841859623531889
 31
0.0
  0
LINE
  5
F2D8
  8
0
 10
3655.289815962943976
 20
157.0841859623531889
 30
0.0
 11
3655.2701309143440085
 21
157.0772173238080995
 31
0.0
  0
LINE
  5
F2D9
  8
0
 10
3655.2701309143440085
 20
157.0772173238080995
 30
0.0
 11
3655.2602881982252256
 21
157.065521754119203
 31
0.0
  0
LINE
  5
F2DA
  8
0
 10
3655.270130892457928
 20
157.0607046906206108
 30
0.0
 11
3655.2701309143440085
 21
157.0772173238080995
 31
0.0
  0
LINE
  5
F2DB
  8
0
 10
3655.2898159409428445
 20
157.0675607736737902
 30
0.0
 11
3655.289815962943976
 21
157.0841859623531889
 31
0.0
  0
LINE
  5
F2DC
  8
0
 10
3655.2602876499081503
 20
157.0954193913393908
 30
0.0
 11
3655.2701303383960294
 21
157.0888384953458967
 31
0.0
  0
LINE
  5
F2DD
  8
0
 10
3655.2701303383960294
 20
157.0888384953458967
 30
0.0
 11
3655.2898153904511673
 21
157.0958967878029
 31
0.0
  0
LINE
  5
F2DE
  8
0
 10
3655.2898153904511673
 20
157.0958967878029
 30
0.0
 11
3655.2946311606051495
 21
157.1025492013808105
 31
0.0
  0
LINE
  5
F2DF
  8
0
 10
3655.268886207074047
 20
157.1074102208476972
 30
0.0
 11
3655.2602876499081503
 21
157.0954193913393908
 31
0.0
  0
LINE
  5
F2E0
  8
0
 10
3655.2701303383960294
 20
157.0888384953458967
 30
0.0
 11
3655.2701303597418701
 21
157.1071940426571985
 31
0.0
  0
LINE
  5
F2E1
  8
0
 10
3655.2898153904511673
 20
157.0958967878029
 30
0.0
 11
3655.2898153990081482
 21
157.1035207089767027
 31
0.0
  0
LINE
  5
F2E2
  8
0
 10
3655.2881267839688917
 20
157.0896379389899096
 30
0.0
 11
3655.2979694772748189
 21
157.0840783291627929
 31
0.0
  0
LINE
  5
F2E3
  8
0
 10
3655.2979694772748189
 20
157.0840783291627929
 30
0.0
 11
3655.3176545277551668
 21
157.0921813709832122
 31
0.0
  0
LINE
  5
F2E4
  8
0
 10
3655.3176545277551668
 20
157.0921813709832122
 30
0.0
 11
3655.3208340613591645
 21
157.0964391527552948
 31
0.0
  0
LINE
  5
F2E5
  8
0
 10
3655.3208340613591645
 20
157.0964391527552948
 30
0.0
 11
3655.3205513955631432
 21
157.0971179503137023
 31
0.0
  0
LINE
  5
F2E6
  8
0
 10
3655.2974774687809258
 20
157.1019614478277049
 30
0.0
 11
3655.2881267839688917
 21
157.0896379389899096
 31
0.0
  0
LINE
  5
F2E7
  8
0
 10
3655.2979694772748189
 20
157.0840783291627929
 30
0.0
 11
3655.2975483962291037
 21
157.1019466727009046
 31
0.0
  0
LINE
  5
F2E8
  8
0
 10
3655.3176545277551668
 20
157.0921813709832122
 30
0.0
 11
3655.3176545351348068
 21
157.097776622569711
 31
0.0
  0
LINE
  5
F2E9
  8
0
 10
3655.2324485167591774
 20
157.1044009910592933
 30
0.0
 11
3655.2422912039442053
 21
157.096435314008005
 31
0.0
  0
LINE
  5
F2EA
  8
0
 10
3655.2422912039442053
 20
157.096435314008005
 30
0.0
 11
3655.2619762513440946
 21
157.1024917652079864
 31
0.0
  0
LINE
  5
F2EB
  8
0
 10
3655.2619762513440946
 20
157.1024917652079864
 30
0.0
 11
3655.2657095906929499
 21
157.1079535969344931
 31
0.0
  0
LINE
  5
F2EC
  8
0
 10
3655.2379590470491166
 20
157.1121794616028069
 30
0.0
 11
3655.2324485167591774
 21
157.1044009910592933
 31
0.0
  0
LINE
  5
F2ED
  8
0
 10
3655.2422912039442053
 20
157.096435314008005
 30
0.0
 11
3655.2422912212100528
 21
157.1115810448100945
 31
0.0
  0
LINE
  5
F2EE
  8
0
 10
3655.2619762513440946
 20
157.1024917652079864
 30
0.0
 11
3655.2619762593699306
 21
157.1085764700042091
 31
0.0
  0
LINE
  5
F2EF
  8
0
 10
3655.2050956662437784
 20
157.0271849851079935
 30
0.0
 11
3655.2144533896971552
 21
157.0361763847577095
 31
0.0
  0
LINE
  5
F2F0
  8
0
 10
3655.2144533896971552
 20
157.0361763847577095
 30
0.0
 11
3655.2341384352439491
 21
157.040890546707999
 31
0.0
  0
LINE
  5
F2F1
  8
0
 10
3655.2341384352439491
 20
157.040890546707999
 30
0.0
 11
3655.2434965209440634
 21
157.0367890566080007
 31
0.0
  0
ARC
  5
F2F2
  8
0
 10
3655.1398185534758341
 20
157.3697614459624958
 30
0.0
 40
0.3487402084802368
 50
280.7882444713475252
 51
287.2950772311019136
  0
LINE
  5
F2F3
  8
0
 10
3655.260773384255117
 20
157.0413445179507903
 30
0.0
 11
3655.2701311091650496
 21
157.0513791355733133
 31
0.0
  0
LINE
  5
F2F4
  8
0
 10
3655.2701311091650496
 20
157.0513791355733133
 30
0.0
 11
3655.2898161574871665
 21
157.058180172817913
 31
0.0
  0
LINE
  5
F2F5
  8
0
 10
3655.2898161574871665
 20
157.058180172817913
 30
0.0
 11
3655.2991742444442025
 21
157.0550541914080043
 31
0.0
  0
ARC
  5
F2F6
  8
0
 10
3655.1607606168408893
 20
157.3821160836976958
 30
0.0
 40
0.3551447784980088
 50
286.3563931068997022
 51
292.9382351060866085
  0
LINE
  5
F2F7
  8
0
 10
3655.2879823908770049
 20
157.0619732301985039
 30
0.0
 11
3655.2979700348760161
 21
157.0586625149134932
 31
0.0
  0
LINE
  5
F2F8
  8
0
 10
3655.2979700348760161
 20
157.0586625149134932
 30
0.0
 11
3655.3175101369038202
 21
157.0665120692144967
 31
0.0
  0
LINE
  5
F2F9
  8
0
 10
3655.3175101369038202
 20
157.0665120692144967
 30
0.0
 11
3655.3274974386808935
 21
157.0780730482250078
 31
0.0
  0
LINE
  5
F2FA
  8
0
 10
3655.3274974386808935
 20
157.0780730482250078
 30
0.0
 11
3655.3172062542212188
 21
157.0813482219867865
 31
0.0
  0
LINE
  5
F2FB
  8
0
 10
3655.3172062542212188
 20
157.0813482219867865
 30
0.0
 11
3655.297825106997152
 21
157.0736687998872867
 31
0.0
  0
LINE
  5
F2FC
  8
0
 10
3655.297825106997152
 20
157.0736687998872867
 30
0.0
 11
3655.2879823908770049
 21
157.0619732301985039
 31
0.0
  0
LINE
  5
F2FD
  8
0
 10
3655.2979700348760161
 20
157.0586625149134932
 30
0.0
 11
3655.297825106997152
 21
157.0736687998872867
 31
0.0
  0
LINE
  5
F2FE
  8
0
 10
3655.3175101369038202
 20
157.0665120692144967
 30
0.0
 11
3655.3172062542212188
 21
157.0813482219867865
 31
0.0
  0
LINE
  5
F2FF
  8
0
 10
3655.3158209796511073
 20
157.0858487516593129
 30
0.0
 11
3655.3256636726109718
 21
157.0822361384743999
 31
0.0
  0
LINE
  5
F300
  8
0
 10
3655.3256636726109718
 20
157.0822361384743999
 30
0.0
 11
3655.3426041329780674
 21
157.0899862539097001
 31
0.0
  0
LINE
  5
F301
  8
0
 10
3655.3426041329780674
 20
157.0899862539097001
 30
0.0
 11
3655.3430660773401542
 21
157.0903417672012097
 31
0.0
  0
LINE
  5
F302
  8
0
 10
3655.3237413676001779
 20
157.0963379641912923
 30
0.0
 11
3655.3158209796511073
 21
157.0858487516593129
 31
0.0
  0
LINE
  5
F303
  8
0
 10
3655.3256636726109718
 20
157.0822361384743999
 30
0.0
 11
3655.3256636891910603
 21
157.0958399752973094
 31
0.0
  0
LINE
  5
F304
  8
0
 10
3655.3426041329780674
 20
157.0899862539097001
 30
0.0
 11
3655.342696948197954
 21
157.0904775077983118
 31
0.0
  0
LINE
  5
F305
  8
0
 10
3655.315966483144166
 20
157.0615857645080098
 30
0.0
 11
3655.3288786722769146
 21
157.0668359431826957
 31
0.0
  0
LINE
  5
F306
  8
0
 10
3655.3334474005259835
 20
157.0628700650663063
 30
0.0
 11
3655.3454942322441639
 21
157.0685029355063023
 31
0.0
  0
LINE
  5
F307
  8
0
 10
3655.3454942322441639
 20
157.0685029355063023
 30
0.0
 11
3655.355814685122823
 21
157.0796003644825873
 31
0.0
  0
LINE
  5
F308
  8
0
 10
3655.355814685122823
 20
157.0796003644825873
 30
0.0
 11
3655.3455213186330184
 21
157.0818040263002047
 31
0.0
  0
LINE
  5
F309
  8
0
 10
3655.3455213186330184
 20
157.0818040263002047
 30
0.0
 11
3655.3261651164411887
 21
157.0728391638753862
 31
0.0
  0
LINE
  5
F30A
  8
0
 10
3655.3261651164411887
 20
157.0728391638753862
 30
0.0
 11
3655.315966483144166
 21
157.0615857645080098
 31
0.0
  0
LINE
  5
F30B
  8
0
 10
3655.3288786722769146
 20
157.0668359431826957
 30
0.0
 11
3655.3261651164411887
 21
157.0728391638753862
 31
0.0
  0
LINE
  5
F30C
  8
0
 10
3655.3454942322441639
 20
157.0685029355063023
 30
0.0
 11
3655.3455213186330184
 21
157.0818040263002047
 31
0.0
  0
LINE
  5
F30D
  8
0
 10
3655.3334474005259835
 20
157.0628700650663063
 30
0.0
 11
3655.3288786722769146
 21
157.0668359431826957
 31
0.0
  0
ARC
  5
F30E
  8
0
 10
3655.0947494139932132
 20
158.0135032366430039
 30
0.0
 40
1.0403966301012031
 50
269.4721461605050763
 51
282.0755078067879822
  0
ARC
  5
F30F
  8
0
 10
3655.2821540856962201
 20
157.1724935559936966
 30
0.0
 40
0.1789407248075816
 50
279.7316037150159218
 51
308.5518205217169907
  0
ARC
  5
F310
  8
0
 10
3655.3786620106329792
 20
157.0474302628201997
 30
0.0
 40
0.0211344226546186
 50
315.2598200033435774
 51
47.0808331692193605
  0
ARC
  5
F311
  8
0
 10
3655.2763900713998737
 20
156.9095946918934033
 30
0.0
 40
0.1926530430604032
 50
52.7305574450989596
 51
80.189503477620633
  0
ARC
  5
F312
  8
0
 10
3655.1231007784299436
 20
156.2646949869055959
 30
0.0
 40
0.8552323407841708
 50
77.4307321123381769
 51
86.3727618458591166
  0
ARC
  5
F313
  8
0
 10
3655.0855701341470194
 20
155.8243534511045141
 30
0.0
 40
1.2971016498522261
 50
85.9488259519897611
 51
90.0179134714877875
  0
ARC
  5
F314
  8
0
 10
3655.0381360437640978
 20
160.0342304093209975
 30
0.0
 40
3.0658850496947139
 50
270.8789120357370734
 51
272.3596779490958966
  0
ARC
  5
F315
  8
0
 10
3655.0989783502950559
 20
158.1236873484446903
 30
0.0
 40
1.154595313513886
 50
273.2465527269280869
 51
278.6772187640739276
  0
ARC
  5
F316
  8
0
 10
3655.1982809336550417
 20
157.4967128203516893
 30
0.0
 40
0.5198279048003794
 50
278.28309865056832
 51
289.1031422483619053
  0
ARC
  5
F317
  8
0
 10
3655.3339934714431365
 20
157.1161437729934107
 30
0.0
 40
0.1158606066960434
 50
287.2779171302543091
 51
311.9608926776821818
  0
ARC
  5
F318
  8
0
 10
3655.39544865660082
 20
157.0475004985435987
 30
0.0
 40
0.0237278392109242
 50
312.4398001626906876
 51
350.4974867505093243
  0
ARC
  5
F319
  8
0
 10
3655.3926443884379296
 20
157.0469177552512008
 30
0.0
 40
0.0264178113244191
 50
352.7486756683135241
 51
59.5499027421765703
  0
ARC
  5
F31A
  8
0
 10
3655.2822943479068272
 20
156.8785375445391992
 30
0.0
 40
0.2277083658775007
 50
57.0841464387096309
 51
78.9249368152886035
  0
ARC
  5
F31B
  8
0
 10
3655.1318518948810379
 20
156.2559004949069958
 30
0.0
 40
0.8681016878114101
 50
77.0742513902998496
 51
85.6939797296326731
  0
ARC
  5
F31C
  8
0
 10
3655.0862378779038409
 20
155.7695838657679985
 30
0.0
 40
1.3565000906275
 50
85.3150644240069056
 51
90.0480536901015256
  0
ARC
  5
F31D
  8
0
 10
3655.2030637326552096
 20
157.6912675404381048
 30
0.0
 40
1.0773647176005241
 50
231.1692562848687089
 51
254.7397873893696953
  0
ARC
  5
F31E
  8
0
 10
3655.4045884950119216
 20
157.9413670435473875
 30
0.0
 40
1.39855308751645
 50
194.8590201690878132
 51
231.1622813611382128
  0
LINE
  5
F31F
  8
0
 10
3654.0528033835971655
 20
157.5827199312508924
 30
0.0
 11
3654.0556187210968346
 21
157.8143310623507887
 31
0.0
  0
ARC
  5
F320
  8
0
 10
3654.079260578243975
 20
157.8140829540195966
 30
0.0
 40
0.023643158991038
 50
93.6834244317188052
 51
179.3987342738165864
  0
ARC
  5
F321
  8
0
 10
3655.0851610429949687
 20
157.2750297440823886
 30
0.0
 40
0.644784543091167
 50
255.1121486669833871
 51
284.8878513330164992
  0
ARC
  5
F322
  8
0
 10
3659.0898299065788706
 20
157.3015317330234097
 30
0.0
 40
0.9832126034386179
 50
356.6170713400783256
 51
183.3829286599217028
  0
ARC
  5
F323
  8
0
 10
3805.5828807395218973
 20
147.5963188267625128
 30
0.0
 40
145.8309980408168087
 50
176.2069279239804871
 51
177.0697343570130897
  0
ARC
  5
F324
  8
0
 10
3647.9729151015421849
 20
155.5245035058462975
 30
0.0
 40
11.9789938812695294
 50
354.4807658528960133
 51
357.7359304896214098
  0
ARC
  5
F325
  8
0
 10
3658.6259612789422135
 20
154.4370404079535888
 30
0.0
 40
1.2720579030806449
 50
340.5164739775062799
 51
357.085649399693807
  0
ARC
  5
F326
  8
0
 10
3659.4108105184868691
 20
154.1861620971698983
 30
0.0
 40
0.4491852257112566
 50
282.3364334300130736
 51
337.2923589074231927
  0
ARC
  5
F327
  8
0
 10
3659.2244315025959622
 20
154.8638098996094925
 30
0.0
 40
1.15161032071874
 50
272.5309296903398035
 51
284.1922842624433088
  0
ARC
  5
F328
  8
0
 10
3512.5967790736349343
 20
147.5963188267625128
 30
0.0
 40
145.8309980408168087
 50
2.9302656429869249
 51
3.7930720760194689
  0
ARC
  5
F329
  8
0
 10
3670.2067447116151016
 20
155.5245035058462975
 30
0.0
 40
11.9789938812695294
 50
182.2640695103785902
 51
185.5192341471039867
  0
ARC
  5
F32A
  8
0
 10
3659.5536985342150729
 20
154.4370404079535888
 30
0.0
 40
1.2720579030806449
 50
182.914350600306193
 51
199.4835260224936064
  0
ARC
  5
F32B
  8
0
 10
3658.7688492946699625
 20
154.1861620971698983
 30
0.0
 40
0.4491852257112566
 50
202.7076410925768073
 51
257.6635665699869264
  0
ARC
  5
F32C
  8
0
 10
3658.9552283105608694
 20
154.8638098996094925
 30
0.0
 40
1.15161032071874
 50
255.8077157375566912
 51
267.4690703096600828
  0
ARC
  5
F32D
  8
0
 10
3659.0898299065788706
 20
157.8793057145635998
 30
0.0
 40
4.1701086436899812
 50
267.4510721431851152
 51
272.5489278568148848
  0
ENDSEC
  0
EOF
