  0
SECTION
  2
HEADER
  9
$ACADVER
  1
AC1009
  9
$INSBASE
 10
4170.6799702677290043
 20
99.9377153305594277
 30
0.0
  9
$EXTMIN
 10
4159.1420678171034524
 20
96.444703446337769
 30
-0.0000000349181948
  9
$EXTMAX
 10
4182.4352495623297727
 20
103.4448875839123048
 30
0.0000000814935746
  9
$LIMMIN
 10
0.0
 20
0.0
  9
$LIMMAX
 10
11.6929133858000007
 20
8.2677165353999982
  9
$ORTHOMODE
 70
     1
  9
$REGENMODE
 70
     1
  9
$FILLMODE
 70
     1
  9
$QTEXTMODE
 70
     0
  9
$MIRRTEXT
 70
     0
  9
$DRAGMODE
 70
     2
  9
$LTSCALE
 40
0.6431102362
  9
$OSMODE
 70
  4095
  9
$ATTMODE
 70
     1
  9
$TEXTSIZE
 40
0.2
  9
$TRACEWID
 40
0.05
  9
$TEXTSTYLE
  7
STANDARD
  9
$CLAYER
  8
0
  9
$CELTYPE
  6
BYLAYER
  9
$CECOLOR
 62
   256
  9
$DIMSCALE
 40
1.0
  9
$DIMASZ
 40
0.1875
  9
$DIMEXO
 40
0.0625
  9
$DIMDLI
 40
0.4443307087
  9
$DIMRND
 40
0.0
  9
$DIMDLE
 40
0.0
  9
$DIMEXE
 40
0.125
  9
$DIMTP
 40
0.01
  9
$DIMTM
 40
0.01
  9
$DIMTXT
 40
2.0
  9
$DIMCEN
 40
0.1052362205
  9
$DIMTSZ
 40
0.0
  9
$DIMTOL
 70
     1
  9
$DIMLIM
 70
     0
  9
$DIMTIH
 70
     1
  9
$DIMTOH
 70
     1
  9
$DIMSE1
 70
     0
  9
$DIMSE2
 70
     0
  9
$DIMTAD
 70
     0
  9
$DIMZIN
 70
     0
  9
$DIMBLK
  1

  9
$DIMASO
 70
     1
  9
$DIMSHO
 70
     1
  9
$DIMPOST
  1
\X
  9
$DIMAPOST
  1

  9
$DIMALT
 70
     1
  9
$DIMALTD
 70
     2
  9
$DIMALTF
 40
25.3999999999999986
  9
$DIMLFAC
 40
1.0
  9
$DIMTOFL
 70
     0
  9
$DIMTVP
 40
0.0
  9
$DIMTIX
 70
     0
  9
$DIMSOXD
 70
     0
  9
$DIMSAH
 70
     0
  9
$DIMBLK1
  1

  9
$DIMBLK2
  1

  9
$DIMSTYLE
  2
STANDARD
  9
$DIMCLRD
 70
     0
  9
$DIMCLRE
 70
     0
  9
$DIMCLRT
 70
     0
  9
$DIMTFAC
 40
1.0
  9
$DIMGAP
 40
0.09
  9
$LUNITS
 70
     2
  9
$LUPREC
 70
     4
  9
$SKETCHINC
 40
0.1
  9
$FILLETRAD
 40
0.0
  9
$AUNITS
 70
     0
  9
$AUPREC
 70
     0
  9
$MENU
  1
.
  9
$ELEVATION
 40
0.0
  9
$PELEVATION
 40
0.0
  9
$THICKNESS
 40
0.0
  9
$LIMCHECK
 70
     0
  9
$BLIPMODE
 70
     0
  9
$CHAMFERA
 40
0.0
  9
$CHAMFERB
 40
0.0
  9
$SKPOLY
 70
     0
  9
$TDCREATE
 40
2458060.468368056230247
  9
$TDUPDATE
 40
2459921.3773495368659496
  9
$TDINDWG
 40
0.3292547454
  9
$TDUSRTIMER
 40
0.3292547454
  9
$USRTIMER
 70
     1
  9
$ANGBASE
 50
0.0
  9
$ANGDIR
 70
     0
  9
$PDMODE
 70
     0
  9
$PDSIZE
 40
0.3125
  9
$PLINEWID
 40
0.0
  9
$COORDS
 70
     1
  9
$SPLFRAME
 70
     0
  9
$SPLINETYPE
 70
     6
  9
$SPLINESEGS
 70
     8
  9
$ATTDIA
 70
     1
  9
$ATTREQ
 70
     1
  9
$HANDLING
 70
     1
  9
$HANDSEED
  5
A1C3
  9
$SURFTAB1
 70
     6
  9
$SURFTAB2
 70
     6
  9
$SURFTYPE
 70
     6
  9
$SURFU
 70
     6
  9
$SURFV
 70
     6
  9
$UCSNAME
  2

  9
$UCSORG
 10
0.0
 20
0.0
 30
0.0
  9
$UCSXDIR
 10
1.0
 20
0.0
 30
0.0
  9
$UCSYDIR
 10
0.0
 20
1.0
 30
0.0
  9
$PUCSNAME
  2

  9
$PUCSORG
 10
0.0
 20
0.0
 30
0.0
  9
$PUCSXDIR
 10
1.0
 20
0.0
 30
0.0
  9
$PUCSYDIR
 10
0.0
 20
1.0
 30
0.0
  9
$USERI1
 70
     0
  9
$USERI2
 70
     0
  9
$USERI3
 70
     0
  9
$USERI4
 70
     0
  9
$USERI5
 70
     0
  9
$USERR1
 40
0.0
  9
$USERR2
 40
0.0
  9
$USERR3
 40
0.0
  9
$USERR4
 40
0.0
  9
$USERR5
 40
0.0
  9
$WORLDVIEW
 70
     1
  9
$SHADEDGE
 70
     3
  9
$SHADEDIF
 70
    70
  9
$TILEMODE
 70
     1
  9
$MAXACTVP
 70
    64
  9
$PLIMCHECK
 70
     0
  9
$PEXTMIN
 10
1.0000000000000000E+20
 20
1.0000000000000000E+20
 30
1.0000000000000000E+20
  9
$PEXTMAX
 10
-1.0000000000000000E+20
 20
-1.0000000000000000E+20
 30
-1.0000000000000000E+20
  9
$PLIMMIN
 10
0.0
 20
0.0
  9
$PLIMMAX
 10
12.0
 20
9.0
  9
$UNITMODE
 70
     0
  9
$VISRETAIN
 70
     1
  9
$PLINEGEN
 70
     0
  9
$PSLTSCALE
 70
     1
  0
ENDSEC
  0
SECTION
  2
TABLES
  0
TABLE
  2
VPORT
 70
     1
  0
VPORT
  2
*ACTIVE
 70
     0
 10
0.0
 20
0.0
 11
1.0
 21
1.0
 12
-94.2176889665333732
 22
-4.3592167834589466
 13
0.0
 23
0.0
 14
1.0
 24
1.0
 15
0.0
 25
0.0
 16
0.0
 26
0.0
 36
122.0237731519760018
 17
4265.00634765625
 27
104.3040122985839986
 37
0.0
 40
10.7223083250597107
 41
2.1792237442922371
 42
50.0
 43
0.0
 44
0.0
 50
0.0
 51
0.0
 71
     0
 72
   100
 73
     1
 74
     1
 75
     0
 76
     0
 77
     0
 78
     0
  0
ENDTAB
  0
TABLE
  2
LTYPE
 70
     2
  0
LTYPE
  2
CONTINUOUS
 70
     0
  3
Solid line
 72
    65
 73
     0
 40
0.0
  0
LTYPE
  2
PHANTOM2
 70
     0
  3
___ _ _ ___ _ _ ___ _ _ ___ _ _
 72
    65
 73
     6
 40
1.25
 49
0.625
 49
-0.125
 49
0.125
 49
-0.125
 49
0.125
 49
-0.125
  0
ENDTAB
  0
TABLE
  2
LAYER
 70
     2
  0
LAYER
  2
0
 70
     0
 62
   255
  6
CONTINUOUS
  0
LAYER
  2
DEFPOINTS
 70
     0
 62
     7
  6
CONTINUOUS
  0
ENDTAB
  0
TABLE
  2
STYLE
 70
     1
  0
STYLE
  2
STANDARD
 70
     0
 40
0.0
 41
0.8
 50
0.0
 71
     0
 42
0.2
  3
txt
  4

  0
ENDTAB
  0
TABLE
  2
VIEW
 70
     0
  0
ENDTAB
  0
TABLE
  2
UCS
 70
     0
  0
ENDTAB
  0
TABLE
  2
APPID
 70
    10
  0
APPID
  2
ACAD
 70
     0
  0
APPID
  2
ACAD_MLEADERVER
 70
     0
  0
APPID
  2
ACAD_EXEMPT_FROM_CAD_STANDARDS
 70
     0
  0
APPID
  2
ACAD_NAV_VCDISPLAY
 70
     0
  0
APPID
  2
ACAECLAYERSTANDARD
 70
     0
  0
APPID
  2
ACCMTRANSPARENCY
 70
     0
  0
APPID
  2
ACAD_DSTYLE_DIMJAG
 70
     0
  0
APPID
  2
ACAD_DSTYLE_DIMTALN
 70
     0
  0
APPID
  2
ACDBATTR
 70
     0
  0
APPID
  2
DCO15
 70
     0
  0
ENDTAB
  0
TABLE
  2
DIMSTYLE
 70
     1
  0
DIMSTYLE
  2
STANDARD
 70
     0
  3

  4

  5

  6

  7

 40
1.0
 41
0.1875
 42
0.0625
 43
0.38
 44
0.125
 45
0.0
 46
0.0
 47
0.01
 48
0.01
140
0.15625
141
0.09
142
0.0
143
25.3999999999999986
144
1.0
145
0.0
146
1.0
147
0.09
 71
     1
 72
     0
 73
     1
 74
     1
 75
     0
 76
     0
 77
     0
 78
     4
170
     0
171
     2
172
     0
173
     0
174
     0
175
     0
176
     0
177
     0
178
     0
  0
ENDTAB
  0
ENDSEC
  0
SECTION
  2
BLOCKS
  0
BLOCK
  8
0
  2
$MODEL_SPACE
 70
     0
 10
0.0
 20
0.0
 30
0.0
  3
$MODEL_SPACE
  1

  0
ENDBLK
  5
21
  8
0
  0
BLOCK
 67
     1
  8
0
  2
$PAPER_SPACE
 70
     0
 10
0.0
 20
0.0
 30
0.0
  3
$PAPER_SPACE
  1

  0
ENDBLK
  5
1D
 67
     1
  8
0
  0
BLOCK
  8
0
  2
_FILLED
 70
     0
 10
0.0
 20
0.0
 30
0.0
  3
_FILLED
  1

  0
SOLID
  5
9A27
  8
0
  6
BYBLOCK
 62
     0
 10
0.0
 20
0.0
 30
0.0
 11
-1.0
 21
0.1666666667
 31
0.0
 12
-1.0
 22
-0.1666666667
 32
0.0
 13
-1.0
 23
-0.1666666667
 33
0.0
  0
ENDBLK
  5
9A28
  8
0
  6
BYBLOCK
 62
     0
  0
ENDSEC
  0
SECTION
  2
ENTITIES
  0
ATTDEF
  5
9852
  8
DEFPOINTS
 10
4170.6807676188609548
 20
99.9420699128364731
 30
0.0
 40
0.001
  1
K-21060-AE2
  3

  2
MODELNUMBER
 70
     0
1001
ACDBATTR
1070
     0
1070
     1
  0
ATTDEF
  5
9853
  8
DEFPOINTS
 10
4170.6807676188609548
 20
99.9404032461698222
 30
0.0
 40
0.001
  1
BRAZN
  3

  2
TRADENAME
 70
     0
1001
ACDBATTR
1070
     0
1070
     1
  0
ATTDEF
  5
9854
  8
DEFPOINTS
 10
4170.6807676188609548
 20
99.938736579503157
 30
0.0
 40
0.001
  1
BATHROOM SINK 
  3

  2
PRODUCT
 70
     0
1001
ACDBATTR
1070
     0
1070
     1
  0
LINE
  5
A008
  8
0
 10
4169.4739519611448486
 20
96.4475472255262645
 30
0.0
 11
4171.8859885743122504
 21
96.4475472255262645
 31
0.0
  0
ARC
  5
A009
  8
0
 10
4169.4819229613340212
 20
96.6530235691567867
 30
0.0
 40
0.20563089416666
 50
186.9756850143533029
 51
267.7784509272851778
  0
LINE
  5
A00A
  8
0
 10
4169.2778141921280621
 20
96.6280500838262668
 30
0.0
 11
4169.1909033794017887
 21
97.6709797143824261
 31
0.0
  0
ARC
  5
A00B
  8
0
 10
4168.8800627846230782
 20
97.6468284438437166
 30
0.0
 40
0.3117774193741146
 50
4.4427640596577316
 51
88.5747343050787634
  0
ARC
  5
A00C
  8
0
 10
4365.9226523673250995
 20
3028.1794586885162062
 30
0.0
 40
2936.8380169358601961
 50
266.0289091987631878
 51
266.1530902470576052
  0
ARC
  5
A00D
  8
0
 10
4162.5796992189652883
 20
99.3264160262755524
 30
0.0
 40
0.9349341526779367
 50
218.587881496873905
 51
267.4079738279407934
  0
LINE
  5
A00E
  8
0
 10
4161.8489056850294219
 20
98.7432842396262487
 30
0.0
 11
4161.0720383689431401
 21
99.8871847539340507
 31
0.0
  0
ARC
  5
A00F
  8
0
 10
4160.9745315272111839
 20
99.8183742391586151
 30
0.0
 40
0.1193418247232962
 50
35.210594073671551
 51
89.7991420552867652
  0
LINE
  5
A010
  8
0
 10
4160.1767210042808074
 20
99.9377153305594277
 30
0.0
 11
4181.1832195311772011
 21
99.9377153305594277
 31
0.0
  0
ARC
  5
A011
  8
0
 10
4160.1768965692353959
 20
100.0166824893878044
 30
0.0
 40
0.0789673539919015
 50
195.5130412473629917
 51
269.8726164835596819
  0
LINE
  5
A012
  8
0
 10
4160.1008060274252784
 20
99.9955620622228736
 30
0.0
 11
4159.1886846687011712
 21
103.3190470166262003
 31
0.0
  0
ARC
  5
A013
  8
0
 10
4173.2057806569218883
 20
98.9235018817985576
 30
0.0
 40
4.3727519459536071
 50
192.8320013522915133
 51
200.796883206520107
  0
ARC
  5
A014
  8
0
 10
4170.2748788212957152
 20
97.8103391541679201
 30
0.0
 40
1.2375778155017949
 50
200.796883206520107
 51
212.8534520047556953
  0
ARC
  5
A015
  8
0
 10
4159.3611059544000454
 20
103.3705537039708986
 30
0.0
 40
0.1799501003149195
 50
186.3896410007423015
 51
196.6322427820061876
  0
ARC
  5
A016
  8
0
 10
4159.259781513262169
 20
103.2686538746996945
 30
0.0
 40
0.1695341178007381
 50
80.9076210259072752
 51
95.2290616073219809
  0
ARC
  5
A017
  8
0
 10
4159.2520560486973409
 20
103.3498532016667042
 30
0.0
 40
0.0879691249338643
 50
95.0382296592598834
 51
121.5482882687408051
  0
ARC
  5
A018
  8
0
 10
4159.2323102055088384
 20
103.3820146157670052
 30
0.0
 40
0.050229823401371
 50
121.5482882687408051
 51
164.9268207682140996
  0
ARC
  5
A019
  8
0
 10
4159.2892514087507152
 20
103.369142844141706
 30
0.0
 40
0.1085853305558059
 50
166.1821070819044053
 51
189.871438745037409
  0
ARC
  5
A01A
  8
0
 10
4159.3788721048113075
 20
104.599400851865596
 30
0.0
 40
1.1669988684797139
 50
265.4636540041722128
 51
270.8227062053035183
  0
LINE
  5
A01B
  8
0
 10
4159.704079036382609
 20
103.4374595015581946
 30
0.0
 11
4181.6558614990753995
 21
103.4374595015581946
 31
0.0
  0
ARC
  5
A01C
  8
0
 10
4159.7597324833959647
 20
96.9806290663524635
 30
0.0
 40
6.4570702780103053
 50
90.4938380679190146
 51
91.9648499461495135
  0
ARC
  5
A01D
  8
0
 10
4159.4389521007024086
 20
106.3310411612832951
 30
0.0
 40
2.8988426330289041
 50
269.143672593473525
 51
271.9648499461495135
  0
ARC
  5
A01E
  8
0
 10
4170.7455819945280382
 20
55.0626836211704287
 30
0.0
 40
42.9360356591819894
 50
90.0877221390244074
 51
92.4798586130362565
  0
ARC
  5
A01F
  8
0
 10
4170.7371859884560763
 20
60.5465368683943126
 30
0.0
 40
37.452175984645649
 50
90.0875308445724556
 51
90.0877221390244074
  0
ARC
  5
A020
  8
0
 10
4171.8780175741230778
 20
96.6530235691567867
 30
0.0
 40
0.20563089416666
 50
272.2215490727148222
 51
353.0243149856465834
  0
LINE
  5
A021
  8
0
 10
4172.0821263433290369
 20
96.6280500838262668
 30
0.0
 11
4172.1690371560553103
 21
97.6709797143824261
 31
0.0
  0
ARC
  5
A022
  8
0
 10
4172.4773747020681185
 20
97.6494669136741607
 30
0.0
 40
0.3090871121151404
 50
90.9735772597676089
 51
176.0089243752642858
  0
ARC
  5
A023
  8
0
 10
3978.0714583014228083
 20
2989.629298106072838
 30
0.0
 40
2898.1979864435379568
 50
273.8460819348524069
 51
273.9719186193220821
  0
ARC
  5
A024
  8
0
 10
4178.7802413164918107
 20
99.3264160262755524
 30
0.0
 40
0.9349341526779367
 50
272.5920261720592066
 51
321.4121185031261234
  0
LINE
  5
A025
  8
0
 10
4179.5110348504276772
 20
98.7432842396262487
 30
0.0
 11
4180.2879021665139589
 21
99.8871847539340507
 31
0.0
  0
ARC
  5
A026
  8
0
 10
4180.3854090082468247
 20
99.8183742391586151
 30
0.0
 40
0.1193418247232962
 50
90.2008579447132348
 51
144.7894059263284134
  0
ARC
  5
A027
  8
0
 10
4181.1830439662217032
 20
100.0166824893878044
 30
0.0
 40
0.0789673539919015
 50
270.1273835164403181
 51
344.4869587526368946
  0
LINE
  5
A028
  8
0
 10
4181.2591345080318206
 20
99.9955620622228736
 30
0.0
 11
4182.1712558667568373
 21
103.3190470166262003
 31
0.0
  0
ARC
  5
A029
  8
0
 10
4168.1541598785361202
 20
98.9235018817985576
 30
0.0
 40
4.3727519459536071
 50
339.2031167934799214
 51
347.1735662700837111
  0
ARC
  5
A02A
  8
0
 10
4171.0850617141613839
 20
97.8103391541679201
 30
0.0
 40
1.2375778155017949
 50
327.1465479952443047
 51
339.2031167934799214
  0
ARC
  5
A02B
  8
0
 10
4181.9988345810570536
 20
103.3705537039708986
 30
0.0
 40
0.1799501003149195
 50
343.3677572179938124
 51
353.6103589992575849
  0
ARC
  5
A02C
  8
0
 10
4182.1001590221958395
 20
103.2686538746996945
 30
0.0
 40
0.1695341178007381
 50
84.7709383926780049
 51
99.0923789740927106
  0
ARC
  5
A02D
  8
0
 10
4182.1078844867597581
 20
103.3498532016667042
 30
0.0
 40
0.0879691249338643
 50
58.4517117312591665
 51
84.961770340740145
  0
ARC
  5
A02E
  8
0
 10
4182.1276303299491701
 20
103.3820146157670052
 30
0.0
 40
0.050229823401371
 50
15.0731792317858506
 51
58.4517117312591665
  0
ARC
  5
A02F
  8
0
 10
4182.0706891267063838
 20
103.369142844141706
 30
0.0
 40
0.1085853305558059
 50
350.1285612549633015
 51
13.8178929180956107
  0
ARC
  5
A030
  8
0
 10
4181.981068430646701
 20
104.599400851865596
 30
0.0
 40
1.1669988684797139
 50
269.1772937946964817
 51
274.5363459958277872
  0
ARC
  5
A031
  8
0
 10
4181.6002080520611344
 20
96.9806290663524635
 30
0.0
 40
6.4570702780103053
 50
88.0351500538504865
 51
89.5061619320809854
  0
ARC
  5
A032
  8
0
 10
4181.9209884347546904
 20
106.3310411612832951
 30
0.0
 40
2.8988426330289041
 50
268.0351500538504865
 51
270.856327406526475
  0
ARC
  5
A033
  8
0
 10
4170.6143585409290608
 20
55.0626836211704287
 30
0.0
 40
42.9360356591819894
 50
87.5201413869637435
 51
89.9122778609755784
  0
ARC
  5
A034
  8
0
 10
4170.6227545470019322
 20
60.5465368683943126
 30
0.0
 40
37.452175984645649
 50
89.9122778609755784
 51
89.9124691554275586
  0
ENDSEC
  0
EOF
