  0
SECTION
  2
HEADER
  9
$ACADVER
  1
AC1009
  9
$INSBASE
 10
3568.783466903507815
 20
208.0636161100767083
 30
0.0
  9
$EXTMIN
 10
3551.2839137994819794
 20
208.0590425954310092
 30
0.0
  9
$EXTMAX
 10
3568.783466903507815
 20
223.8124464180766893
 30
0.0
  9
$LIMMIN
 10
0.0
 20
0.0
  9
$LIMMAX
 10
11.6929133858000007
 20
8.2677165353999982
  9
$ORTHOMODE
 70
     0
  9
$REGENMODE
 70
     1
  9
$FILLMODE
 70
     1
  9
$QTEXTMODE
 70
     0
  9
$MIRRTEXT
 70
     0
  9
$DRAGMODE
 70
     2
  9
$LTSCALE
 40
0.6431102362
  9
$OSMODE
 70
  3839
  9
$ATTMODE
 70
     1
  9
$TEXTSIZE
 40
0.2
  9
$TRACEWID
 40
0.05
  9
$TEXTSTYLE
  7
STANDARD
  9
$CLAYER
  8
0
  9
$CELTYPE
  6
BYLAYER
  9
$CECOLOR
 62
   256
  9
$DIMSCALE
 40
1.0
  9
$DIMASZ
 40
0.1875
  9
$DIMEXO
 40
0.0625
  9
$DIMDLI
 40
0.4443307087
  9
$DIMRND
 40
0.0
  9
$DIMDLE
 40
0.0
  9
$DIMEXE
 40
0.125
  9
$DIMTP
 40
0.01
  9
$DIMTM
 40
0.01
  9
$DIMTXT
 40
2.0
  9
$DIMCEN
 40
0.1052362205
  9
$DIMTSZ
 40
0.0
  9
$DIMTOL
 70
     1
  9
$DIMLIM
 70
     0
  9
$DIMTIH
 70
     1
  9
$DIMTOH
 70
     1
  9
$DIMSE1
 70
     0
  9
$DIMSE2
 70
     0
  9
$DIMTAD
 70
     0
  9
$DIMZIN
 70
     0
  9
$DIMBLK
  1

  9
$DIMASO
 70
     1
  9
$DIMSHO
 70
     1
  9
$DIMPOST
  1
\X
  9
$DIMAPOST
  1

  9
$DIMALT
 70
     1
  9
$DIMALTD
 70
     2
  9
$DIMALTF
 40
25.3999999999999986
  9
$DIMLFAC
 40
1.0
  9
$DIMTOFL
 70
     0
  9
$DIMTVP
 40
0.0
  9
$DIMTIX
 70
     0
  9
$DIMSOXD
 70
     0
  9
$DIMSAH
 70
     0
  9
$DIMBLK1
  1

  9
$DIMBLK2
  1

  9
$DIMSTYLE
  2
STANDARD
  9
$DIMCLRD
 70
     0
  9
$DIMCLRE
 70
     0
  9
$DIMCLRT
 70
     0
  9
$DIMTFAC
 40
1.0
  9
$DIMGAP
 40
0.09
  9
$LUNITS
 70
     2
  9
$LUPREC
 70
     4
  9
$SKETCHINC
 40
0.1
  9
$FILLETRAD
 40
0.0
  9
$AUNITS
 70
     0
  9
$AUPREC
 70
     0
  9
$MENU
  1
.
  9
$ELEVATION
 40
0.0
  9
$PELEVATION
 40
0.0
  9
$THICKNESS
 40
0.0
  9
$LIMCHECK
 70
     0
  9
$BLIPMODE
 70
     0
  9
$CHAMFERA
 40
0.0
  9
$CHAMFERB
 40
0.0
  9
$SKPOLY
 70
     0
  9
$TDCREATE
 40
2458060.468368056230247
  9
$TDUPDATE
 40
2459153.774548611138016
  9
$TDINDWG
 40
0.5566158565
  9
$TDUSRTIMER
 40
0.5566158565
  9
$USRTIMER
 70
     1
  9
$ANGBASE
 50
0.0
  9
$ANGDIR
 70
     0
  9
$PDMODE
 70
     0
  9
$PDSIZE
 40
0.3125
  9
$PLINEWID
 40
0.0
  9
$COORDS
 70
     1
  9
$SPLFRAME
 70
     0
  9
$SPLINETYPE
 70
     6
  9
$SPLINESEGS
 70
     8
  9
$ATTDIA
 70
     1
  9
$ATTREQ
 70
     1
  9
$HANDLING
 70
     1
  9
$HANDSEED
  5
935D
  9
$SURFTAB1
 70
     6
  9
$SURFTAB2
 70
     6
  9
$SURFTYPE
 70
     6
  9
$SURFU
 70
     6
  9
$SURFV
 70
     6
  9
$UCSNAME
  2

  9
$UCSORG
 10
0.0
 20
0.0
 30
0.0
  9
$UCSXDIR
 10
1.0
 20
0.0
 30
0.0
  9
$UCSYDIR
 10
0.0
 20
1.0
 30
0.0
  9
$PUCSNAME
  2

  9
$PUCSORG
 10
0.0
 20
0.0
 30
0.0
  9
$PUCSXDIR
 10
1.0
 20
0.0
 30
0.0
  9
$PUCSYDIR
 10
0.0
 20
1.0
 30
0.0
  9
$USERI1
 70
     0
  9
$USERI2
 70
     0
  9
$USERI3
 70
     0
  9
$USERI4
 70
     0
  9
$USERI5
 70
     0
  9
$USERR1
 40
0.0
  9
$USERR2
 40
0.0
  9
$USERR3
 40
0.0
  9
$USERR4
 40
0.0
  9
$USERR5
 40
0.0
  9
$WORLDVIEW
 70
     1
  9
$SHADEDGE
 70
     3
  9
$SHADEDIF
 70
    70
  9
$TILEMODE
 70
     1
  9
$MAXACTVP
 70
    64
  9
$PLIMCHECK
 70
     0
  9
$PEXTMIN
 10
1.0000000000000000E+20
 20
1.0000000000000000E+20
 30
1.0000000000000000E+20
  9
$PEXTMAX
 10
-1.0000000000000000E+20
 20
-1.0000000000000000E+20
 30
-1.0000000000000000E+20
  9
$PLIMMIN
 10
0.0
 20
0.0
  9
$PLIMMAX
 10
12.0
 20
9.0
  9
$UNITMODE
 70
     0
  9
$VISRETAIN
 70
     1
  9
$PLINEGEN
 70
     0
  9
$PSLTSCALE
 70
     1
  0
ENDSEC
  0
SECTION
  2
TABLES
  0
TABLE
  2
VPORT
 70
     1
  0
VPORT
  2
*ACTIVE
 70
     0
 10
0.0
 20
0.0
 11
1.0
 21
1.0
 12
0.0
 22
0.0
 13
0.0
 23
0.0
 14
1.0
 24
1.0
 15
0.0
 25
0.0
 16
0.0
 26
0.0
 36
92.5444396882863742
 17
3560.03369140625
 27
215.9357407801373938
 37
0.0
 40
23.5457513697587117
 41
3.1182994454713491
 42
50.0
 43
0.0
 44
0.0
 50
0.0
 51
0.0
 71
     0
 72
   100
 73
     1
 74
     1
 75
     0
 76
     0
 77
     0
 78
     0
  0
ENDTAB
  0
TABLE
  2
LTYPE
 70
     2
  0
LTYPE
  2
CONTINUOUS
 70
     0
  3
Solid line
 72
    65
 73
     0
 40
0.0
  0
LTYPE
  2
PHANTOM2
 70
     0
  3
___ _ _ ___ _ _ ___ _ _ ___ _ _
 72
    65
 73
     6
 40
1.25
 49
0.625
 49
-0.125
 49
0.125
 49
-0.125
 49
0.125
 49
-0.125
  0
ENDTAB
  0
TABLE
  2
LAYER
 70
     2
  0
LAYER
  2
0
 70
     0
 62
   255
  6
CONTINUOUS
  0
LAYER
  2
DEFPOINTS
 70
     0
 62
     7
  6
CONTINUOUS
  0
ENDTAB
  0
TABLE
  2
STYLE
 70
     1
  0
STYLE
  2
STANDARD
 70
     0
 40
0.0
 41
0.8
 50
0.0
 71
     0
 42
0.2
  3
txt
  4

  0
ENDTAB
  0
TABLE
  2
VIEW
 70
     0
  0
ENDTAB
  0
TABLE
  2
UCS
 70
     0
  0
ENDTAB
  0
TABLE
  2
APPID
 70
     9
  0
APPID
  2
ACAD
 70
     0
  0
APPID
  2
ACAD_MLEADERVER
 70
     0
  0
APPID
  2
ACAD_EXEMPT_FROM_CAD_STANDARDS
 70
     0
  0
APPID
  2
ACAD_NAV_VCDISPLAY
 70
     0
  0
APPID
  2
ACAECLAYERSTANDARD
 70
     0
  0
APPID
  2
ACCMTRANSPARENCY
 70
     0
  0
APPID
  2
ACAD_DSTYLE_DIMJAG
 70
     0
  0
APPID
  2
ACAD_DSTYLE_DIMTALN
 70
     0
  0
APPID
  2
ACDBATTR
 70
     0
  0
ENDTAB
  0
TABLE
  2
DIMSTYLE
 70
     1
  0
DIMSTYLE
  2
STANDARD
 70
     0
  3

  4

  5

  6

  7

 40
1.0
 41
0.1875
 42
0.0625
 43
0.38
 44
0.125
 45
0.0
 46
0.0
 47
0.01
 48
0.01
140
0.15625
141
0.09
142
0.0
143
25.3999999999999986
144
1.0
145
0.0
146
1.0
147
0.09
 71
     1
 72
     0
 73
     1
 74
     1
 75
     0
 76
     0
 77
     0
 78
     4
170
     0
171
     2
172
     0
173
     0
174
     0
175
     0
176
     0
177
     0
178
     0
  0
ENDTAB
  0
ENDSEC
  0
SECTION
  2
BLOCKS
  0
BLOCK
  8
0
  2
$MODEL_SPACE
 70
     0
 10
0.0
 20
0.0
 30
0.0
  3
$MODEL_SPACE
  1

  0
ENDBLK
  5
21
  8
0
  0
BLOCK
 67
     1
  8
0
  2
$PAPER_SPACE
 70
     0
 10
0.0
 20
0.0
 30
0.0
  3
$PAPER_SPACE
  1

  0
ENDBLK
  5
1D
 67
     1
  8
0
  0
BLOCK
  8
0
  2
_FILLED
 70
     0
 10
0.0
 20
0.0
 30
0.0
  3
_FILLED
  1

  0
SOLID
  5
6F59
  8
0
  6
BYBLOCK
 62
     0
 10
0.0
 20
0.0
 30
0.0
 11
-1.0
 21
0.1666666667
 31
0.0
 12
-1.0
 22
-0.1666666667
 32
0.0
 13
-1.0
 23
-0.1666666667
 33
0.0
  0
ENDBLK
  5
6F5A
  8
0
  6
BYBLOCK
 62
     0
  0
ENDSEC
  0
SECTION
  2
ENTITIES
  0
ATTDEF
  5
3930
  8
DEFPOINTS
 10
3568.7722131153800547
 20
208.0623759287643111
 30
0.0
 40
0.001
  1
K-20821T
  3

  2
MODELNUMBER
 70
     0
1001
ACDBATTR
1070
     0
1070
     1
  0
ATTDEF
  5
3931
  8
DEFPOINTS
 10
3568.7722131153800547
 20
208.0607092620977028
 30
0.0
 40
0.001
  1
BROCKWAY
  3

  2
TRADENAME
 70
     0
1001
ACDBATTR
1070
     0
1070
     1
  0
ATTDEF
  5
3932
  8
DEFPOINTS
 10
3568.7722131153800547
 20
208.0590425954310092
 30
0.0
 40
0.001
  1
BATHROOM SINK
  3

  2
PRODUCT
 70
     0
1001
ACDBATTR
1070
     0
1070
     1
  0
LINE
  5
91FA
  8
0
 10
3551.2839137994819794
 20
215.0624440929767047
 30
0.0
 11
3568.783466903507815
 21
215.0624440929767047
 31
0.0
  0
LINE
  5
91FB
  8
0
 10
3552.2666519225131196
 20
215.8124460518158969
 30
0.0
 11
3561.7866032056090262
 21
215.8124460518158969
 31
0.0
  0
ARC
  5
91FC
  8
0
 10
3552.2986226738407822
 20
214.7517055495592047
 30
0.0
 40
1.061222192600644
 50
91.7263739231310922
 51
162.9736211927929048
  0
LINE
  5
91FD
  8
0
 10
3558.4505753475232268
 20
208.0636161100767083
 30
0.0
 11
3561.4957279217928772
 21
208.0636161100767083
 31
0.0
  0
ARC
  5
91FE
  8
0
 10
3548.0728223332780544
 20
218.1207889828478983
 30
0.0
 40
19.0787985210381201
 50
343.5966990293870822
 51
350.7756522077530121
  0
ARC
  5
91FF
  8
0
 10
3719.14639873071701
 20
174.5447918299547894
 30
0.0
 40
157.4719595095592126
 50
165.9653891719243006
 51
166.6847538965224089
  0
ARC
  5
9200
  8
0
 10
3563.2916951704910389
 20
211.3121563461081109
 30
0.0
 40
2.6633578554775061
 50
288.2357623733619221
 51
349.175014399549525
  0
ARC
  5
9201
  8
0
 10
3562.5674299131228508
 20
213.0657131328212017
 30
0.0
 40
4.557613175309517
 50
265.0138877330672926
 51
289.9853978834307782
  0
ARC
  5
9202
  8
0
 10
3562.2036513149828352
 20
207.7529219393981066
 30
0.0
 40
0.7731018033340157
 50
92.3976936506915365
 51
156.3042394684156022
  0
ARC
  5
9203
  8
0
 10
3559.9699855154490251
 20
236.4549085302352012
 30
0.0
 40
28.0156812516553408
 50
265.5063482182216035
 51
274.4588912487213861
  0
LINE
  5
9204
  8
0
 10
3568.783466903507815
 20
223.8124464180766893
 30
0.0
 11
3568.783466903507815
 21
215.0624440929767047
 31
0.0
  0
ARC
  5
9205
  8
0
 10
3571.8734809360380495
 20
218.1207889828478983
 30
0.0
 40
19.0787985210381201
 50
189.2243477922469879
 51
196.4033009706128041
  0
ARC
  5
9206
  8
0
 10
3400.7999045385990939
 20
174.5447918299547894
 30
0.0
 40
157.4719595095592126
 50
13.3152461034776195
 51
14.0346108280756301
  0
ARC
  5
9207
  8
0
 10
3556.6546080988250651
 20
211.3121563461081109
 30
0.0
 40
2.6633578554775061
 50
190.8249856004505034
 51
251.7642376266381063
  0
ARC
  5
9208
  8
0
 10
3557.3788733561927984
 20
213.0657131328212017
 30
0.0
 40
4.557613175309517
 50
250.0146021165691934
 51
274.9861122669325937
  0
ARC
  5
9209
  8
0
 10
3557.7426519543341783
 20
207.7529219393981066
 30
0.0
 40
0.7731018033340157
 50
23.6957605315843907
 51
87.6023063493084493
  0
ARC
  5
920A
  8
0
 10
3561.7826663861610541
 20
220.8143759690156003
 30
0.0
 40
5.0019314664562371
 50
270.0450952125023036
 51
356.7600774852900258
  0
LINE
  5
920B
  8
0
 10
3566.7766028981232012
 20
220.5316808866188012
 30
0.0
 11
3566.7834673532138368
 21
222.5324459136097062
 31
0.0
  0
ARC
  5
920C
  8
0
 10
3568.0334648490547806
 20
222.532442668657211
 30
0.0
 40
1.249997495844311
 50
92.2184865017590454
 51
179.9998512620339
  0
LINE
  5
920D
  8
0
 10
3567.9850771715077826
 20
223.7815032645765996
 30
0.0
 11
3568.783466903507815
 21
223.8124464180766893
 31
0.0
  0
ENDSEC
  0
EOF
