  0
SECTION
  2
HEADER
  9
$ACADVER
  1
AC1009
  9
$INSBASE
 10
3585.2262473155310545
 20
203.0271392366475141
 30
0.0
  9
$EXTMIN
 10
3571.7223149411311169
 20
185.527589049447414
 30
0.0
  9
$EXTMAX
 10
3598.730179689930992
 20
203.0327540153334098
 30
0.0
  9
$LIMMIN
 10
0.0
 20
0.0
  9
$LIMMAX
 10
11.6929133858000007
 20
8.2677165353999982
  9
$ORTHOMODE
 70
     0
  9
$REGENMODE
 70
     1
  9
$FILLMODE
 70
     1
  9
$QTEXTMODE
 70
     0
  9
$MIRRTEXT
 70
     0
  9
$DRAGMODE
 70
     2
  9
$LTSCALE
 40
0.6431102362
  9
$OSMODE
 70
  3839
  9
$ATTMODE
 70
     1
  9
$TEXTSIZE
 40
0.2
  9
$TRACEWID
 40
0.05
  9
$TEXTSTYLE
  7
STANDARD
  9
$CLAYER
  8
0
  9
$CELTYPE
  6
BYLAYER
  9
$CECOLOR
 62
   256
  9
$DIMSCALE
 40
1.0
  9
$DIMASZ
 40
0.1875
  9
$DIMEXO
 40
0.0625
  9
$DIMDLI
 40
0.4443307087
  9
$DIMRND
 40
0.0
  9
$DIMDLE
 40
0.0
  9
$DIMEXE
 40
0.125
  9
$DIMTP
 40
0.01
  9
$DIMTM
 40
0.01
  9
$DIMTXT
 40
2.0
  9
$DIMCEN
 40
0.1052362205
  9
$DIMTSZ
 40
0.0
  9
$DIMTOL
 70
     1
  9
$DIMLIM
 70
     0
  9
$DIMTIH
 70
     1
  9
$DIMTOH
 70
     1
  9
$DIMSE1
 70
     0
  9
$DIMSE2
 70
     0
  9
$DIMTAD
 70
     0
  9
$DIMZIN
 70
     0
  9
$DIMBLK
  1

  9
$DIMASO
 70
     1
  9
$DIMSHO
 70
     1
  9
$DIMPOST
  1
\X
  9
$DIMAPOST
  1

  9
$DIMALT
 70
     1
  9
$DIMALTD
 70
     2
  9
$DIMALTF
 40
25.3999999999999986
  9
$DIMLFAC
 40
1.0
  9
$DIMTOFL
 70
     0
  9
$DIMTVP
 40
0.0
  9
$DIMTIX
 70
     0
  9
$DIMSOXD
 70
     0
  9
$DIMSAH
 70
     0
  9
$DIMBLK1
  1

  9
$DIMBLK2
  1

  9
$DIMSTYLE
  2
STANDARD
  9
$DIMCLRD
 70
     0
  9
$DIMCLRE
 70
     0
  9
$DIMCLRT
 70
     0
  9
$DIMTFAC
 40
1.0
  9
$DIMGAP
 40
0.09
  9
$LUNITS
 70
     2
  9
$LUPREC
 70
     4
  9
$SKETCHINC
 40
0.1
  9
$FILLETRAD
 40
0.0
  9
$AUNITS
 70
     0
  9
$AUPREC
 70
     0
  9
$MENU
  1
.
  9
$ELEVATION
 40
0.0
  9
$PELEVATION
 40
0.0
  9
$THICKNESS
 40
0.0
  9
$LIMCHECK
 70
     0
  9
$BLIPMODE
 70
     0
  9
$CHAMFERA
 40
0.0
  9
$CHAMFERB
 40
0.0
  9
$SKPOLY
 70
     0
  9
$TDCREATE
 40
2458060.468368056230247
  9
$TDUPDATE
 40
2459153.7748032407835126
  9
$TDINDWG
 40
0.5588612269
  9
$TDUSRTIMER
 40
0.5588612269
  9
$USRTIMER
 70
     1
  9
$ANGBASE
 50
0.0
  9
$ANGDIR
 70
     0
  9
$PDMODE
 70
     0
  9
$PDSIZE
 40
0.3125
  9
$PLINEWID
 40
0.0
  9
$COORDS
 70
     1
  9
$SPLFRAME
 70
     0
  9
$SPLINETYPE
 70
     6
  9
$SPLINESEGS
 70
     8
  9
$ATTDIA
 70
     1
  9
$ATTREQ
 70
     1
  9
$HANDLING
 70
     1
  9
$HANDSEED
  5
943B
  9
$SURFTAB1
 70
     6
  9
$SURFTAB2
 70
     6
  9
$SURFTYPE
 70
     6
  9
$SURFU
 70
     6
  9
$SURFV
 70
     6
  9
$UCSNAME
  2

  9
$UCSORG
 10
0.0
 20
0.0
 30
0.0
  9
$UCSXDIR
 10
1.0
 20
0.0
 30
0.0
  9
$UCSYDIR
 10
0.0
 20
1.0
 30
0.0
  9
$PUCSNAME
  2

  9
$PUCSORG
 10
0.0
 20
0.0
 30
0.0
  9
$PUCSXDIR
 10
1.0
 20
0.0
 30
0.0
  9
$PUCSYDIR
 10
0.0
 20
1.0
 30
0.0
  9
$USERI1
 70
     0
  9
$USERI2
 70
     0
  9
$USERI3
 70
     0
  9
$USERI4
 70
     0
  9
$USERI5
 70
     0
  9
$USERR1
 40
0.0
  9
$USERR2
 40
0.0
  9
$USERR3
 40
0.0
  9
$USERR4
 40
0.0
  9
$USERR5
 40
0.0
  9
$WORLDVIEW
 70
     1
  9
$SHADEDGE
 70
     3
  9
$SHADEDIF
 70
    70
  9
$TILEMODE
 70
     1
  9
$MAXACTVP
 70
    64
  9
$PLIMCHECK
 70
     0
  9
$PEXTMIN
 10
1.0000000000000000E+20
 20
1.0000000000000000E+20
 30
1.0000000000000000E+20
  9
$PEXTMAX
 10
-1.0000000000000000E+20
 20
-1.0000000000000000E+20
 30
-1.0000000000000000E+20
  9
$PLIMMIN
 10
0.0
 20
0.0
  9
$PLIMMAX
 10
12.0
 20
9.0
  9
$UNITMODE
 70
     0
  9
$VISRETAIN
 70
     1
  9
$PLINEGEN
 70
     0
  9
$PSLTSCALE
 70
     1
  0
ENDSEC
  0
SECTION
  2
TABLES
  0
TABLE
  2
VPORT
 70
     1
  0
VPORT
  2
*ACTIVE
 70
     0
 10
0.0
 20
0.0
 11
1.0
 21
1.0
 12
0.0
 22
0.0
 13
0.0
 23
0.0
 14
1.0
 24
1.0
 15
0.0
 25
0.0
 16
0.0
 26
0.0
 36
126.4989130682187977
 17
3585.226318359375
 27
194.2801709529792049
 37
0.0
 40
32.1846668009596328
 41
3.1182994454713491
 42
50.0
 43
0.0
 44
0.0
 50
0.0
 51
0.0
 71
     0
 72
   100
 73
     1
 74
     1
 75
     0
 76
     0
 77
     0
 78
     0
  0
ENDTAB
  0
TABLE
  2
LTYPE
 70
     2
  0
LTYPE
  2
CONTINUOUS
 70
     0
  3
Solid line
 72
    65
 73
     0
 40
0.0
  0
LTYPE
  2
PHANTOM2
 70
     0
  3
___ _ _ ___ _ _ ___ _ _ ___ _ _
 72
    65
 73
     6
 40
1.25
 49
0.625
 49
-0.125
 49
0.125
 49
-0.125
 49
0.125
 49
-0.125
  0
ENDTAB
  0
TABLE
  2
LAYER
 70
     2
  0
LAYER
  2
0
 70
     0
 62
   255
  6
CONTINUOUS
  0
LAYER
  2
DEFPOINTS
 70
     0
 62
     7
  6
CONTINUOUS
  0
ENDTAB
  0
TABLE
  2
STYLE
 70
     1
  0
STYLE
  2
STANDARD
 70
     0
 40
0.0
 41
0.8
 50
0.0
 71
     0
 42
0.2
  3
txt
  4

  0
ENDTAB
  0
TABLE
  2
VIEW
 70
     0
  0
ENDTAB
  0
TABLE
  2
UCS
 70
     0
  0
ENDTAB
  0
TABLE
  2
APPID
 70
     9
  0
APPID
  2
ACAD
 70
     0
  0
APPID
  2
ACAD_MLEADERVER
 70
     0
  0
APPID
  2
ACAD_EXEMPT_FROM_CAD_STANDARDS
 70
     0
  0
APPID
  2
ACAD_NAV_VCDISPLAY
 70
     0
  0
APPID
  2
ACAECLAYERSTANDARD
 70
     0
  0
APPID
  2
ACCMTRANSPARENCY
 70
     0
  0
APPID
  2
ACAD_DSTYLE_DIMJAG
 70
     0
  0
APPID
  2
ACAD_DSTYLE_DIMTALN
 70
     0
  0
APPID
  2
ACDBATTR
 70
     0
  0
ENDTAB
  0
TABLE
  2
DIMSTYLE
 70
     1
  0
DIMSTYLE
  2
STANDARD
 70
     0
  3

  4

  5

  6

  7

 40
1.0
 41
0.1875
 42
0.0625
 43
0.38
 44
0.125
 45
0.0
 46
0.0
 47
0.01
 48
0.01
140
0.15625
141
0.09
142
0.0
143
25.3999999999999986
144
1.0
145
0.0
146
1.0
147
0.09
 71
     1
 72
     0
 73
     1
 74
     1
 75
     0
 76
     0
 77
     0
 78
     4
170
     0
171
     2
172
     0
173
     0
174
     0
175
     0
176
     0
177
     0
178
     0
  0
ENDTAB
  0
ENDSEC
  0
SECTION
  2
BLOCKS
  0
BLOCK
  8
0
  2
$MODEL_SPACE
 70
     0
 10
0.0
 20
0.0
 30
0.0
  3
$MODEL_SPACE
  1

  0
ENDBLK
  5
21
  8
0
  0
BLOCK
 67
     1
  8
0
  2
$PAPER_SPACE
 70
     0
 10
0.0
 20
0.0
 30
0.0
  3
$PAPER_SPACE
  1

  0
ENDBLK
  5
1D
 67
     1
  8
0
  0
BLOCK
  8
0
  2
_FILLED
 70
     0
 10
0.0
 20
0.0
 30
0.0
  3
_FILLED
  1

  0
SOLID
  5
6F59
  8
0
  6
BYBLOCK
 62
     0
 10
0.0
 20
0.0
 30
0.0
 11
-1.0
 21
0.1666666667
 31
0.0
 12
-1.0
 22
-0.1666666667
 32
0.0
 13
-1.0
 23
-0.1666666667
 33
0.0
  0
ENDBLK
  5
6F5A
  8
0
  6
BYBLOCK
 62
     0
  0
ENDSEC
  0
SECTION
  2
ENTITIES
  0
ATTDEF
  5
3930
  8
DEFPOINTS
 10
3585.2285535395808438
 20
203.0317540153332914
 30
0.0
 40
0.001
  1
K-20821T
  3

  2
MODELNUMBER
 70
     0
1001
ACDBATTR
1070
     0
1070
     1
  0
ATTDEF
  5
3931
  8
DEFPOINTS
 10
3585.2285535395808438
 20
203.0300873486667115
 30
0.0
 40
0.001
  1
BROCKWAY
  3

  2
TRADENAME
 70
     0
1001
ACDBATTR
1070
     0
1070
     1
  0
ATTDEF
  5
3932
  8
DEFPOINTS
 10
3585.2285535395808438
 20
203.0284206819999895
 30
0.0
 40
0.001
  1
BATHROOM SINK
  3

  2
PRODUCT
 70
     0
1001
ACDBATTR
1070
     0
1070
     1
  0
LINE
  5
9202
  8
0
 10
3598.730179689930992
 20
203.0271392366475141
 30
0.0
 11
3571.7223149411311169
 21
203.0271392366475141
 31
0.0
  0
LINE
  5
9203
  8
0
 10
3598.730179689930992
 20
193.006782322415404
 30
0.0
 11
3598.730179689930992
 21
203.0271392366475141
 31
0.0
  0
LINE
  5
9204
  8
0
 10
3591.2271923288299149
 20
185.527589049447414
 30
0.0
 11
3579.2253023022331035
 21
185.527589049447414
 31
0.0
  0
LINE
  5
9205
  8
0
 10
3591.3030994716959867
 20
187.38549188540091
 30
0.0
 11
3579.1493951593670317
 21
187.38549188540091
 31
0.0
  0
LINE
  5
9206
  8
0
 10
3596.8533810656958849
 20
192.9372875149975073
 30
0.0
 11
3596.8533810656958849
 21
197.7768427810160006
 31
0.0
  0
LINE
  5
9207
  8
0
 10
3597.1590459177900811
 20
201.0271392017411927
 30
0.0
 11
3573.2934487132720278
 21
201.0271392017411927
 31
0.0
  0
LINE
  5
9208
  8
0
 10
3590.4900435958761591
 20
191.737537509247403
 30
0.0
 11
3579.9624510351859499
 21
191.737537509247403
 31
0.0
  0
CIRCLE
  5
9209
  8
0
 10
3585.2262473155310545
 20
194.2168400661473981
 30
0.0
 40
0.8858269092000004
  0
CIRCLE
  5
920A
  8
0
 10
3585.2262473155310545
 20
194.2168400661473981
 30
0.0
 40
2.1505158552996728
  0
LINE
  5
920B
  8
0
 10
3592.4231963065258242
 20
199.9232068571888874
 30
0.0
 11
3578.0292983245349205
 21
199.9232068571888874
 31
0.0
  0
ARC
  5
920C
  8
0
 10
3587.0627451545660733
 20
197.0921776850474885
 30
0.0
 40
6.0621087689079314
 50
357.6231947643753983
 51
27.8399961487668293
  0
LINE
  5
920D
  8
0
 10
3593.1196386945762242
 20
196.8407748786777915
 30
0.0
 11
3593.111099144930904
 21
194.2800337459474065
 31
0.0
  0
ARC
  5
920E
  8
0
 10
3590.2766944938498455
 20
194.5797480092564911
 30
0.0
 40
2.8502067233267989
 50
274.2928280561499719
 51
353.9638874837283993
  0
ARC
  5
920F
  8
0
 10
3591.2224459359367756
 20
193.0353757523884042
 30
0.0
 40
7.5077882032661671
 50
270.0362221591216212
 51
359.7817883542477944
  0
ARC
  5
9210
  8
0
 10
3591.2119905334488976
 20
193.0268577776878942
 30
0.0
 40
5.6421015560947954
 50
270.9252553290274932
 51
359.090371989604705
  0
ARC
  5
9211
  8
0
 10
3592.8891501036409863
 20
197.7013908522214081
 30
0.0
 40
3.9649489421780122
 50
1.0903893345259139
 51
57.0122706829313799
  0
ARC
  5
9212
  8
0
 10
3597.0230596865731059
 20
202.083318621667587
 30
0.0
 40
1.0648977519727689
 50
277.3366385171863726
 51
359.6715158457222969
  0
LINE
  5
9213
  8
0
 10
3598.0879399376490255
 20
202.0772134578290036
 30
0.0
 11
3598.0933859558258519
 21
203.0271236252395113
 31
0.0
  0
LINE
  5
9214
  8
0
 10
3571.7223149411311169
 20
193.006782322415404
 30
0.0
 11
3571.7223149411311169
 21
203.0271392366475141
 31
0.0
  0
LINE
  5
9215
  8
0
 10
3573.5991135653648598
 20
192.9372875149975073
 30
0.0
 11
3573.5991135653648598
 21
197.7768427810160006
 31
0.0
  0
ARC
  5
9216
  8
0
 10
3583.3897494764951261
 20
197.0921776850474885
 30
0.0
 40
6.0621087689079314
 50
152.1600038512331992
 51
182.3768052356246017
  0
LINE
  5
9217
  8
0
 10
3577.3328559364849752
 20
196.8407748786777915
 30
0.0
 11
3577.341395486131205
 21
194.2800337459474065
 31
0.0
  0
ARC
  5
9218
  8
0
 10
3580.1758001372108993
 20
194.5797480092564911
 30
0.0
 40
2.8502067233267989
 50
186.036112516271487
 51
265.7071719438500281
  0
ARC
  5
9219
  8
0
 10
3579.2300486951248786
 20
193.0353757523884042
 30
0.0
 40
7.5077882032661671
 50
180.2182116457522056
 51
269.9637778408783788
  0
ARC
  5
921A
  8
0
 10
3579.2405040976118471
 20
193.0268577776878942
 30
0.0
 40
5.6421015560947954
 50
180.909628010395295
 51
269.0747446709726205
  0
ARC
  5
921B
  8
0
 10
3577.5633445274211226
 20
197.7013908522214081
 30
0.0
 40
3.9649489421780122
 50
122.9877293170685988
 51
178.909610665474105
  0
ARC
  5
921C
  8
0
 10
3573.4294349444880936
 20
202.083318621667587
 30
0.0
 40
1.0648977519727689
 50
180.3284841542761114
 51
262.6633614828136274
  0
LINE
  5
921D
  8
0
 10
3572.3645546934121739
 20
202.0772134578290036
 30
0.0
 11
3572.3591086752348929
 21
203.0271236252395113
 31
0.0
  0
ENDSEC
  0
EOF
